  0
SECTION
  2
HEADER
  9
$ACADVER
  1
AC1009
  9
$INSBASE
 10
0.0
 20
0.0
 30
0.0
  9
$EXTMIN
 10
0.0
 20
-1.4802182810368341
 30
0.0
  9
$EXTMAX
 10
65.199481000000006
 20
42.145733
 30
0.0
  9
$LIMMIN
 10
0.0
 20
0.0
  9
$LIMMAX
 10
75.0
 20
54.0
  9
$ORTHOMODE
 70
     0
  9
$REGENMODE
 70
     1
  9
$FILLMODE
 70
     1
  9
$QTEXTMODE
 70
     0
  9
$MIRRTEXT
 70
     0
  9
$DRAGMODE
 70
     2
  9
$LTSCALE
 40
2.0
  9
$OSMODE
 70
  3071
  9
$ATTMODE
 70
     1
  9
$TEXTSIZE
 40
0.2
  9
$TRACEWID
 40
0.05
  9
$TEXTSTYLE
  7
STANDARD
  9
$CLAYER
  8
0
  9
$CELTYPE
  6
BYLAYER
  9
$CECOLOR
 62
   256
  9
$DIMSCALE
 40
0.2
  9
$DIMASZ
 40
3.0
  9
$DIMEXO
 40
2.0
  9
$DIMDLI
 40
10.0
  9
$DIMRND
 40
0.0
  9
$DIMDLE
 40
0.0
  9
$DIMEXE
 40
2.0
  9
$DIMTP
 40
0.0
  9
$DIMTM
 40
0.0
  9
$DIMTXT
 40
3.2000000000000002
  9
$DIMCEN
 40
0.09
  9
$DIMTSZ
 40
0.0
  9
$DIMTOL
 70
     0
  9
$DIMLIM
 70
     0
  9
$DIMTIH
 70
     0
  9
$DIMTOH
 70
     0
  9
$DIMSE1
 70
     0
  9
$DIMSE2
 70
     0
  9
$DIMTAD
 70
     1
  9
$DIMZIN
 70
     0
  9
$DIMBLK
  1

  9
$DIMASO
 70
     1
  9
$DIMSHO
 70
     0
  9
$DIMPOST
  1

  9
$DIMAPOST
  1

  9
$DIMALT
 70
     0
  9
$DIMALTD
 70
     2
  9
$DIMALTF
 40
25.399999999999999
  9
$DIMLFAC
 40
1.0
  9
$DIMTOFL
 70
     1
  9
$DIMTVP
 40
1.6000000000000001
  9
$DIMTIX
 70
     0
  9
$DIMSOXD
 70
     0
  9
$DIMSAH
 70
     0
  9
$DIMBLK1
  1

  9
$DIMBLK2
  1

  9
$DIMSTYLE
  2
STANDARD
  9
$DIMCLRD
 70
     0
  9
$DIMCLRE
 70
     0
  9
$DIMCLRT
 70
     0
  9
$DIMTFAC
 40
1.0
  9
$DIMGAP
 40
0.09
  9
$LUNITS
 70
     2
  9
$LUPREC
 70
     4
  9
$SKETCHINC
 40
0.1
  9
$FILLETRAD
 40
0.0
  9
$AUNITS
 70
     0
  9
$AUPREC
 70
     0
  9
$MENU
  1
E:\r13\win\SUPPORT\ACAD
  9
$ELEVATION
 40
0.0
  9
$PELEVATION
 40
0.0
  9
$THICKNESS
 40
0.0
  9
$LIMCHECK
 70
     0
  9
$BLIPMODE
 70
     0
  9
$CHAMFERA
 40
0.0
  9
$CHAMFERB
 40
0.0
  9
$SKPOLY
 70
     0
  9
$TDCREATE
 40
2449840.618125
  9
$TDUPDATE
 40
2456597.7230375349
  9
$TDINDWG
 40
0.0125066435
  9
$TDUSRTIMER
 40
0.0125066435
  9
$USRTIMER
 70
     1
  9
$ANGBASE
 50
0.0
  9
$ANGDIR
 70
     0
  9
$PDMODE
 70
     0
  9
$PDSIZE
 40
0.0
  9
$PLINEWID
 40
0.0
  9
$COORDS
 70
     1
  9
$SPLFRAME
 70
     0
  9
$SPLINETYPE
 70
     6
  9
$SPLINESEGS
 70
     8
  9
$ATTDIA
 70
     0
  9
$ATTREQ
 70
     1
  9
$HANDLING
 70
     1
  9
$HANDSEED
  5
31C
  9
$SURFTAB1
 70
     6
  9
$SURFTAB2
 70
     6
  9
$SURFTYPE
 70
     6
  9
$SURFU
 70
     6
  9
$SURFV
 70
     6
  9
$UCSNAME
  2

  9
$UCSORG
 10
0.0
 20
0.0
 30
0.0
  9
$UCSXDIR
 10
1.0
 20
0.0
 30
0.0
  9
$UCSYDIR
 10
0.0
 20
1.0
 30
0.0
  9
$PUCSNAME
  2

  9
$PUCSORG
 10
0.0
 20
0.0
 30
0.0
  9
$PUCSXDIR
 10
1.0
 20
0.0
 30
0.0
  9
$PUCSYDIR
 10
0.0
 20
1.0
 30
0.0
  9
$USERI1
 70
     0
  9
$USERI2
 70
     1
  9
$USERI3
 70
     1
  9
$USERI4
 70
     0
  9
$USERI5
 70
     0
  9
$USERR1
 40
0.0
  9
$USERR2
 40
0.0
  9
$USERR3
 40
0.0
  9
$USERR4
 40
0.0
  9
$USERR5
 40
0.0
  9
$WORLDVIEW
 70
     1
  9
$SHADEDGE
 70
     3
  9
$SHADEDIF
 70
    70
  9
$TILEMODE
 70
     1
  9
$MAXACTVP
 70
    16
  9
$PLIMCHECK
 70
     0
  9
$PEXTMIN
 10
1.0000000000000000E+020
 20
1.0000000000000000E+020
 30
1.0000000000000000E+020
  9
$PEXTMAX
 10
-1.0000000000000000E+020
 20
-1.0000000000000000E+020
 30
-1.0000000000000000E+020
  9
$PLIMMIN
 10
0.0
 20
0.0
  9
$PLIMMAX
 10
12.0
 20
9.0
  9
$UNITMODE
 70
     0
  9
$VISRETAIN
 70
     0
  9
$PLINEGEN
 70
     0
  9
$PSLTSCALE
 70
     0
  0
ENDSEC
  0
SECTION
  2
TABLES
  0
TABLE
  2
VPORT
 70
     1
  0
VPORT
  2
*ACTIVE
 70
     0
 10
0.0
 20
0.0
 11
1.0
 21
1.0
 12
37.498855678130482
 22
26.379763760371251
 13
0.0
 23
0.0
 14
2.0
 24
2.0
 15
2.0
 25
2.0
 16
0.0
 26
0.0
 36
1.0
 17
0.0
 27
0.0
 37
0.0
 40
56.358601010194953
 41
2.304913294797688
 42
50.0
 43
0.0
 44
0.0
 50
0.0
 51
0.0
 71
     0
 72
   100
 73
     1
 74
     0
 75
     0
 76
     0
 77
     0
 78
     1
  0
ENDTAB
  0
TABLE
  2
LTYPE
 70
     4
  0
LTYPE
  2
CONTINUOUS
 70
     0
  3
Solid Line
 72
    65
 73
     0
 40
0.0
  0
LTYPE
  2
CENTER
 70
     0
  3
____ _ ____ _ ____ _ ____ _ ____ _ ____ _ ____
 72
    65
 73
     4
 40
2.0
 49
1.25
 49
-0.25
 49
0.25
 49
-0.25
  0
LTYPE
  2
HIDDEN
 70
     0
  3
_ _ _ _ _ _ _ _ _ _ _ _ _ _ _ _ _ _ _ _ _ _ _
 72
    65
 73
     2
 40
0.375
 49
0.25
 49
-0.125
  0
LTYPE
  2
PHANTOM2
 70
     0
  3
___ _ _ ___ _ _ ___ _ _ ___ _ _
 72
    65
 73
     6
 40
1.25
 49
0.625
 49
-0.125
 49
0.125
 49
-0.125
 49
0.125
 49
-0.125
  0
ENDTAB
  0
TABLE
  2
LAYER
 70
     5
  0
LAYER
  2
0
 70
     0
 62
     7
  6
CONTINUOUS
  0
LAYER
  2
1
 70
     0
 62
     1
  6
CENTER
  0
LAYER
  2
2
 70
     0
 62
     2
  6
HIDDEN
  0
LAYER
  2
3
 70
     0
 62
     3
  6
CONTINUOUS
  0
LAYER
  2
DEFPOINTS
 70
     0
 62
     7
  6
CONTINUOUS
  0
ENDTAB
  0
TABLE
  2
STYLE
 70
     2
  0
STYLE
  2
STANDARD
 70
     0
 40
0.0
 41
1.0
 50
0.0
 71
     0
 42
0.2
  3
TXT
  4
BIGFONT
  0
STYLE
  2
STANDARD1
 70
     0
 40
0.0
 41
1.0
 50
0.0
 71
     0
 42
3.0
  3
txt
  4

  0
ENDTAB
  0
TABLE
  2
VIEW
 70
     1
  0
VIEW
  2
ALL
 70
     0
 40
54.0
 10
44.198318999999998
 20
27.0
 41
0.0
 11
0.0
 21
0.0
 31
1.0
 12
0.0
 22
0.0
 32
0.0
 42
0.0
 43
0.0
 44
0.0
 50
0.0
 71
     0
  0
ENDTAB
  0
TABLE
  2
UCS
 70
     0
  0
ENDTAB
  0
TABLE
  2
APPID
 70
     3
  0
APPID
  2
ACAD
 70
     0
  0
APPID
  2
ACAD_MLEADERVER
 70
     0
  0
APPID
  2
ACAD_NAV_VCDISPLAY
 70
     0
  0
ENDTAB
  0
TABLE
  2
DIMSTYLE
 70
     1
  0
DIMSTYLE
  2
STANDARD
 70
     0
  3

  4

  5

  6

  7

 40
1.0
 41
0.18
 42
0.0625
 43
0.38
 44
0.18
 45
0.0
 46
0.0
 47
0.0
 48
0.0
140
0.18
141
0.09
142
0.0
143
25.399999999999999
144
1.0
145
0.0
146
1.0
147
0.09
 71
     0
 72
     0
 73
     1
 74
     1
 75
     0
 76
     0
 77
     0
 78
     0
170
     0
171
     2
172
     0
173
     0
174
     0
175
     0
176
     0
177
     0
178
     0
  0
ENDTAB
  0
ENDSEC
  0
SECTION
  2
BLOCKS
  0
BLOCK
  8
0
  2
$MODEL_SPACE
 70
     0
 10
0.0
 20
0.0
 30
0.0
  3
$MODEL_SPACE
  1

  0
ENDBLK
  5
C8
  8
0
  0
BLOCK
 67
     1
  8
0
  2
$PAPER_SPACE
 70
     0
 10
0.0
 20
0.0
 30
0.0
  3
$PAPER_SPACE
  1

  0
ENDBLK
  5
C6
 67
     1
  8
0
  0
ENDSEC
  0
SECTION
  2
ENTITIES
  0
LINE
  5
36
  8
1
 10
11.489151
 20
25.997802
 30
0.0
 11
16.489151
 21
25.997802
 31
0.0
  0
LINE
  5
37
  8
1
 10
65.199481000000006
 20
25.997802
 30
0.0
 11
60.199480999999999
 21
25.997802
 31
0.0
  0
LINE
  5
38
  8
1
 10
43.924669999999992
 20
25.997802
 30
0.0
 11
30.424669999999999
 21
25.997802
 31
0.0
  0
LINE
  5
39
  8
1
 10
13.989151
 20
28.497802000000011
 30
0.0
 11
13.989151
 21
23.497802
 31
0.0
  0
LINE
  5
3A
  8
1
 10
62.699480999999999
 20
28.497802000000011
 30
0.0
 11
62.699480999999999
 21
23.497802
 31
0.0
  0
CIRCLE
  5
3B
  8
0
 10
62.699480999999999
 20
25.997802
 30
0.0
 40
1.5
  0
CIRCLE
  5
3C
  8
0
 10
13.989151
 20
25.997802
 30
0.0
 40
1.5
  0
LINE
  5
3D
  8
0
 10
40.424669999999999
 20
27.497802
 30
0.0
 11
31.72467
 21
27.497802
 31
0.0
  0
LINE
  5
3E
  8
0
 10
40.424669999999999
 20
24.497802
 30
0.0
 11
31.72467
 21
24.497802
 31
0.0
  0
LINE
  5
3F
  8
0
 10
41.424669999999992
 20
27.19780200000001
 30
0.0
 11
41.424669999999992
 21
24.797802000000001
 31
0.0
  0
LINE
  5
40
  8
0
 10
31.424669999999999
 20
27.19780200000001
 30
0.0
 11
31.424669999999999
 21
24.797802000000001
 31
0.0
  0
LINE
  5
41
  8
0
 10
41.424669999999992
 20
24.797802000000001
 30
0.0
 11
41.138063000000002
 21
24.511195000000001
 31
0.0
  0
LINE
  5
42
  8
0
 10
41.138063000000002
 20
27.484408999999999
 30
0.0
 11
41.424669999999992
 21
27.19780200000001
 31
0.0
  0
LINE
  5
43
  8
0
 10
31.72467
 20
27.497802
 30
0.0
 11
31.424669999999999
 21
27.19780200000001
 31
0.0
  0
LINE
  5
44
  8
0
 10
31.424669999999999
 20
24.797802000000001
 30
0.0
 11
31.72467
 21
24.497802
 31
0.0
  0
LINE
  5
45
  8
0
 10
31.72467
 20
27.497802
 30
0.0
 11
31.72467
 21
24.497802
 31
0.0
  0
LINE
  5
46
  8
0
 10
41.124670000000002
 20
24.511195000000001
 30
0.0
 11
41.124670000000002
 21
27.484408999999999
 31
0.0
  0
LINE
  5
47
  8
0
 10
42.424669999999999
 20
26.497802
 30
0.0
 11
41.424669999999992
 21
26.497802
 31
0.0
  0
LINE
  5
48
  8
0
 10
42.424669999999999
 20
25.497802
 30
0.0
 11
41.424669999999992
 21
25.497802
 31
0.0
  0
ARC
  5
49
  8
0
 10
42.424669999999999
 20
25.997802
 30
0.0
 40
0.5
 50
270.0
 51
90.0
  0
CIRCLE
  5
4A
  8
0
 10
62.699480999999999
 20
25.997802
 30
0.0
 40
0.5
  0
LINE
  5
4B
  8
0
 10
62.49948100000001
 20
27.484408999999999
 30
0.0
 11
62.49948100000001
 21
26.456059
 31
0.0
  0
LINE
  5
4C
  8
0
 10
62.899481000000009
 20
27.484408999999999
 30
0.0
 11
62.899481000000009
 21
26.456059
 31
0.0
  0
LINE
  5
4D
  8
0
 10
62.49948100000001
 20
25.539543999999999
 30
0.0
 11
62.49948100000001
 21
24.511195000000001
 31
0.0
  0
LINE
  5
4E
  8
0
 10
62.899481000000009
 20
25.539543999999999
 30
0.0
 11
62.899481000000009
 21
24.511195000000001
 31
0.0
  0
LINE
  5
4F
  8
3
 10
41.39517
 20
27.227302000000002
 30
0.0
 11
31.454170000000001
 21
27.227302000000002
 31
0.0
  0
LINE
  5
50
  8
3
 10
41.39517
 20
24.768301999999998
 30
0.0
 11
31.454170000000001
 21
24.768301999999998
 31
0.0
  0
CIRCLE
  5
51
  8
3
 10
13.989151
 20
25.997802
 30
0.0
 40
1.2295
  0
CIRCLE
  5
52
  8
3
 10
62.699480999999999
 20
25.997802
 30
0.0
 40
1.2295
  0
LINE
  5
53
  8
0
 10
13.639151
 20
26.199874000000001
 30
0.0
 11
13.639151
 21
25.795729000000001
 31
0.0
  0
LINE
  5
54
  8
0
 10
13.989151
 20
26.401947
 30
0.0
 11
13.639151
 21
26.199874000000001
 31
0.0
  0
LINE
  5
55
  8
0
 10
14.339150999999999
 20
26.199874000000001
 30
0.0
 11
13.989151
 21
26.401947
 31
0.0
  0
LINE
  5
56
  8
0
 10
14.339150999999999
 20
25.795729000000001
 30
0.0
 11
14.339150999999999
 21
26.199874000000001
 31
0.0
  0
LINE
  5
57
  8
0
 10
13.989151
 20
25.593657
 30
0.0
 11
14.339150999999999
 21
25.795729000000001
 31
0.0
  0
LINE
  5
58
  8
0
 10
13.639151
 20
25.795729000000001
 30
0.0
 11
13.989151
 21
25.593657
 31
0.0
  0
CIRCLE
  5
59
  8
3
 10
13.989151
 20
25.997802
 30
0.0
 40
0.8
  0
CIRCLE
  5
5A
  8
0
 10
13.989151
 20
25.997802
 30
0.0
 40
0.6105000000000002
  0
ARC
  5
5B
  8
2
 10
40.924669999999999
 20
25.997802
 30
0.0
 40
0.5
 50
270.0
 51
90.0
  0
ARC
  5
60
  8
2
 10
40.924669999999999
 20
40.645733
 30
0.0
 40
0.5
 50
270.0
 51
90.0
  0
LINE
  5
61
  8
3
 10
41.39517
 20
39.416232999999998
 30
0.0
 11
31.454170000000001
 21
39.416232999999998
 31
0.0
  0
LINE
  5
62
  8
3
 10
41.39517
 20
41.875233000000001
 30
0.0
 11
31.454170000000001
 21
41.875233000000001
 31
0.0
  0
ARC
  5
63
  8
0
 10
42.424669999999999
 20
40.645733
 30
0.0
 40
0.5
 50
270.0
 51
90.0
  0
LINE
  5
64
  8
0
 10
42.424669999999999
 20
40.145733
 30
0.0
 11
41.424669999999992
 21
40.145733
 31
0.0
  0
LINE
  5
65
  8
0
 10
42.424669999999999
 20
41.145732999999993
 30
0.0
 11
41.424669999999992
 21
41.145732999999993
 31
0.0
  0
LINE
  5
66
  8
0
 10
41.124670000000002
 20
39.145733
 30
0.0
 11
41.124670000000002
 21
40.445732999999997
 31
0.0
  0
LINE
  5
67
  8
0
 10
31.72467
 20
42.145733
 30
0.0
 11
31.72467
 21
39.145733
 31
0.0
  0
LINE
  5
68
  8
0
 10
31.424669999999999
 20
39.445732999999997
 30
0.0
 11
31.72467
 21
39.145733
 31
0.0
  0
LINE
  5
69
  8
0
 10
31.72467
 20
42.145733
 30
0.0
 11
31.424669999999999
 21
41.845733000000003
 31
0.0
  0
LINE
  5
6A
  8
0
 10
41.124670000000002
 20
42.145733
 30
0.0
 11
41.424669999999992
 21
41.845733000000003
 31
0.0
  0
LINE
  5
6B
  8
0
 10
41.424669999999992
 20
39.445732999999997
 30
0.0
 11
41.124670000000002
 21
39.145733
 31
0.0
  0
LINE
  5
6C
  8
0
 10
31.424669999999999
 20
41.845733000000003
 30
0.0
 11
31.424669999999999
 21
39.445732999999997
 31
0.0
  0
LINE
  5
6D
  8
0
 10
41.424669999999992
 20
41.845733000000003
 30
0.0
 11
41.424669999999992
 21
40.845733000000003
 31
0.0
  0
LINE
  5
6E
  8
0
 10
41.124670000000002
 20
39.145733
 30
0.0
 11
31.72467
 21
39.145733
 31
0.0
  0
LINE
  5
6F
  8
0
 10
41.124670000000002
 20
42.145733
 30
0.0
 11
31.72467
 21
42.145733
 31
0.0
  0
LINE
  5
70
  8
1
 10
43.924669999999992
 20
40.645733
 30
0.0
 11
30.424669999999999
 21
40.645733
 31
0.0
  0
LINE
  5
76
  8
0
 10
40.424669999999999
 20
27.497802
 30
0.0
 11
40.424669999999999
 21
27.484408999999999
 31
0.0
  0
LINE
  5
77
  8
0
 10
41.138063000000002
 20
27.484408999999999
 30
0.0
 11
40.424669999999999
 21
27.484408999999999
 31
0.0
  0
LINE
  5
78
  8
0
 10
41.138063000000002
 20
24.511195000000001
 30
0.0
 11
40.424669999999999
 21
24.511195000000001
 31
0.0
  0
LINE
  5
79
  8
0
 10
40.424669999999999
 20
24.511195000000001
 30
0.0
 11
40.424669999999999
 21
24.497802
 31
0.0
  0
LINE
  5
7A
  8
0
 10
41.424669999999992
 20
40.845733000000003
 30
0.0
 11
40.424669999999999
 21
40.845733000000003
 31
0.0
  0
LINE
  5
7B
  8
0
 10
41.424669999999992
 20
40.445732999999997
 30
0.0
 11
40.424669999999999
 21
40.445732999999997
 31
0.0
  0
LINE
  5
7C
  8
0
 10
40.424669999999999
 20
40.845733000000003
 30
0.0
 11
40.424669999999999
 21
40.445732999999997
 31
0.0
  0
LINE
  5
7D
  8
0
 10
41.124670000000002
 20
40.845733000000003
 30
0.0
 11
41.124670000000002
 21
42.145733
 31
0.0
  0
LINE
  5
7E
  8
0
 10
41.424669999999992
 20
40.445732999999997
 30
0.0
 11
41.424669999999992
 21
39.445732999999997
 31
0.0
  0
LINE
  5
7F
  8
0
 10
41.424669999999992
 20
11.54987
 30
0.0
 11
41.424669999999992
 21
12.54987
 31
0.0
  0
LINE
  5
80
  8
0
 10
41.124670000000002
 20
11.14987
 30
0.0
 11
41.124670000000002
 21
9.8498699999999992
 31
0.0
  0
LINE
  5
81
  8
0
 10
40.424669999999999
 20
11.14987
 30
0.0
 11
40.424669999999999
 21
11.54987
 31
0.0
  0
LINE
  5
82
  8
0
 10
41.424669999999992
 20
11.54987
 30
0.0
 11
40.424669999999999
 21
11.54987
 31
0.0
  0
LINE
  5
83
  8
0
 10
41.424669999999992
 20
11.14987
 30
0.0
 11
40.424669999999999
 21
11.14987
 31
0.0
  0
LINE
  5
84
  8
1
 10
43.924669999999992
 20
11.349869999999999
 30
0.0
 11
30.424669999999999
 21
11.349869999999999
 31
0.0
  0
LINE
  5
85
  8
0
 10
41.124670000000002
 20
9.8498699999999992
 30
0.0
 11
31.72467
 21
9.8498699999999992
 31
0.0
  0
LINE
  5
86
  8
0
 10
41.124670000000002
 20
12.849869999999999
 30
0.0
 11
31.72467
 21
12.849869999999999
 31
0.0
  0
LINE
  5
87
  8
0
 10
41.424669999999992
 20
10.14987
 30
0.0
 11
41.424669999999992
 21
11.14987
 31
0.0
  0
LINE
  5
88
  8
0
 10
31.424669999999999
 20
10.14987
 30
0.0
 11
31.424669999999999
 21
12.54987
 31
0.0
  0
LINE
  5
89
  8
0
 10
41.424669999999992
 20
12.54987
 30
0.0
 11
41.124670000000002
 21
12.849869999999999
 31
0.0
  0
LINE
  5
8A
  8
0
 10
41.124670000000002
 20
9.8498699999999992
 30
0.0
 11
41.424669999999992
 21
10.14987
 31
0.0
  0
LINE
  5
8B
  8
0
 10
31.72467
 20
9.8498699999999992
 30
0.0
 11
31.424669999999999
 21
10.14987
 31
0.0
  0
LINE
  5
8C
  8
0
 10
31.424669999999999
 20
12.54987
 30
0.0
 11
31.72467
 21
12.849869999999999
 31
0.0
  0
LINE
  5
8D
  8
0
 10
31.72467
 20
9.8498699999999992
 30
0.0
 11
31.72467
 21
12.849869999999999
 31
0.0
  0
LINE
  5
8E
  8
0
 10
41.124670000000002
 20
12.849869999999999
 30
0.0
 11
41.124670000000002
 21
11.54987
 31
0.0
  0
LINE
  5
8F
  8
0
 10
42.424669999999999
 20
10.849869999999999
 30
0.0
 11
41.424669999999992
 21
10.849869999999999
 31
0.0
  0
LINE
  5
90
  8
0
 10
42.424669999999999
 20
11.849869999999999
 30
0.0
 11
41.424669999999992
 21
11.849869999999999
 31
0.0
  0
ARC
  5
91
  8
0
 10
42.424669999999999
 20
11.349869999999999
 30
0.0
 40
0.5
 50
270.0
 51
90.0
  0
LINE
  5
92
  8
3
 10
41.39517
 20
10.120369999999999
 30
0.0
 11
31.454170000000001
 21
10.120369999999999
 31
0.0
  0
LINE
  5
93
  8
3
 10
41.39517
 20
12.579370000000001
 30
0.0
 11
31.454170000000001
 21
12.579370000000001
 31
0.0
  0
ARC
  5
94
  8
2
 10
40.924669999999999
 20
11.349869999999999
 30
0.0
 40
0.5
 50
270.0
 51
90.0
  0
LINE
  5
1EA
  8
2
 10
32.924670000000013
 20
25.593657
 30
0.0
 11
32.924670000000013
 21
26.40194737620762
 31
0.0
  0
LINE
  5
1EB
  8
2
 10
31.424669999999999
 20
25.593657
 30
0.0
 11
32.924670000000013
 21
25.593657
 31
0.0
  0
LINE
  5
1EC
  8
2
 10
31.424669999999999
 20
25.79572959405203
 30
0.0
 11
32.924670000000013
 21
25.79572959405203
 31
0.0
  0
LINE
  5
1ED
  8
2
 10
31.424669999999999
 20
26.19987478215559
 30
0.0
 11
32.924670000000013
 21
26.199874782155572
 31
0.0
  0
LINE
  5
1EE
  8
2
 10
31.424669999999999
 20
26.401947376207609
 30
0.0
 11
32.924670000000013
 21
26.40194737620762
 31
0.0
  0
LINE
  5
1F4
  8
2
 10
32.924670000000013
 20
40.295732999999998
 30
0.0
 11
32.924670000000013
 21
40.995733000000023
 31
0.0
  0
LINE
  5
1F5
  8
2
 10
31.424669999999999
 20
40.295732999999998
 30
0.0
 11
32.924670000000013
 21
40.295732999999998
 31
0.0
  0
LINE
  5
1F7
  8
2
 10
31.424669999999999
 20
40.645733000000007
 30
0.0
 11
32.924670000000013
 21
40.645732999999993
 31
0.0
  0
LINE
  5
1F8
  8
2
 10
31.424669999999999
 20
40.995733000000001
 30
0.0
 11
32.924670000000013
 21
40.995733000000023
 31
0.0
  0
LINE
  5
253
  8
2
 10
32.924670000000013
 20
10.999869999999991
 30
0.0
 11
32.924670000000013
 21
11.69987000000001
 31
0.0
  0
LINE
  5
254
  8
2
 10
31.424669999999999
 20
10.999869999999991
 30
0.0
 11
32.924670000000013
 21
10.999869999999991
 31
0.0
  0
LINE
  5
255
  8
2
 10
31.424669999999999
 20
11.349869999999999
 30
0.0
 11
32.924670000000013
 21
11.34986999999999
 31
0.0
  0
LINE
  5
256
  8
2
 10
31.424669999999999
 20
11.69986999999999
 30
0.0
 11
32.924670000000013
 21
11.69987000000001
 31
0.0
  0
TEXT
  5
2B6
  8
0
 62
     3
 10
0.0
 20
0.0
 30
0.0
 40
5.0
  1
PL3-SUS
  7
STANDARD1
  0
ENDSEC
  0
EOF
