  0
SECTION
  2
HEADER
  9
$ACADVER
  1
AC1009
  9
$INSBASE
 10
0.0
 20
0.0
 30
0.0
  9
$EXTMIN
 10
0.0
 20
-2.960436562073669
 30
0.0
  9
$EXTMAX
 10
225.84029759725371
 20
131.18853425207561
 30
0.0
  9
$LIMMIN
 10
0.0
 20
0.0
  9
$LIMMAX
 10
375.0
 20
270.0
  9
$ORTHOMODE
 70
     0
  9
$REGENMODE
 70
     1
  9
$FILLMODE
 70
     1
  9
$QTEXTMODE
 70
     0
  9
$MIRRTEXT
 70
     0
  9
$DRAGMODE
 70
     2
  9
$LTSCALE
 40
10.0
  9
$OSMODE
 70
  3071
  9
$ATTMODE
 70
     1
  9
$TEXTSIZE
 40
0.2
  9
$TRACEWID
 40
0.05
  9
$TEXTSTYLE
  7
STANDARD
  9
$CLAYER
  8
0
  9
$CELTYPE
  6
BYLAYER
  9
$CECOLOR
 62
   256
  9
$DIMSCALE
 40
1.0
  9
$DIMASZ
 40
3.0
  9
$DIMEXO
 40
2.0
  9
$DIMDLI
 40
0.38
  9
$DIMRND
 40
0.0
  9
$DIMDLE
 40
0.0
  9
$DIMEXE
 40
2.0
  9
$DIMTP
 40
0.0
  9
$DIMTM
 40
0.0
  9
$DIMTXT
 40
3.0
  9
$DIMCEN
 40
0.09
  9
$DIMTSZ
 40
0.0
  9
$DIMTOL
 70
     0
  9
$DIMLIM
 70
     0
  9
$DIMTIH
 70
     0
  9
$DIMTOH
 70
     0
  9
$DIMSE1
 70
     0
  9
$DIMSE2
 70
     0
  9
$DIMTAD
 70
     1
  9
$DIMZIN
 70
     0
  9
$DIMBLK
  1

  9
$DIMASO
 70
     0
  9
$DIMSHO
 70
     0
  9
$DIMPOST
  1

  9
$DIMAPOST
  1

  9
$DIMALT
 70
     0
  9
$DIMALTD
 70
     2
  9
$DIMALTF
 40
25.399999999999999
  9
$DIMLFAC
 40
1.0
  9
$DIMTOFL
 70
     0
  9
$DIMTVP
 40
1.6000000000000001
  9
$DIMTIX
 70
     1
  9
$DIMSOXD
 70
     0
  9
$DIMSAH
 70
     0
  9
$DIMBLK1
  1

  9
$DIMBLK2
  1

  9
$DIMSTYLE
  2
STANDARD
  9
$DIMCLRD
 70
     0
  9
$DIMCLRE
 70
     0
  9
$DIMCLRT
 70
     0
  9
$DIMTFAC
 40
1.0
  9
$DIMGAP
 40
0.09
  9
$LUNITS
 70
     2
  9
$LUPREC
 70
     4
  9
$SKETCHINC
 40
0.1
  9
$FILLETRAD
 40
0.0
  9
$AUNITS
 70
     0
  9
$AUPREC
 70
     0
  9
$MENU
  1
E:\r13\win\SUPPORT\ACAD
  9
$ELEVATION
 40
0.0
  9
$PELEVATION
 40
0.0
  9
$THICKNESS
 40
0.0
  9
$LIMCHECK
 70
     0
  9
$BLIPMODE
 70
     0
  9
$CHAMFERA
 40
0.0
  9
$CHAMFERB
 40
0.0
  9
$SKPOLY
 70
     0
  9
$TDCREATE
 40
2449839.7823842592
  9
$TDUPDATE
 40
2456597.7229542239
  9
$TDINDWG
 40
0.0081311806
  9
$TDUSRTIMER
 40
0.0081311806
  9
$USRTIMER
 70
     1
  9
$ANGBASE
 50
0.0
  9
$ANGDIR
 70
     0
  9
$PDMODE
 70
     0
  9
$PDSIZE
 40
0.0
  9
$PLINEWID
 40
0.0
  9
$COORDS
 70
     1
  9
$SPLFRAME
 70
     0
  9
$SPLINETYPE
 70
     6
  9
$SPLINESEGS
 70
     8
  9
$ATTDIA
 70
     0
  9
$ATTREQ
 70
     1
  9
$HANDLING
 70
     1
  9
$HANDSEED
  5
32D
  9
$SURFTAB1
 70
     6
  9
$SURFTAB2
 70
     6
  9
$SURFTYPE
 70
     6
  9
$SURFU
 70
     6
  9
$SURFV
 70
     6
  9
$UCSNAME
  2

  9
$UCSORG
 10
0.0
 20
0.0
 30
0.0
  9
$UCSXDIR
 10
1.0
 20
0.0
 30
0.0
  9
$UCSYDIR
 10
0.0
 20
1.0
 30
0.0
  9
$PUCSNAME
  2

  9
$PUCSORG
 10
0.0
 20
0.0
 30
0.0
  9
$PUCSXDIR
 10
1.0
 20
0.0
 30
0.0
  9
$PUCSYDIR
 10
0.0
 20
1.0
 30
0.0
  9
$USERI1
 70
     0
  9
$USERI2
 70
     1
  9
$USERI3
 70
     1
  9
$USERI4
 70
     0
  9
$USERI5
 70
     0
  9
$USERR1
 40
0.0
  9
$USERR2
 40
0.0
  9
$USERR3
 40
0.0
  9
$USERR4
 40
0.0
  9
$USERR5
 40
0.0
  9
$WORLDVIEW
 70
     1
  9
$SHADEDGE
 70
     3
  9
$SHADEDIF
 70
    70
  9
$TILEMODE
 70
     1
  9
$MAXACTVP
 70
    16
  9
$PLIMCHECK
 70
     0
  9
$PEXTMIN
 10
1.0000000000000000E+020
 20
1.0000000000000000E+020
 30
1.0000000000000000E+020
  9
$PEXTMAX
 10
-1.0000000000000000E+020
 20
-1.0000000000000000E+020
 30
-1.0000000000000000E+020
  9
$PLIMMIN
 10
0.0
 20
0.0
  9
$PLIMMAX
 10
12.0
 20
9.0
  9
$UNITMODE
 70
     0
  9
$VISRETAIN
 70
     0
  9
$PLINEGEN
 70
     0
  9
$PSLTSCALE
 70
     0
  0
ENDSEC
  0
SECTION
  2
TABLES
  0
TABLE
  2
VPORT
 70
     1
  0
VPORT
  2
*ACTIVE
 70
     0
 10
0.0
 20
0.0
 11
1.0
 21
1.0
 12
187.49427839065231
 22
134.10366293909439
 13
0.0
 23
0.0
 14
10.0
 24
10.0
 15
10.0
 25
10.0
 16
0.0
 26
0.0
 36
1.0
 17
0.0
 27
0.0
 37
0.0
 40
277.29405978699532
 41
2.304913294797688
 42
50.0
 43
0.0
 44
0.0
 50
0.0
 51
0.0
 71
     0
 72
   500
 73
     1
 74
     0
 75
     0
 76
     0
 77
     0
 78
     2
  0
ENDTAB
  0
TABLE
  2
LTYPE
 70
     4
  0
LTYPE
  2
CONTINUOUS
 70
     0
  3
Solid Line
 72
    65
 73
     0
 40
0.0
  0
LTYPE
  2
CENTER
 70
     0
  3
____ _ ____ _ ____ _ ____ _ ____ _ ____ _ ____
 72
    65
 73
     4
 40
2.0
 49
1.25
 49
-0.25
 49
0.25
 49
-0.25
  0
LTYPE
  2
HIDDEN
 70
     0
  3
_ _ _ _ _ _ _ _ _ _ _ _ _ _ _ _ _ _ _ _ _ _ _
 72
    65
 73
     2
 40
0.375
 49
0.25
 49
-0.125
  0
LTYPE
  2
PHANTOM2
 70
     0
  3
___ _ _ ___ _ _ ___ _ _ ___ _ _
 72
    65
 73
     6
 40
1.25
 49
0.625
 49
-0.125
 49
0.125
 49
-0.125
 49
0.125
 49
-0.125
  0
ENDTAB
  0
TABLE
  2
LAYER
 70
     4
  0
LAYER
  2
0
 70
     0
 62
     7
  6
CONTINUOUS
  0
LAYER
  2
1
 70
     0
 62
     1
  6
CENTER
  0
LAYER
  2
3
 70
     0
 62
     3
  6
CONTINUOUS
  0
LAYER
  2
2
 70
     0
 62
     2
  6
HIDDEN
  0
ENDTAB
  0
TABLE
  2
STYLE
 70
     2
  0
STYLE
  2
STANDARD
 70
     0
 40
0.0
 41
1.0
 50
0.0
 71
     0
 42
0.2
  3
TXT
  4
BIGFONT
  0
STYLE
  2
STANDARD1
 70
     0
 40
0.0
 41
1.0
 50
0.0
 71
     0
 42
3.0
  3
txt
  4

  0
ENDTAB
  0
TABLE
  2
VIEW
 70
     1
  0
VIEW
  2
ALL
 70
     0
 40
270.0
 10
220.99159663865549
 20
135.0
 41
0.0
 11
0.0
 21
0.0
 31
1.0
 12
0.0
 22
0.0
 32
0.0
 42
0.0
 43
0.0
 44
0.0
 50
0.0
 71
     0
  0
ENDTAB
  0
TABLE
  2
UCS
 70
     0
  0
ENDTAB
  0
TABLE
  2
APPID
 70
     3
  0
APPID
  2
ACAD
 70
     0
  0
APPID
  2
ACAD_MLEADERVER
 70
     0
  0
APPID
  2
ACAD_NAV_VCDISPLAY
 70
     0
  0
ENDTAB
  0
TABLE
  2
DIMSTYLE
 70
     1
  0
DIMSTYLE
  2
STANDARD
 70
     0
  3

  4

  5

  6

  7

 40
1.0
 41
0.18
 42
0.0625
 43
0.38
 44
0.18
 45
0.0
 46
0.0
 47
0.0
 48
0.0
140
0.18
141
0.09
142
0.0
143
25.399999999999999
144
1.0
145
0.0
146
1.0
147
0.09
 71
     0
 72
     0
 73
     1
 74
     1
 75
     0
 76
     0
 77
     0
 78
     0
170
     0
171
     2
172
     0
173
     0
174
     0
175
     0
176
     0
177
     0
178
     0
  0
ENDTAB
  0
ENDSEC
  0
SECTION
  2
BLOCKS
  0
BLOCK
  8
0
  2
$MODEL_SPACE
 70
     0
 10
0.0
 20
0.0
 30
0.0
  3
$MODEL_SPACE
  1

  0
ENDBLK
  5
F1
  8
0
  0
BLOCK
 67
     1
  8
0
  2
$PAPER_SPACE
 70
     0
 10
0.0
 20
0.0
 30
0.0
  3
$PAPER_SPACE
  1

  0
ENDBLK
  5
EF
 67
     1
  8
0
  0
ENDSEC
  0
SECTION
  2
ENTITIES
  0
LINE
  5
1B2
  8
0
 10
127.5747632636984
 20
101.5550852748386
 30
0.0
 11
133.18610009286681
 21
101.5550852748386
 31
0.0
  0
LINE
  5
1B3
  8
2
 10
130.2947632636984
 20
107.0550852748386
 30
0.0
 11
141.7947632636984
 21
107.0550852748386
 31
0.0
  0
LINE
  5
1B4
  8
2
 10
130.2947632636984
 20
107.82187902483859
 30
0.0
 11
143.7947632636984
 21
107.82187902483859
 31
0.0
  0
LINE
  5
1B5
  8
2
 10
130.2947632636984
 20
114.2882915248387
 30
0.0
 11
143.7947632636984
 21
114.2882915248387
 31
0.0
  0
LINE
  5
1B6
  8
2
 10
130.2947632636984
 20
115.0550852748386
 30
0.0
 11
141.7947632636984
 21
115.0550852748386
 31
0.0
  0
LINE
  5
1B7
  8
1
 10
123.29096758515981
 20
111.0550852748386
 30
0.0
 11
156.90358287937761
 21
111.0550852748386
 31
0.0
  0
LINE
  5
1B8
  8
0
 10
127.5747632636984
 20
120.5550852748386
 30
0.0
 11
133.18610009286681
 21
120.5550852748386
 31
0.0
  0
LINE
  5
1B9
  8
0
 10
127.5747632636984
 20
120.5550852748386
 30
0.0
 11
127.5747632636984
 21
111.0550852748386
 31
0.0
  0
LINE
  5
1BA
  8
0
 10
126.7947632636984
 20
111.0550852748386
 30
0.0
 11
126.7947632636984
 21
119.7750852748387
 31
0.0
  0
CIRCLE
  5
1BB
  8
0
 10
74.407817786631426
 20
111.0550852748386
 30
0.0
 40
17.0
  0
LINE
  5
1BC
  8
1
 10
74.407817786631426
 20
131.18853425207561
 30
0.0
 11
74.407817786631426
 21
91.297966348754315
 31
0.0
  0
LINE
  5
1BD
  8
0
 10
126.7947632636984
 20
119.7750852748387
 30
0.0
 11
127.5747632636984
 21
120.5550852748386
 31
0.0
  0
LINE
  5
1BE
  8
1
 10
54.354252867283833
 20
111.0550852748386
 30
0.0
 11
95.025517373287343
 21
111.0550852748386
 31
0.0
  0
LINE
  5
1C0
  8
0
 10
127.5747632636984
 20
101.5550852748386
 30
0.0
 11
127.5747632636984
 21
111.0550852748386
 31
0.0
  0
LINE
  5
1C1
  8
2
 10
130.2947632636984
 20
106.8050852748386
 30
0.0
 11
130.2947632636984
 21
111.0550852748386
 31
0.0
  0
LINE
  5
1C2
  8
0
 10
126.7947632636984
 20
111.0550852748386
 30
0.0
 11
126.7947632636984
 21
102.3350852748387
 31
0.0
  0
LINE
  5
1C3
  8
2
 10
130.2947632636984
 20
115.3050852748386
 30
0.0
 11
130.2947632636984
 21
111.0550852748386
 31
0.0
  0
LINE
  5
1C4
  8
2
 10
126.7947632636984
 20
115.3050852748386
 30
0.0
 11
130.2947632636984
 21
115.3050852748386
 31
0.0
  0
LINE
  5
1C5
  8
2
 10
126.7947632636984
 20
106.8050852748386
 30
0.0
 11
130.2947632636984
 21
106.8050852748386
 31
0.0
  0
LINE
  5
1C6
  8
0
 10
126.7947632636984
 20
102.3350852748387
 30
0.0
 11
127.5747632636984
 21
101.5550852748386
 31
0.0
  0
ARC
  5
1C7
  8
0
 10
111.7947632636984
 20
111.0550852748386
 30
0.0
 40
40.0
 50
0.0
 51
20.354406398237661
  0
ARC
  5
1C8
  8
0
 10
144.1405512429701
 20
123.0550852748386
 30
0.0
 40
5.5
 50
20.354406398237661
 51
162.2810681265924
  0
ARC
  5
1C9
  8
0
 10
133.18610009286681
 20
126.5550852748386
 30
0.0
 40
6.0
 50
270.0
 51
342.2810681265924
  0
ARC
  5
1CA
  8
0
 10
133.18610009286681
 20
95.555085274838646
 30
0.0
 40
6.0
 50
17.71893187340757
 51
90.0
  0
ARC
  5
1CB
  8
0
 10
111.7947632636984
 20
111.0550852748386
 30
0.0
 40
40.0
 50
339.6455936017623
 51
0.0
  0
LINE
  5
1CC
  8
2
 10
141.7947632636984
 20
107.0550852748386
 30
0.0
 11
141.7947632636984
 21
111.0550852748386
 31
0.0
  0
LINE
  5
1CD
  8
2
 10
143.7947632636984
 20
107.82187902483859
 30
0.0
 11
143.7947632636984
 21
111.0550852748386
 31
0.0
  0
LINE
  5
1CE
  8
2
 10
143.7947632636984
 20
114.2882915248387
 30
0.0
 11
143.7947632636984
 21
111.0550852748386
 31
0.0
  0
LINE
  5
1CF
  8
2
 10
141.7947632636984
 20
115.0550852748386
 30
0.0
 11
141.7947632636984
 21
111.0550852748386
 31
0.0
  0
ARC
  5
1D0
  8
0
 10
144.1405512429701
 20
99.055085274838632
 30
0.0
 40
5.5
 50
197.71893187340751
 51
339.6455936017623
  0
LINE
  5
1D1
  8
1
 10
205.78673267790609
 20
131.18853425207561
 30
0.0
 11
205.78673267790609
 21
91.297966348754315
 31
0.0
  0
CIRCLE
  5
1D2
  8
0
 10
205.78673267790609
 20
111.0550852748386
 30
0.0
 40
17.0
  0
LINE
  5
1D3
  8
1
 10
225.84029759725371
 20
111.0550852748386
 30
0.0
 11
185.16903309125021
 21
111.0550852748386
 31
0.0
  0
CIRCLE
  5
1D9
  8
0
 10
74.407817786631426
 20
111.0550852748386
 30
0.0
 40
9.5
  0
CIRCLE
  5
1DA
  8
0
 10
74.407817786631426
 20
111.0550852748386
 30
0.0
 40
8.7200000000000273
  0
CIRCLE
  5
1DB
  8
0
 10
74.407817786631426
 20
111.0550852748386
 30
0.0
 40
4.25
  0
CIRCLE
  5
1DC
  8
3
 10
74.407817786631426
 20
111.0550852748386
 30
0.0
 40
4.0
  0
CIRCLE
  5
1DD
  8
0
 10
74.407817786631426
 20
111.0550852748386
 30
0.0
 40
3.2332062500000229
  0
TEXT
  5
294
  8
0
 62
     3
 10
0.0
 20
0.0
 30
0.0
 40
10.0
  1
PKN35N
  7
STANDARD1
  0
ENDSEC
  0
EOF
