  0
SECTION
  2
HEADER
  9
$ACADVER
  1
AC1009
  9
$INSBASE
 10
0.0
 20
0.0
 30
0.0
  9
$EXTMIN
 10
0.0
 20
-2.960436562073669
 30
0.0
  9
$EXTMAX
 10
303.60894801605423
 20
167.28371770898039
 30
0.0
  9
$LIMMIN
 10
0.0
 20
0.0
  9
$LIMMAX
 10
375.0
 20
270.0
  9
$ORTHOMODE
 70
     1
  9
$REGENMODE
 70
     1
  9
$FILLMODE
 70
     1
  9
$QTEXTMODE
 70
     0
  9
$MIRRTEXT
 70
     0
  9
$DRAGMODE
 70
     2
  9
$LTSCALE
 40
10.0
  9
$OSMODE
 70
  3071
  9
$ATTMODE
 70
     1
  9
$TEXTSIZE
 40
0.2
  9
$TRACEWID
 40
0.05
  9
$TEXTSTYLE
  7
STANDARD
  9
$CLAYER
  8
0
  9
$CELTYPE
  6
BYLAYER
  9
$CECOLOR
 62
   256
  9
$DIMSCALE
 40
1.0
  9
$DIMASZ
 40
3.0
  9
$DIMEXO
 40
2.0
  9
$DIMDLI
 40
0.38
  9
$DIMRND
 40
0.0
  9
$DIMDLE
 40
0.0
  9
$DIMEXE
 40
2.0
  9
$DIMTP
 40
0.0
  9
$DIMTM
 40
0.0
  9
$DIMTXT
 40
3.2000000000000002
  9
$DIMCEN
 40
0.0
  9
$DIMTSZ
 40
0.0
  9
$DIMTOL
 70
     0
  9
$DIMLIM
 70
     0
  9
$DIMTIH
 70
     0
  9
$DIMTOH
 70
     0
  9
$DIMSE1
 70
     0
  9
$DIMSE2
 70
     0
  9
$DIMTAD
 70
     1
  9
$DIMZIN
 70
     0
  9
$DIMBLK
  1

  9
$DIMASO
 70
     0
  9
$DIMSHO
 70
     0
  9
$DIMPOST
  1

  9
$DIMAPOST
  1

  9
$DIMALT
 70
     0
  9
$DIMALTD
 70
     2
  9
$DIMALTF
 40
25.399999999999999
  9
$DIMLFAC
 40
1.0
  9
$DIMTOFL
 70
     1
  9
$DIMTVP
 40
1.6000000000000001
  9
$DIMTIX
 70
     1
  9
$DIMSOXD
 70
     0
  9
$DIMSAH
 70
     0
  9
$DIMBLK1
  1

  9
$DIMBLK2
  1

  9
$DIMSTYLE
  2
STANDARD
  9
$DIMCLRD
 70
     0
  9
$DIMCLRE
 70
     0
  9
$DIMCLRT
 70
     0
  9
$DIMTFAC
 40
1.0
  9
$DIMGAP
 40
0.09
  9
$LUNITS
 70
     2
  9
$LUPREC
 70
     4
  9
$SKETCHINC
 40
0.1
  9
$FILLETRAD
 40
1.0
  9
$AUNITS
 70
     0
  9
$AUPREC
 70
     4
  9
$MENU
  1
E:\r13\win\SUPPORT\ACAD
  9
$ELEVATION
 40
0.0
  9
$PELEVATION
 40
0.0
  9
$THICKNESS
 40
0.0
  9
$LIMCHECK
 70
     0
  9
$BLIPMODE
 70
     0
  9
$CHAMFERA
 40
0.0
  9
$CHAMFERB
 40
0.0
  9
$SKPOLY
 70
     0
  9
$TDCREATE
 40
2449839.7763425931
  9
$TDUPDATE
 40
2456597.722806423
  9
$TDINDWG
 40
0.0597579282
  9
$TDUSRTIMER
 40
0.0597579282
  9
$USRTIMER
 70
     1
  9
$ANGBASE
 50
0.0
  9
$ANGDIR
 70
     0
  9
$PDMODE
 70
     0
  9
$PDSIZE
 40
0.0
  9
$PLINEWID
 40
0.0
  9
$COORDS
 70
     1
  9
$SPLFRAME
 70
     0
  9
$SPLINETYPE
 70
     6
  9
$SPLINESEGS
 70
     8
  9
$ATTDIA
 70
     0
  9
$ATTREQ
 70
     1
  9
$HANDLING
 70
     1
  9
$HANDSEED
  5
625
  9
$SURFTAB1
 70
     6
  9
$SURFTAB2
 70
     6
  9
$SURFTYPE
 70
     6
  9
$SURFU
 70
     6
  9
$SURFV
 70
     6
  9
$UCSNAME
  2

  9
$UCSORG
 10
0.0
 20
0.0
 30
0.0
  9
$UCSXDIR
 10
1.0
 20
0.0
 30
0.0
  9
$UCSYDIR
 10
0.0
 20
1.0
 30
0.0
  9
$PUCSNAME
  2

  9
$PUCSORG
 10
0.0
 20
0.0
 30
0.0
  9
$PUCSXDIR
 10
1.0
 20
0.0
 30
0.0
  9
$PUCSYDIR
 10
0.0
 20
1.0
 30
0.0
  9
$USERI1
 70
     0
  9
$USERI2
 70
     1
  9
$USERI3
 70
     0
  9
$USERI4
 70
     0
  9
$USERI5
 70
     0
  9
$USERR1
 40
0.0
  9
$USERR2
 40
0.0
  9
$USERR3
 40
0.0
  9
$USERR4
 40
0.0
  9
$USERR5
 40
0.0
  9
$WORLDVIEW
 70
     1
  9
$SHADEDGE
 70
     3
  9
$SHADEDIF
 70
    70
  9
$TILEMODE
 70
     1
  9
$MAXACTVP
 70
    16
  9
$PLIMCHECK
 70
     0
  9
$PEXTMIN
 10
1.0000000000000000E+020
 20
1.0000000000000000E+020
 30
1.0000000000000000E+020
  9
$PEXTMAX
 10
-1.0000000000000000E+020
 20
-1.0000000000000000E+020
 30
-1.0000000000000000E+020
  9
$PLIMMIN
 10
0.0
 20
0.0
  9
$PLIMMAX
 10
12.0
 20
9.0
  9
$UNITMODE
 70
     0
  9
$VISRETAIN
 70
     0
  9
$PLINEGEN
 70
     0
  9
$PSLTSCALE
 70
     0
  0
ENDSEC
  0
SECTION
  2
TABLES
  0
TABLE
  2
VPORT
 70
     1
  0
VPORT
  2
*ACTIVE
 70
     0
 10
0.0
 20
0.0
 11
1.0
 21
1.0
 12
187.49427839065231
 22
134.10366293909439
 13
0.0
 23
0.0
 14
10.0
 24
10.0
 15
10.0
 25
10.0
 16
0.0
 26
0.0
 36
1.0
 17
0.0
 27
0.0
 37
0.0
 40
277.29405978699532
 41
2.304913294797688
 42
50.0
 43
0.0
 44
0.0
 50
0.0
 51
0.0
 71
     0
 72
   100
 73
     1
 74
     0
 75
     0
 76
     0
 77
     0
 78
     2
  0
ENDTAB
  0
TABLE
  2
LTYPE
 70
     4
  0
LTYPE
  2
CONTINUOUS
 70
     0
  3
Solid Line
 72
    65
 73
     0
 40
0.0
  0
LTYPE
  2
CENTER
 70
     0
  3
____ _ ____ _ ____ _ ____ _ ____ _ ____ _ ____
 72
    65
 73
     4
 40
2.0
 49
1.25
 49
-0.25
 49
0.25
 49
-0.25
  0
LTYPE
  2
HIDDEN
 70
     0
  3
_ _ _ _ _ _ _ _ _ _ _ _ _ _ _ _ _ _ _ _ _ _ _
 72
    65
 73
     2
 40
0.375
 49
0.25
 49
-0.125
  0
LTYPE
  2
PHANTOM2
 70
     0
  3
___ _ _ ___ _ _ ___ _ _ ___ _ _
 72
    65
 73
     6
 40
1.25
 49
0.625
 49
-0.125
 49
0.125
 49
-0.125
 49
0.125
 49
-0.125
  0
ENDTAB
  0
TABLE
  2
LAYER
 70
     4
  0
LAYER
  2
0
 70
     0
 62
     7
  6
CONTINUOUS
  0
LAYER
  2
1
 70
     0
 62
     1
  6
CENTER
  0
LAYER
  2
3
 70
     0
 62
     3
  6
CONTINUOUS
  0
LAYER
  2
2
 70
     0
 62
     2
  6
HIDDEN
  0
ENDTAB
  0
TABLE
  2
STYLE
 70
     2
  0
STYLE
  2
STANDARD
 70
     0
 40
0.0
 41
1.0
 50
0.0
 71
     0
 42
0.2
  3
txt.shx
  4
bigfont.shx
  0
STYLE
  2
STANDARD1
 70
     0
 40
0.0
 41
1.0
 50
0.0
 71
     0
 42
3.0
  3
txt
  4

  0
ENDTAB
  0
TABLE
  2
VIEW
 70
     1
  0
VIEW
  2
ALL
 70
     0
 40
270.0
 10
220.99159700000001
 20
135.0
 41
0.0
 11
0.0
 21
0.0
 31
1.0
 12
0.0
 22
0.0
 32
0.0
 42
0.0
 43
0.0
 44
0.0
 50
0.0
 71
     0
  0
ENDTAB
  0
TABLE
  2
UCS
 70
     0
  0
ENDTAB
  0
TABLE
  2
APPID
 70
     4
  0
APPID
  2
ACAD
 70
     0
  0
APPID
  2
ACAD_MLEADERVER
 70
     0
  0
APPID
  2
ACAD_NAV_VCDISPLAY
 70
     0
  0
APPID
  2
ACAD_EXEMPT_FROM_CAD_STANDARDS
 70
     0
  0
ENDTAB
  0
TABLE
  2
DIMSTYLE
 70
     1
  0
DIMSTYLE
  2
STANDARD
 70
     0
  3

  4

  5

  6

  7

 40
1.0
 41
0.18
 42
0.0625
 43
0.38
 44
0.18
 45
0.0
 46
0.0
 47
0.0
 48
0.0
140
0.18
141
0.09
142
0.0
143
25.399999999999999
144
1.0
145
0.0
146
1.0
147
0.09
 71
     0
 72
     0
 73
     1
 74
     1
 75
     0
 76
     0
 77
     0
 78
     0
170
     0
171
     2
172
     0
173
     0
174
     0
175
     0
176
     0
177
     0
178
     0
  0
ENDTAB
  0
ENDSEC
  0
SECTION
  2
BLOCKS
  0
BLOCK
  8
0
  2
$MODEL_SPACE
 70
     0
 10
0.0
 20
0.0
 30
0.0
  3
$MODEL_SPACE
  1

  0
ENDBLK
  5
154
  8
0
  0
BLOCK
 67
     1
  8
0
  2
$PAPER_SPACE
 70
     0
 10
0.0
 20
0.0
 30
0.0
  3
$PAPER_SPACE
  1

  0
ENDBLK
  5
152
 67
     1
  8
0
  0
ENDSEC
  0
SECTION
  2
ENTITIES
  0
LINE
  5
281
  8
0
 10
153.8976231506492
 20
152.7837177089776
 30
0.0
 11
153.6089480160544
 21
152.2837177089776
 31
0.0
  0
ARC
  5
282
  8
0
 10
167.6173070406424
 20
148.0337177089776
 30
0.0
 40
13.719683889993171
 50
159.743841999604
 51
200.256158000396
  0
LINE
  5
283
  8
0
 10
163.6089480160544
 20
152.7837177089776
 30
0.0
 11
153.8976231506492
 21
152.7837177089776
 31
0.0
  0
LINE
  5
284
  8
0
 10
163.6089480160544
 20
133.7837177089776
 30
0.0
 11
153.8976231506492
 21
133.7837177089776
 31
0.0
  0
ARC
  5
285
  8
0
 10
167.6173070406424
 20
138.5337177089776
 30
0.0
 40
13.719683889993171
 50
159.743841999604
 51
200.256158000396
  0
LINE
  5
286
  8
0
 10
153.8976231506492
 20
133.7837177089776
 30
0.0
 11
153.6089480160544
 21
134.2837177089776
 31
0.0
  0
LINE
  5
287
  8
0
 10
153.6089480160544
 20
134.2837177089776
 30
0.0
 11
153.6089480160544
 21
152.2837177089776
 31
0.0
  0
LINE
  5
288
  8
0
 10
154.7461289266802
 20
143.28371770897439
 30
0.0
 11
163.6089480160544
 21
143.28371770898039
 31
0.0
  0
LINE
  5
289
  8
0
 10
163.6089480160544
 20
132.53371770898039
 30
0.0
 11
163.6089480160544
 21
154.0337177089805
 31
0.0
  0
LINE
  5
28A
  8
2
 10
198.1089480160544
 20
164.28371770898141
 30
0.0
 11
204.60894801605349
 21
164.28371770898141
 31
0.0
  0
LINE
  5
28B
  8
2
 10
198.1089480160544
 20
158.28371770898141
 30
0.0
 11
204.608948016054
 21
158.28371770898141
 31
0.0
  0
LINE
  5
28C
  8
2
 10
198.1089480160544
 20
158.82521770898069
 30
0.0
 11
204.6089480160544
 21
158.82521770898069
 31
0.0
  0
LINE
  5
28D
  8
2
 10
198.1089480160544
 20
163.74221770898151
 30
0.0
 11
204.60894801605349
 21
163.74221770898151
 31
0.0
  0
LINE
  5
28E
  8
1
 10
189.6089480160544
 20
161.2837177089805
 30
0.0
 11
207.60894801605389
 21
161.2837177089805
 31
0.0
  0
LINE
  5
28F
  8
2
 10
192.6089480160544
 20
166.0337177089805
 30
0.0
 11
198.1089480160544
 21
166.0337177089805
 31
0.0
  0
LINE
  5
290
  8
0
 10
192.6089480160534
 20
167.28371770898039
 30
0.0
 11
204.6089480160544
 21
167.28371770898039
 31
0.0
  0
ARC
  5
291
  8
0
 10
177.20894801605431
 20
151.18371770898051
 30
0.0
 40
0.4
 50
270.0
 51
0.0
  0
LINE
  5
292
  8
0
 10
167.6089480160544
 20
150.78371770898039
 30
0.0
 11
177.20894801605431
 21
150.78371770898039
 31
0.0
  0
LINE
  5
293
  8
0
 10
166.6089480160544
 20
147.98371770898049
 30
0.0
 11
166.70894801605439
 21
147.98371770898049
 31
0.0
  0
ARC
  5
294
  8
0
 10
166.70894801605439
 20
148.3837177089805
 30
0.0
 40
0.4
 50
270.00000000000392
 51
0.0
  0
LINE
  5
295
  8
0
 10
167.6089480160544
 20
150.78371770898039
 30
0.0
 11
167.1089480160544
 21
150.2837177089805
 31
0.0
  0
LINE
  5
296
  8
0
 10
177.6089480160544
 20
154.2837177089805
 30
0.0
 11
192.60894801605389
 21
154.28371770897999
 31
0.0
  0
LINE
  5
297
  8
0
 10
166.6089480160544
 20
138.5837177089804
 30
0.0
 11
166.70894801605439
 21
138.5837177089804
 31
0.0
  0
ARC
  5
298
  8
0
 10
166.70894801605439
 20
138.1837177089804
 30
0.0
 40
0.4
 50
0.0
 51
89.999999999996064
  0
ARC
  5
299
  8
0
 10
177.20894801605431
 20
135.3837177089803
 30
0.0
 40
0.4
 50
0.0
 51
90.000000000000057
  0
LINE
  5
29A
  8
0
 10
167.6089480160544
 20
135.78371770898039
 30
0.0
 11
167.1089480160544
 21
136.28371770898039
 31
0.0
  0
LINE
  5
29B
  8
0
 10
167.6089480160544
 20
135.78371770898039
 30
0.0
 11
177.20894801605431
 21
135.78371770898039
 31
0.0
  0
LINE
  5
29C
  8
0
 10
177.6089480160544
 20
132.28371770898039
 30
0.0
 11
192.60894801605389
 21
132.28371770898039
 31
0.0
  0
LINE
  5
29D
  8
0
 10
166.6089480160544
 20
154.0337177089805
 30
0.0
 11
166.6089480160544
 21
132.53371770898039
 31
0.0
  0
LINE
  5
29E
  8
0
 10
167.1089480160544
 20
150.2837177089805
 30
0.0
 11
167.1089480160544
 21
136.28371770898039
 31
0.0
  0
LINE
  5
29F
  8
0
 10
177.60894801605389
 20
154.2837177089805
 30
0.0
 11
177.6089480160544
 21
132.28371770898039
 31
0.0
  0
LINE
  5
2A0
  8
2
 10
192.6089480160544
 20
156.5337177089805
 30
0.0
 11
198.1089480160544
 21
156.5337177089809
 31
0.0
  0
LINE
  5
2A1
  8
2
 10
192.6089480160544
 20
130.03371770898039
 30
0.0
 11
198.1089480160544
 21
130.03371770897999
 31
0.0
  0
LINE
  5
2A2
  8
2
 10
198.1089480160544
 20
156.5337177089805
 30
0.0
 11
198.1089480160544
 21
166.0337177089805
 31
0.0
  0
LINE
  5
2A3
  8
3
 10
153.6089480160544
 20
148.33671770898039
 30
0.0
 11
151.72036195112611
 21
148.33671770898039
 31
0.0
  0
LINE
  5
2A4
  8
0
 10
153.6089480160544
 20
149.28371770898039
 30
0.0
 11
153.3606140658938
 21
149.28371770898039
 31
0.0
  0
LINE
  5
2A5
  8
0
 10
151.10894801605431
 20
147.98371770898049
 30
0.0
 11
153.36061406589391
 21
149.28371770898039
 31
0.0
  0
LINE
  5
2A6
  8
3
 10
153.6089480160544
 20
138.23071770898039
 30
0.0
 11
151.72036195112619
 21
138.23071770898039
 31
0.0
  0
LINE
  5
2A7
  8
0
 10
153.6089480160544
 20
137.28371770898039
 30
0.0
 11
153.36061406589391
 21
137.28371770898039
 31
0.0
  0
LINE
  5
2A8
  8
0
 10
151.10894801605431
 20
138.5837177089804
 30
0.0
 11
153.36061406589391
 21
137.28371770898039
 31
0.0
  0
LINE
  5
2A9
  8
0
 10
153.3606140658938
 20
149.28371770898039
 30
0.0
 11
153.3606140658938
 21
137.28371770898039
 31
0.0
  0
LINE
  5
2AA
  8
0
 10
151.1089480160544
 20
138.5837177089804
 30
0.0
 11
151.1089480160544
 21
147.98371770898049
 31
0.0
  0
LINE
  5
2AC
  8
1
 10
146.10894801605491
 20
143.28371770898039
 30
0.0
 11
209.60894801605289
 21
143.28371770898039
 31
0.0
  0
LINE
  5
2AD
  8
0
 10
166.6089480160544
 20
132.53371770898039
 30
0.0
 11
163.6089480160544
 21
132.53371770898039
 31
0.0
  0
LINE
  5
2AE
  8
0
 10
163.6089480160544
 20
154.0337177089805
 30
0.0
 11
166.6089480160544
 21
154.0337177089805
 31
0.0
  0
LINE
  5
2AF
  8
2
 10
198.1089480160544
 20
127.74221770898011
 30
0.0
 11
204.6089480160544
 21
127.74221770898011
 31
0.0
  0
LINE
  5
2B0
  8
2
 10
198.1089480160544
 20
128.28371770897951
 30
0.0
 11
204.608948016054
 21
128.28371770897951
 31
0.0
  0
LINE
  5
2B1
  8
2
 10
198.1089480160544
 20
122.28371770897949
 30
0.0
 11
204.60894801605349
 21
122.28371770897949
 31
0.0
  0
LINE
  5
2B2
  8
2
 10
198.1089480160544
 20
122.8252177089793
 30
0.0
 11
204.60894801605349
 21
122.8252177089793
 31
0.0
  0
LINE
  5
2B3
  8
1
 10
189.6089480160544
 20
125.2837177089804
 30
0.0
 11
207.60894801605389
 21
125.2837177089804
 31
0.0
  0
LINE
  5
2B4
  8
2
 10
192.6089480160544
 20
120.5337177089804
 30
0.0
 11
198.1089480160544
 21
120.5337177089804
 31
0.0
  0
LINE
  5
2B5
  8
0
 10
192.6089480160548
 20
119.2837177089804
 30
0.0
 11
204.608948016054
 21
119.2837177089804
 31
0.0
  0
LINE
  5
2B6
  8
2
 10
198.1089480160544
 20
130.03371770898039
 30
0.0
 11
198.1089480160544
 21
120.5337177089804
 31
0.0
  0
LINE
  5
2B7
  8
0
 10
204.6089480160548
 20
119.2837177089804
 30
0.0
 11
204.608948016054
 21
167.28371770898039
 31
0.0
  0
LINE
  5
2B8
  8
0
 10
192.6089480160548
 20
119.2837177089804
 30
0.0
 11
192.6089480160544
 21
167.28371770898039
 31
0.0
  0
CIRCLE
  5
2B9
  8
0
 10
292.60894801605423
 20
63.283717708980419
 30
0.0
 40
2.458499999999999
  0
CIRCLE
  5
2BA
  8
3
 10
292.60894801605423
 20
63.283717708980419
 30
0.0
 40
3.0
  0
CIRCLE
  5
2BB
  8
0
 10
274.60894801605423
 20
81.283717708980404
 30
0.0
 40
2.458499999999999
  0
CIRCLE
  5
2BC
  8
3
 10
274.60894801605423
 20
81.283717708980404
 30
0.0
 40
3.0
  0
CIRCLE
  5
2BD
  8
0
 10
256.60894801605423
 20
63.283717708980419
 30
0.0
 40
2.458499999999999
  0
CIRCLE
  5
2BE
  8
3
 10
256.60894801605423
 20
63.283717708980419
 30
0.0
 40
3.0
  0
LINE
  5
2BF
  8
1
 10
303.60894801605423
 20
63.283717708980419
 30
0.0
 11
245.6089480160542
 21
63.283717708980419
 31
0.0
  0
CIRCLE
  5
2C0
  8
3
 10
274.60894801605423
 20
45.283717708980419
 30
0.0
 40
3.0
  0
CIRCLE
  5
2C1
  8
0
 10
274.60894801605423
 20
45.283717708980419
 30
0.0
 40
2.458499999999999
  0
CIRCLE
  5
2C2
  8
0
 10
274.60894801605423
 20
63.283717708980419
 30
0.0
 40
24.0
  0
LINE
  5
2C3
  8
1
 10
274.60894801605423
 20
92.283717708980404
 30
0.0
 11
274.60894801605423
 21
34.283717708980419
 31
0.0
  0
CIRCLE
  5
2C4
  8
1
 10
274.60894801605423
 20
63.283717708980419
 30
0.0
 40
18.0
  0
LINE
  5
2C5
  8
0
 10
153.6089480160544
 20
69.283717708980475
 30
0.0
 11
153.3606140658938
 21
69.283717708980475
 31
0.0
  0
LINE
  5
2C6
  8
0
 10
166.6089480160544
 20
58.58371770898043
 30
0.0
 11
166.70894801605439
 21
58.58371770898043
 31
0.0
  0
ARC
  5
2C7
  8
0
 10
166.70894801605439
 20
58.183717708980453
 30
0.0
 40
0.4
 50
0.0
 51
89.999999999996064
  0
LINE
  5
2C8
  8
0
 10
166.6089480160544
 20
67.983717708980521
 30
0.0
 11
166.70894801605439
 21
67.983717708980521
 31
0.0
  0
ARC
  5
2C9
  8
0
 10
166.70894801605439
 20
68.383717708980555
 30
0.0
 40
0.4
 50
270.00000000000392
 51
0.0
  0
LINE
  5
2CA
  8
0
 10
153.6089480160544
 20
57.283717708980468
 30
0.0
 11
153.36061406589391
 21
57.283717708980468
 31
0.0
  0
LINE
  5
2CB
  8
0
 10
153.3606140658938
 20
69.283717708980475
 30
0.0
 11
153.3606140658938
 21
57.283717708980468
 31
0.0
  0
LINE
  5
2CC
  8
0
 10
151.1089480160544
 20
58.58371770898043
 30
0.0
 11
151.1089480160544
 21
67.983717708980564
 31
0.0
  0
LINE
  5
2CD
  8
3
 10
153.6089480160544
 20
58.230717708980421
 30
0.0
 11
151.72036195112619
 21
58.230717708980421
 31
0.0
  0
LINE
  5
2CE
  8
0
 10
151.10894801605431
 20
58.583717708980451
 30
0.0
 11
153.36061406589391
 21
57.283717708980468
 31
0.0
  0
LINE
  5
2CF
  8
3
 10
153.6089480160544
 20
68.336717708980473
 30
0.0
 11
151.72036195112611
 21
68.336717708980473
 31
0.0
  0
LINE
  5
2D0
  8
0
 10
151.10894801605431
 20
67.983717708980521
 30
0.0
 11
153.36061406589391
 21
69.283717708980475
 31
0.0
  0
LINE
  5
2D1
  8
0
 10
71.608948016054455
 20
68.768545266281592
 30
0.0
 11
71.608948016054455
 21
57.798890151679018
 31
0.0
  0
CIRCLE
  5
2D2
  8
0
 10
81.108948016054455
 20
63.283717708980298
 30
0.0
 40
9.0
  0
LINE
  5
2D3
  8
0
 10
71.608948016054455
 20
57.798890151679018
 30
0.0
 11
81.108948016054455
 21
52.314062594377511
 31
0.0
  0
LINE
  5
2D4
  8
0
 10
81.108948016054455
 20
52.314062594377511
 30
0.0
 11
90.608948016054455
 21
57.798890151678791
 31
0.0
  0
LINE
  5
2D5
  8
0
 10
90.608948016054455
 20
57.798890151678791
 30
0.0
 11
90.608948016054455
 21
68.768545266281592
 31
0.0
  0
LINE
  5
2D6
  8
0
 10
90.608948016054455
 20
68.768545266281592
 30
0.0
 11
81.108948016054455
 21
74.253372823583334
 31
0.0
  0
LINE
  5
2D7
  8
0
 10
81.108948016054455
 20
74.253372823583334
 30
0.0
 11
71.608948016054455
 21
68.768545266281592
 31
0.0
  0
CIRCLE
  5
2D8
  8
0
 10
81.108948016054455
 20
63.283717708980298
 30
0.0
 40
6.0
  0
CIRCLE
  5
2D9
  8
3
 10
81.108948016054455
 20
63.283717708980298
 30
0.0
 40
5.052999999999999
  0
CIRCLE
  5
2DA
  8
0
 10
81.108948016054455
 20
63.283717708980298
 30
0.0
 40
11.0
  0
LINE
  5
2DB
  8
1
 10
189.6089480160544
 20
45.283717708980468
 30
0.0
 11
207.60894801605389
 21
45.283717708980468
 31
0.0
  0
LINE
  5
2DC
  8
1
 10
189.6089480160544
 20
81.283717708980475
 30
0.0
 11
207.60894801605389
 21
81.283717708980475
 31
0.0
  0
CIRCLE
  5
2DD
  8
1
 10
81.108948016054455
 20
63.283717708980298
 30
0.0
 40
18.0
  0
LINE
  5
2DE
  8
1
 10
81.108948016054455
 20
92.283717708980305
 30
0.0
 11
81.108948016054455
 21
34.283717708980312
 31
0.0
  0
LINE
  5
2DF
  8
1
 10
110.1089480160544
 20
63.283717708980298
 30
0.0
 11
52.108948016054448
 21
63.283717708980298
 31
0.0
  0
LINE
  5
2E0
  8
2
 10
198.1089480160544
 20
76.533717708980475
 30
0.0
 11
198.1089480160544
 21
86.033717708980475
 31
0.0
  0
LINE
  5
2E1
  8
2
 10
192.6089480160544
 20
76.533717708980475
 30
0.0
 11
198.1089480160544
 21
76.53371770898093
 31
0.0
  0
LINE
  5
2E2
  8
2
 10
192.6089480160544
 20
86.033717708980475
 30
0.0
 11
198.1089480160544
 21
86.033717708980475
 31
0.0
  0
LINE
  5
2E3
  8
2
 10
198.1089480160544
 20
78.283717708981385
 30
0.0
 11
204.608948016054
 21
78.283717708981385
 31
0.0
  0
LINE
  5
2E4
  8
2
 10
198.1089480160544
 20
78.825217708980745
 30
0.0
 11
204.6089480160544
 21
78.825217708980745
 31
0.0
  0
LINE
  5
2E5
  8
2
 10
198.1089480160544
 20
83.742217708981585
 30
0.0
 11
204.60894801605349
 21
83.742217708981585
 31
0.0
  0
LINE
  5
2E6
  8
2
 10
198.1089480160544
 20
84.283717708981385
 30
0.0
 11
204.60894801605349
 21
84.283717708981385
 31
0.0
  0
LINE
  5
2E7
  8
2
 10
198.1089480160544
 20
47.742217708980199
 30
0.0
 11
204.6089480160544
 21
47.742217708980199
 31
0.0
  0
LINE
  5
2E8
  8
2
 10
198.1089480160544
 20
48.283717708979559
 30
0.0
 11
204.608948016054
 21
48.283717708979559
 31
0.0
  0
LINE
  5
2E9
  8
2
 10
192.6089480160544
 20
50.033717708980483
 30
0.0
 11
198.1089480160544
 21
50.033717708980021
 31
0.0
  0
LINE
  5
2EA
  8
2
 10
198.1089480160544
 20
42.283717708979573
 30
0.0
 11
204.60894801605349
 21
42.283717708979573
 31
0.0
  0
LINE
  5
2EB
  8
2
 10
198.1089480160544
 20
42.82521770897938
 30
0.0
 11
204.60894801605349
 21
42.82521770897938
 31
0.0
  0
LINE
  5
2EC
  8
2
 10
192.6089480160544
 20
40.533717708980468
 30
0.0
 11
198.1089480160544
 21
40.533717708980468
 31
0.0
  0
LINE
  5
2ED
  8
2
 10
198.1089480160544
 20
50.033717708980483
 30
0.0
 11
198.1089480160544
 21
40.533717708980468
 31
0.0
  0
LINE
  5
2EE
  8
0
 10
177.6089480160544
 20
52.283717708980468
 30
0.0
 11
192.60894801605389
 21
52.283717708980468
 31
0.0
  0
LINE
  5
2EF
  8
0
 10
177.6089480160544
 20
74.283717708980475
 30
0.0
 11
192.60894801605389
 21
74.283717708980021
 31
0.0
  0
LINE
  5
2F0
  8
0
 10
204.6089480160548
 20
39.283717708980483
 30
0.0
 11
204.608948016054
 21
87.283717708980475
 31
0.0
  0
LINE
  5
2F1
  8
0
 10
192.6089480160548
 20
39.283717708980483
 30
0.0
 11
192.6089480160544
 21
87.283717708980475
 31
0.0
  0
LINE
  5
2F2
  8
0
 10
192.6089480160548
 20
39.283717708980483
 30
0.0
 11
204.608948016054
 21
39.283717708980483
 31
0.0
  0
LINE
  5
2F3
  8
0
 10
192.6089480160534
 20
87.283717708980475
 30
0.0
 11
204.6089480160544
 21
87.283717708980475
 31
0.0
  0
CIRCLE
  5
2F4
  8
3
 10
63.108948016054462
 20
63.283717708980298
 30
0.0
 40
3.0
  0
CIRCLE
  5
2F5
  8
0
 10
63.108948016054462
 20
63.283717708980298
 30
0.0
 40
2.458499999999999
  0
CIRCLE
  5
2F6
  8
0
 10
63.108948016054462
 20
63.283717708980298
 30
0.0
 40
4.75
  0
CIRCLE
  5
2F7
  8
0
 10
81.108948016054455
 20
45.283717708980298
 30
0.0
 40
4.75
  0
CIRCLE
  5
2F8
  8
0
 10
81.108948016054455
 20
45.283717708980298
 30
0.0
 40
2.458499999999999
  0
CIRCLE
  5
2F9
  8
3
 10
81.108948016054455
 20
45.283717708980298
 30
0.0
 40
3.0
  0
CIRCLE
  5
2FA
  8
0
 10
99.108948016054455
 20
63.283717708980298
 30
0.0
 40
3.0
  0
CIRCLE
  5
2FB
  8
3
 10
99.108948016054455
 20
63.283717708980298
 30
0.0
 40
2.458499999999999
  0
CIRCLE
  5
2FC
  8
0
 10
99.108948016054455
 20
63.283717708980298
 30
0.0
 40
4.75
  0
CIRCLE
  5
2FD
  8
0
 10
81.108948016054455
 20
81.283717708980305
 30
0.0
 40
2.458499999999999
  0
CIRCLE
  5
2FE
  8
3
 10
81.108948016054455
 20
81.283717708980305
 30
0.0
 40
3.0
  0
CIRCLE
  5
2FF
  8
0
 10
81.108948016054455
 20
81.283717708980305
 30
0.0
 40
4.75
  0
CIRCLE
  5
300
  8
0
 10
81.108948016054455
 20
63.283717708980298
 30
0.0
 40
24.0
  0
LINE
  5
301
  8
0
 10
166.6089480160544
 20
52.533717708980483
 30
0.0
 11
163.6089480160544
 21
52.533717708980483
 31
0.0
  0
LINE
  5
302
  8
0
 10
163.6089480160544
 20
74.033717708980475
 30
0.0
 11
166.6089480160544
 21
74.033717708980475
 31
0.0
  0
LINE
  5
303
  8
0
 10
166.6089480160544
 20
74.033717708980475
 30
0.0
 11
166.6089480160544
 21
52.533717708980483
 31
0.0
  0
LINE
  5
304
  8
0
 10
154.7461289266802
 20
52.31406259437744
 30
0.0
 11
153.6089480160544
 21
54.283717708979111
 31
0.0
  0
ARC
  5
305
  8
0
 10
158.7536863726576
 20
55.05647637302809
 30
0.0
 40
4.8560632220084576
 50
145.61575253199311
 51
205.61575253191651
  0
ARC
  5
306
  8
0
 10
172.0491173746349
 20
63.283717708980483
 30
0.0
 40
18.15149422398537
 50
162.41204622602351
 51
197.58795377397641
  0
ARC
  5
307
  8
0
 10
158.7536863726576
 20
71.510959044932861
 30
0.0
 40
4.8560632220084576
 50
154.3842474680834
 51
214.38424746800689
  0
LINE
  5
308
  8
0
 10
154.7461289266802
 20
74.253372823583504
 30
0.0
 11
153.6089480160544
 21
72.28371770898184
 31
0.0
  0
LINE
  5
309
  8
0
 10
153.6089480160544
 20
54.283717708979111
 30
0.0
 11
153.6089480160544
 21
72.28371770898184
 31
0.0
  0
LINE
  5
30A
  8
0
 10
154.7461289266802
 20
52.31406259437744
 30
0.0
 11
163.6089480160544
 21
52.31406259437744
 31
0.0
  0
LINE
  5
30B
  8
0
 10
154.7461289266802
 20
57.798890151683281
 30
0.0
 11
163.6089480160544
 21
57.79889015167555
 31
0.0
  0
LINE
  5
30C
  8
0
 10
154.7461289266802
 20
74.253372823583504
 30
0.0
 11
163.6089480160544
 21
74.253372823583504
 31
0.0
  0
LINE
  5
30D
  8
0
 10
154.7461289266802
 20
68.768545266277656
 30
0.0
 11
163.6089480160544
 21
68.7685452662854
 31
0.0
  0
LINE
  5
30E
  8
0
 10
163.6089480160544
 20
52.31406259437744
 30
0.0
 11
163.6089480160544
 21
74.253372823583504
 31
0.0
  0
ARC
  5
30F
  8
0
 10
177.20894801605431
 20
55.383717708980377
 30
0.0
 40
0.4
 50
0.0
 51
90.000000000000057
  0
ARC
  5
310
  8
0
 10
177.20894801605431
 20
71.183717708980566
 30
0.0
 40
0.4
 50
270.0
 51
0.0
  0
LINE
  5
311
  8
0
 10
167.6089480160544
 20
55.783717708980483
 30
0.0
 11
167.1089480160544
 21
56.283717708980483
 31
0.0
  0
LINE
  5
312
  8
0
 10
167.6089480160544
 20
70.783717708980475
 30
0.0
 11
167.1089480160544
 21
70.283717708980475
 31
0.0
  0
LINE
  5
313
  8
0
 10
167.6089480160544
 20
55.783717708980483
 30
0.0
 11
177.20894801605431
 21
55.783717708980483
 31
0.0
  0
LINE
  5
314
  8
0
 10
167.6089480160544
 20
70.783717708980475
 30
0.0
 11
177.20894801605431
 21
70.783717708980475
 31
0.0
  0
LINE
  5
315
  8
0
 10
167.1089480160544
 20
70.283717708980475
 30
0.0
 11
167.1089480160544
 21
56.283717708980483
 31
0.0
  0
LINE
  5
316
  8
0
 10
177.60894801605389
 20
74.283717708980475
 30
0.0
 11
177.6089480160544
 21
52.283717708980468
 31
0.0
  0
LINE
  5
317
  8
1
 10
146.1089480160544
 20
63.283717708980483
 30
0.0
 11
209.6089480160544
 21
63.283717708980483
 31
0.0
  0
ARC
  5
509
  8
0
 10
81.108948016054455
 20
63.283717708980298
 30
0.0
 40
10.750000000000201
 50
92.094527208925797
 51
147.9054727910769
  0
ARC
  5
50A
  8
0
 10
81.108948016054455
 20
63.283717708980298
 30
0.0
 40
10.750000000000201
 50
32.094527208923132
 51
87.905472791074189
  0
ARC
  5
50D
  8
0
 10
81.108948016054455
 20
63.283717708980298
 30
0.0
 40
10.750000000000201
 50
332.09452720892449
 51
27.905472791075461
  0
ARC
  5
50E
  8
0
 10
81.108948016054455
 20
63.283717708980298
 30
0.0
 40
10.750000000000201
 50
272.09452720892381
 51
327.90547279107483
  0
ARC
  5
50F
  8
0
 10
81.108948016054455
 20
63.283717708980298
 30
0.0
 40
10.750000000000201
 50
212.0945272089231
 51
267.90547279107631
  0
ARC
  5
510
  8
0
 10
81.108948016054455
 20
63.283717708980298
 30
0.0
 40
10.750000000000201
 50
152.09452720892449
 51
207.9054727910754
  0
LINE
  5
511
  8
2
 10
198.1089480160544
 20
58.533717708980468
 30
0.0
 11
198.1089480160544
 21
68.033717708980475
 31
0.0
  0
LINE
  5
512
  8
2
 10
192.6089480160544
 20
58.533717708980468
 30
0.0
 11
198.1089480160544
 21
58.53371770898093
 31
0.0
  0
LINE
  5
513
  8
2
 10
192.6089480160544
 20
68.033717708980475
 30
0.0
 11
198.1089480160544
 21
68.033717708980475
 31
0.0
  0
LINE
  5
514
  8
2
 10
198.1089480160544
 20
60.283717708981392
 30
0.0
 11
204.608948016054
 21
60.283717708981392
 31
0.0
  0
LINE
  5
515
  8
2
 10
198.1089480160544
 20
60.825217708980738
 30
0.0
 11
204.6089480160544
 21
60.825217708980738
 31
0.0
  0
LINE
  5
516
  8
2
 10
198.1089480160544
 20
65.74221770898157
 30
0.0
 11
204.60894801605349
 21
65.74221770898157
 31
0.0
  0
LINE
  5
517
  8
2
 10
198.1089480160544
 20
66.283717708981385
 30
0.0
 11
204.60894801605349
 21
66.283717708981385
 31
0.0
  0
LINE
  5
518
  8
2
 10
198.10894801605471
 20
138.53371770898039
 30
0.0
 11
198.10894801605471
 21
148.03371770898039
 31
0.0
  0
LINE
  5
519
  8
2
 10
192.60894801605471
 20
138.53371770898039
 30
0.0
 11
198.10894801605471
 21
138.5337177089809
 31
0.0
  0
LINE
  5
51A
  8
2
 10
192.60894801605471
 20
148.03371770898039
 30
0.0
 11
198.10894801605471
 21
148.03371770898039
 31
0.0
  0
LINE
  5
51B
  8
2
 10
198.10894801605471
 20
140.2837177089813
 30
0.0
 11
204.60894801605431
 21
140.2837177089813
 31
0.0
  0
LINE
  5
51C
  8
2
 10
198.10894801605471
 20
140.82521770898069
 30
0.0
 11
204.6089480160548
 21
140.82521770898069
 31
0.0
  0
LINE
  5
51D
  8
2
 10
198.10894801605471
 20
145.74221770898151
 30
0.0
 11
204.6089480160538
 21
145.74221770898151
 31
0.0
  0
LINE
  5
51E
  8
2
 10
198.10894801605471
 20
146.2837177089813
 30
0.0
 11
204.6089480160538
 21
146.2837177089813
 31
0.0
  0
TEXT
  5
5CD
  8
0
 62
     3
 10
0.0
 20
0.0
 30
0.0
 40
10.0
  1
PID1511-F
  7
STANDARD1
  0
ENDSEC
  0
EOF
