  0
SECTION
  2
HEADER
  9
$ACADVER
  1
AC1009
  9
$INSBASE
 10
0.0
 20
0.0
 30
0.0
  9
$EXTMIN
 10
0.0
 20
-2.960436562073669
 30
0.0
  9
$EXTMAX
 10
137.79632273878639
 20
162.82689336293981
 30
0.0
  9
$LIMMIN
 10
0.0
 20
0.0
  9
$LIMMAX
 10
385.0
 20
270.0
  9
$ORTHOMODE
 70
     1
  9
$REGENMODE
 70
     1
  9
$FILLMODE
 70
     1
  9
$QTEXTMODE
 70
     0
  9
$MIRRTEXT
 70
     0
  9
$DRAGMODE
 70
     2
  9
$LTSCALE
 40
10.0
  9
$OSMODE
 70
  3071
  9
$ATTMODE
 70
     1
  9
$TEXTSIZE
 40
4.0
  9
$TRACEWID
 40
0.05
  9
$TEXTSTYLE
  7
STANDARD
  9
$CLAYER
  8
0
  9
$CELTYPE
  6
BYLAYER
  9
$CECOLOR
 62
   256
  9
$DIMSCALE
 40
1.0
  9
$DIMASZ
 40
3.0
  9
$DIMEXO
 40
1.0
  9
$DIMDLI
 40
6.0
  9
$DIMRND
 40
0.0
  9
$DIMDLE
 40
0.0
  9
$DIMEXE
 40
1.0
  9
$DIMTP
 40
495.0
  9
$DIMTM
 40
0.0
  9
$DIMTXT
 40
3.0
  9
$DIMCEN
 40
0.0
  9
$DIMTSZ
 40
0.0
  9
$DIMTOL
 70
     0
  9
$DIMLIM
 70
     0
  9
$DIMTIH
 70
     0
  9
$DIMTOH
 70
     0
  9
$DIMSE1
 70
     0
  9
$DIMSE2
 70
     0
  9
$DIMTAD
 70
     1
  9
$DIMZIN
 70
     0
  9
$DIMBLK
  1

  9
$DIMASO
 70
     1
  9
$DIMSHO
 70
     0
  9
$DIMPOST
  1

  9
$DIMAPOST
  1

  9
$DIMALT
 70
     0
  9
$DIMALTD
 70
     2
  9
$DIMALTF
 40
25.399999999999999
  9
$DIMLFAC
 40
1.0
  9
$DIMTOFL
 70
     1
  9
$DIMTVP
 40
0.0
  9
$DIMTIX
 70
     1
  9
$DIMSOXD
 70
     0
  9
$DIMSAH
 70
     0
  9
$DIMBLK1
  1

  9
$DIMBLK2
  1

  9
$DIMSTYLE
  2
STANDARD
  9
$DIMCLRD
 70
     0
  9
$DIMCLRE
 70
     0
  9
$DIMCLRT
 70
     4
  9
$DIMTFAC
 40
1.0
  9
$DIMGAP
 40
1.0
  9
$LUNITS
 70
     2
  9
$LUPREC
 70
     4
  9
$SKETCHINC
 40
0.1
  9
$FILLETRAD
 40
0.0
  9
$AUNITS
 70
     0
  9
$AUPREC
 70
     0
  9
$MENU
  1
E:\r13\win\SUPPORT\ACAD
  9
$ELEVATION
 40
0.0
  9
$PELEVATION
 40
0.0
  9
$THICKNESS
 40
0.0
  9
$LIMCHECK
 70
     0
  9
$BLIPMODE
 70
     0
  9
$CHAMFERA
 40
0.0
  9
$CHAMFERB
 40
0.0
  9
$SKPOLY
 70
     0
  9
$TDCREATE
 40
2450462.5309673608
  9
$TDUPDATE
 40
2456597.7191170598
  9
$TDINDWG
 40
0.1278051042
  9
$TDUSRTIMER
 40
0.1278051042
  9
$USRTIMER
 70
     1
  9
$ANGBASE
 50
0.0
  9
$ANGDIR
 70
     0
  9
$PDMODE
 70
     0
  9
$PDSIZE
 40
0.0
  9
$PLINEWID
 40
0.0
  9
$COORDS
 70
     1
  9
$SPLFRAME
 70
     0
  9
$SPLINETYPE
 70
     6
  9
$SPLINESEGS
 70
     8
  9
$ATTDIA
 70
     0
  9
$ATTREQ
 70
     1
  9
$HANDLING
 70
     1
  9
$HANDSEED
  5
14F0
  9
$SURFTAB1
 70
     6
  9
$SURFTAB2
 70
     6
  9
$SURFTYPE
 70
     6
  9
$SURFU
 70
     6
  9
$SURFV
 70
     6
  9
$UCSNAME
  2

  9
$UCSORG
 10
0.0
 20
0.0
 30
0.0
  9
$UCSXDIR
 10
1.0
 20
0.0
 30
0.0
  9
$UCSYDIR
 10
0.0
 20
1.0
 30
0.0
  9
$PUCSNAME
  2

  9
$PUCSORG
 10
0.0
 20
0.0
 30
0.0
  9
$PUCSXDIR
 10
1.0
 20
0.0
 30
0.0
  9
$PUCSYDIR
 10
0.0
 20
1.0
 30
0.0
  9
$USERI1
 70
     3
  9
$USERI2
 70
     1
  9
$USERI3
 70
     1
  9
$USERI4
 70
     0
  9
$USERI5
 70
     0
  9
$USERR1
 40
1.0
  9
$USERR2
 40
3.0
  9
$USERR3
 40
3.0
  9
$USERR4
 40
3.0
  9
$USERR5
 40
10.0
  9
$WORLDVIEW
 70
     1
  9
$SHADEDGE
 70
     3
  9
$SHADEDIF
 70
    70
  9
$TILEMODE
 70
     1
  9
$MAXACTVP
 70
    16
  9
$PLIMCHECK
 70
     0
  9
$PEXTMIN
 10
1.0000000000000000E+020
 20
1.0000000000000000E+020
 30
1.0000000000000000E+020
  9
$PEXTMAX
 10
-1.0000000000000000E+020
 20
-1.0000000000000000E+020
 30
-1.0000000000000000E+020
  9
$PLIMMIN
 10
0.0
 20
0.0
  9
$PLIMMAX
 10
12.0
 20
9.0
  9
$UNITMODE
 70
     0
  9
$VISRETAIN
 70
     0
  9
$PLINEGEN
 70
     0
  9
$PSLTSCALE
 70
     0
  0
ENDSEC
  0
SECTION
  2
TABLES
  0
TABLE
  2
VPORT
 70
     1
  0
VPORT
  2
*ACTIVE
 70
     0
 10
0.0
 20
0.0
 11
1.0
 21
1.0
 12
192.49412581440311
 22
134.10366293909439
 13
0.0
 23
0.0
 14
5.0
 24
5.0
 15
10.0
 25
10.0
 16
0.0
 26
0.0
 36
1.0
 17
0.0
 27
0.0
 37
0.0
 40
277.29405978699532
 41
2.304913294797688
 42
50.0
 43
0.0
 44
0.0
 50
0.0
 51
0.0
 71
     0
 72
   100
 73
     1
 74
     0
 75
     0
 76
     0
 77
     0
 78
     0
  0
ENDTAB
  0
TABLE
  2
LTYPE
 70
     4
  0
LTYPE
  2
CONTINUOUS
 70
     0
  3
Solid Line
 72
    65
 73
     0
 40
0.0
  0
LTYPE
  2
CENTER
 70
     0
  3
____ _ ____ _ ____ _ ____ _ ____ _ ____ _ ____
 72
    65
 73
     4
 40
2.0
 49
1.25
 49
-0.25
 49
0.25
 49
-0.25
  0
LTYPE
  2
HIDDEN
 70
     0
  3
_ _ _ _ _ _ _ _ _ _ _ _ _ _ _ _ _ _ _ _ _ _ _
 72
    65
 73
     2
 40
0.375
 49
0.25
 49
-0.125
  0
LTYPE
  2
PHANTOM2
 70
     0
  3
___ _ _ ___ _ _ ___ _ _ ___ _ _
 72
    65
 73
     6
 40
1.25
 49
0.625
 49
-0.125
 49
0.125
 49
-0.125
 49
0.125
 49
-0.125
  0
ENDTAB
  0
TABLE
  2
LAYER
 70
     4
  0
LAYER
  2
0
 70
     0
 62
     7
  6
CONTINUOUS
  0
LAYER
  2
2
 70
     0
 62
     2
  6
HIDDEN
  0
LAYER
  2
3
 70
     0
 62
     3
  6
CONTINUOUS
  0
LAYER
  2
1
 70
     0
 62
     1
  6
CENTER
  0
ENDTAB
  0
TABLE
  2
STYLE
 70
     2
  0
STYLE
  2
STANDARD
 70
     0
 40
0.0
 41
1.0
 50
0.0
 71
     0
 42
4.0
  3
simplex
  4
bigfont
  0
STYLE
  2
STANDARD1
 70
     0
 40
0.0
 41
1.0
 50
0.0
 71
     0
 42
3.0
  3
txt
  4

  0
ENDTAB
  0
TABLE
  2
VIEW
 70
     0
  0
ENDTAB
  0
TABLE
  2
UCS
 70
     0
  0
ENDTAB
  0
TABLE
  2
APPID
 70
     3
  0
APPID
  2
ACAD
 70
     0
  0
APPID
  2
ACAD_MLEADERVER
 70
     0
  0
APPID
  2
ACAD_NAV_VCDISPLAY
 70
     0
  0
ENDTAB
  0
TABLE
  2
DIMSTYLE
 70
     1
  0
DIMSTYLE
  2
STANDARD
 70
     0
  3

  4

  5

  6

  7

 40
1.0
 41
0.18
 42
0.0625
 43
0.38
 44
0.18
 45
0.0
 46
0.0
 47
0.0
 48
0.0
140
0.18
141
0.09
142
0.0
143
25.399999999999999
144
1.0
145
0.0
146
1.0
147
0.09
 71
     0
 72
     0
 73
     1
 74
     1
 75
     0
 76
     0
 77
     0
 78
     0
170
     0
171
     2
172
     0
173
     0
174
     0
175
     0
176
     0
177
     0
178
     0
  0
ENDTAB
  0
ENDSEC
  0
SECTION
  2
BLOCKS
  0
BLOCK
  8
0
  2
$MODEL_SPACE
 70
     0
 10
0.0
 20
0.0
 30
0.0
  3
$MODEL_SPACE
  1

  0
ENDBLK
  5
BFF
  8
0
  0
BLOCK
 67
     1
  8
0
  2
$PAPER_SPACE
 70
     0
 10
0.0
 20
0.0
 30
0.0
  3
$PAPER_SPACE
  1

  0
ENDBLK
  5
BFD
 67
     1
  8
0
  0
ENDSEC
  0
SECTION
  2
ENTITIES
  0
LINE
  5
A57
  8
0
 10
34.843426141809289
 20
99.434847837671782
 30
0.0
 11
34.843426141809289
 21
107.4348478376718
 31
0.0
  0
LINE
  5
A58
  8
0
 10
34.843426141809289
 20
107.4348478376718
 30
0.0
 11
54.605089181103011
 21
107.4348478376718
 31
0.0
  0
LINE
  5
A59
  8
0
 10
52.843426141809282
 20
81.434847837671782
 30
0.0
 11
54.605089181103011
 21
81.434847837671782
 31
0.0
  0
LINE
  5
A5A
  8
0
 10
52.843426141809282
 20
96.934847837671782
 30
0.0
 11
52.843426141809282
 21
88.264974856593966
 31
0.0
  0
LINE
  5
A5B
  8
0
 10
34.843426141809289
 20
99.434847837671782
 30
0.0
 11
50.343426141809282
 21
99.434847837671782
 31
0.0
  0
ARC
  5
A5C
  8
0
 10
50.343426141809282
 20
96.934847837671782
 30
0.0
 40
2.5
 50
0.0
 51
90.0
  0
ARC
  5
A5D
  8
0
 10
52.843426141809282
 20
83.934847837671782
 30
0.0
 40
2.5
 50
119.9999999999999
 51
270.0
  0
ARC
  5
A5E
  8
0
 10
50.343426141809282
 20
88.264974856593966
 30
0.0
 40
2.5
 50
300.0
 51
0.0
  0
ARC
  5
A5F
  8
0
 10
35.843426141809289
 20
94.434847837671782
 30
0.0
 40
24.0
 50
17.193683661014241
 51
29.23364002261075
  0
ARC
  5
A60
  8
0
 10
54.605089181103011
 20
104.9348478376717
 30
0.0
 40
2.5
 50
29.233640022610729
 51
90.0
  0
ARC
  5
A61
  8
0
 10
54.605089181102983
 20
83.934847837671782
 30
0.0
 40
2.5
 50
270.0
 51
330.7663599773889
  0
ARC
  5
A62
  8
0
 10
59.609859791606958
 20
97.775002260713364
 30
0.0
 40
0.5
 50
98.596841830506577
 51
277.40315816949368
  0
ARC
  5
A63
  8
0
 10
58.913706844328942
 20
101.05014437727969
 30
0.0
 40
0.5
 50
106.5968418305072
 51
285.403158169493
  0
ARC
  5
A64
  8
0
 10
35.843426141809289
 20
94.434847837671782
 30
0.0
 40
24.0
 50
9.1936836610141999
 51
14.80631633898621
  0
ARC
  5
A65
  8
0
 10
35.843426141809289
 20
94.434847837671782
 30
0.0
 40
24.0
 50
1.1936836610138351
 51
6.8063163389861518
  0
ARC
  5
A66
  8
0
 10
59.609859791606958
 20
91.0946934146302
 30
0.0
 40
0.5
 50
82.596841830506207
 51
261.40315816949339
  0
ARC
  5
A67
  8
0
 10
58.913706844328942
 20
87.8195512980638
 30
0.0
 40
0.5
 50
74.596841830506946
 51
253.4031581694928
  0
ARC
  5
A68
  8
0
 10
59.843426141809289
 20
94.434847837671782
 30
0.0
 40
0.5
 50
90.596841830506449
 51
269.40315816949362
  0
ARC
  5
A69
  8
0
 10
35.843426141809289
 20
94.434847837671782
 30
0.0
 40
24.0
 50
353.19368366101378
 51
358.80631633898582
  0
ARC
  5
A6A
  8
0
 10
35.843426141809289
 20
94.434847837671782
 30
0.0
 40
24.0
 50
345.19368366101378
 51
350.80631633898582
  0
ARC
  5
A6B
  8
0
 10
35.843426141809289
 20
94.434847837671782
 30
0.0
 40
24.0
 50
330.7663599773893
 51
342.80631633898582
  0
LINE
  5
A79
  8
1
 10
29.843426141809289
 20
103.4348478376718
 30
0.0
 11
51.817421205252742
 21
103.4348478376718
 31
0.0
  0
LINE
  5
A84
  8
0
 10
92.796322738786472
 20
81.434847837671782
 30
0.0
 11
137.79632273878639
 21
81.434847837671782
 31
0.0
  0
LINE
  5
A85
  8
0
 10
92.796322738786444
 20
107.4348478376717
 30
0.0
 11
137.79632273878639
 21
107.4348478376718
 31
0.0
  0
LINE
  5
A86
  8
0
 10
92.796322738786444
 20
107.4348478376718
 30
0.0
 11
92.796322738786444
 21
81.434847837671782
 31
0.0
  0
LINE
  5
A87
  8
0
 10
137.79632273878639
 20
107.4348478376718
 30
0.0
 11
137.79632273878639
 21
81.434847837671811
 31
0.0
  0
LINE
  5
A88
  8
2
 10
92.796322738786444
 20
99.434847837671754
 30
0.0
 11
137.79632273878639
 21
99.434847837671782
 31
0.0
  0
CIRCLE
  5
A89
  8
2
 10
130.29632273878639
 20
103.4348478376718
 30
0.0
 40
1.6209999999999991
  0
CIRCLE
  5
A8A
  8
2
 10
130.29632273878639
 20
103.4348478376718
 30
0.0
 40
2.0
  0
CIRCLE
  5
A8B
  8
2
 10
100.2963227387864
 20
103.4348478376717
 30
0.0
 40
1.6209999999999991
  0
CIRCLE
  5
A8C
  8
2
 10
100.2963227387864
 20
103.4348478376717
 30
0.0
 40
2.0
  0
LINE
  5
A8D
  8
1
 10
104.7963227387864
 20
103.4348478376717
 30
0.0
 11
95.796322738786444
 21
103.4348478376717
 31
0.0
  0
LINE
  5
A8E
  8
1
 10
100.2963227387864
 20
107.9348478376717
 30
0.0
 11
100.2963227387864
 21
98.934847837671754
 31
0.0
  0
LINE
  5
A8F
  8
1
 10
134.79632273878639
 20
103.4348478376718
 30
0.0
 11
125.7963227387864
 21
103.4348478376718
 31
0.0
  0
LINE
  5
A90
  8
1
 10
130.29632273878639
 20
107.9348478376717
 30
0.0
 11
130.29632273878639
 21
98.934847837671782
 31
0.0
  0
LINE
  5
A91
  8
3
 10
92.796322738786472
 20
87.340382137922632
 30
0.0
 11
137.79632273878639
 21
87.340382137922603
 31
0.0
  0
LINE
  5
A92
  8
3
 10
92.796322738786472
 20
88.301591680661403
 30
0.0
 11
137.79632273878639
 21
88.301591680661446
 31
0.0
  0
LINE
  5
A93
  8
3
 10
92.796322738786444
 20
90.600311103629565
 30
0.0
 11
137.79632273878639
 21
90.600311103629565
 31
0.0
  0
LINE
  5
A94
  8
3
 10
92.796322738786444
 20
91.590525445432476
 30
0.0
 11
137.79632273878639
 21
91.590525445432476
 31
0.0
  0
LINE
  5
A95
  8
3
 10
92.796322738786444
 20
93.934874965143806
 30
0.0
 11
137.79632273878639
 21
93.934874965143806
 31
0.0
  0
LINE
  5
A96
  8
3
 10
92.796322738786444
 20
94.934820710199773
 30
0.0
 11
137.79632273878639
 21
94.934820710199816
 31
0.0
  0
LINE
  5
A97
  8
3
 10
92.796322738786444
 20
97.279170229911074
 30
0.0
 11
137.79632273878639
 21
97.279170229911074
 31
0.0
  0
LINE
  5
A98
  8
3
 10
92.796322738786444
 20
98.269384571714014
 30
0.0
 11
137.79632273878639
 21
98.269384571714014
 31
0.0
  0
LINE
  5
A99
  8
3
 10
92.796322738786444
 20
100.5681039946821
 30
0.0
 11
137.79632273878639
 21
100.5681039946821
 31
0.0
  0
LINE
  5
A9A
  8
3
 10
92.796322738786444
 20
101.5293135374209
 30
0.0
 11
137.79632273878639
 21
101.5293135374209
 31
0.0
  0
LINE
  5
AC9
  8
0
 10
92.796322738786472
 20
132.82689336293981
 30
0.0
 11
137.79632273878639
 21
132.82689336293981
 31
0.0
  0
LINE
  5
ACA
  8
0
 10
92.796322738786415
 20
157.82689336293981
 30
0.0
 11
92.796322738786444
 21
132.82689336293981
 31
0.0
  0
LINE
  5
ACB
  8
0
 10
137.79632273878639
 20
157.82689336293981
 30
0.0
 11
137.79632273878639
 21
132.82689336293981
 31
0.0
  0
LINE
  5
ACC
  8
0
 10
92.796322738786415
 20
157.82689336293981
 30
0.0
 11
137.79632273878639
 21
157.82689336293981
 31
0.0
  0
LINE
  5
ACF
  8
1
 10
100.2963227387864
 20
140.8528982994963
 30
0.0
 11
100.2963227387864
 21
162.82689336293981
 31
0.0
  0
LINE
  5
AD1
  8
1
 10
130.29632273878639
 20
140.8528982994963
 30
0.0
 11
130.29632273878639
 21
162.82689336293981
 31
0.0
  0
LINE
  5
AF5
  8
3
 10
92.796322738786415
 20
136.65265236110781
 30
0.0
 11
137.79632273878639
 21
136.65265236110781
 31
0.0
  0
LINE
  5
AF6
  8
2
 10
98.296322738786444
 20
157.40589336293999
 30
0.0
 11
98.296322738786444
 21
149.8268933629397
 31
0.0
  0
LINE
  5
AF7
  8
2
 10
98.675322738786733
 20
157.02689336293969
 30
0.0
 11
98.675322738786733
 21
146.8268933629397
 31
0.0
  0
LINE
  5
AF8
  8
2
 10
102.2963227387864
 20
157.40589336293999
 30
0.0
 11
102.2963227387864
 21
149.8268933629397
 31
0.0
  0
LINE
  5
AF9
  8
2
 10
101.9173227387862
 20
157.02689336293969
 30
0.0
 11
101.9173227387862
 21
146.8268933629397
 31
0.0
  0
LINE
  5
AFA
  8
2
 10
98.296322738786515
 20
149.8268933629397
 30
0.0
 11
98.675322738786747
 21
149.17044610687071
 31
0.0
  0
LINE
  5
AFB
  8
2
 10
98.296322738786444
 20
149.8268933629397
 30
0.0
 11
102.2963227387864
 21
149.8268933629397
 31
0.0
  0
LINE
  5
AFC
  8
2
 10
98.675322738786804
 20
146.8268933629397
 30
0.0
 11
100.2963227387864
 21
145.8528982994963
 31
0.0
  0
LINE
  5
AFD
  8
2
 10
98.675322738786733
 20
146.8268933629397
 30
0.0
 11
101.9173227387862
 21
146.8268933629397
 31
0.0
  0
LINE
  5
AFE
  8
2
 10
101.9173227387862
 20
146.82689336293981
 30
0.0
 11
100.2963227387864
 21
145.8528982994963
 31
0.0
  0
LINE
  5
AFF
  8
2
 10
102.2963227387864
 20
149.8268933629397
 30
0.0
 11
101.9173227387862
 21
149.17044610687071
 31
0.0
  0
LINE
  5
B00
  8
2
 10
98.675322738786733
 20
157.02689336293969
 30
0.0
 11
97.875322738786664
 21
157.8268933629397
 31
0.0
  0
LINE
  5
B01
  8
2
 10
102.71732273878619
 20
157.8268933629397
 30
0.0
 11
101.9173227387862
 21
157.02689336293969
 31
0.0
  0
LINE
  5
B02
  8
2
 10
101.9173227387862
 20
157.02689336293969
 30
0.0
 11
98.675322738786733
 21
157.02689336293969
 31
0.0
  0
LINE
  5
B03
  8
2
 10
128.6753227387866
 20
157.02689336293969
 30
0.0
 11
128.6753227387866
 21
146.8268933629397
 31
0.0
  0
LINE
  5
B04
  8
2
 10
128.29632273878639
 20
157.40589336293999
 30
0.0
 11
128.29632273878639
 21
149.8268933629397
 31
0.0
  0
LINE
  5
B05
  8
2
 10
131.91732273878611
 20
157.02689336293969
 30
0.0
 11
131.91732273878611
 21
146.8268933629397
 31
0.0
  0
LINE
  5
B06
  8
2
 10
132.29632273878639
 20
157.40589336293999
 30
0.0
 11
132.29632273878639
 21
149.8268933629397
 31
0.0
  0
LINE
  5
B07
  8
2
 10
128.6753227387866
 20
146.82689336293981
 30
0.0
 11
130.29632273878639
 21
145.8528982994963
 31
0.0
  0
LINE
  5
B08
  8
2
 10
131.91732273878611
 20
146.8268933629397
 30
0.0
 11
128.6753227387866
 21
146.8268933629397
 31
0.0
  0
LINE
  5
B09
  8
2
 10
132.29632273878639
 20
149.8268933629397
 30
0.0
 11
128.29632273878639
 21
149.8268933629397
 31
0.0
  0
LINE
  5
B0A
  8
2
 10
131.917322738786
 20
146.8268933629397
 30
0.0
 11
130.29632273878639
 21
145.8528982994963
 31
0.0
  0
LINE
  5
B0B
  8
2
 10
132.2963227387863
 20
149.8268933629397
 30
0.0
 11
131.91732273878611
 21
149.17044610687071
 31
0.0
  0
LINE
  5
B0C
  8
2
 10
128.29632273878639
 20
149.8268933629397
 30
0.0
 11
128.6753227387866
 21
149.17044610687071
 31
0.0
  0
LINE
  5
B0D
  8
2
 10
128.6753227387866
 20
157.02689336293969
 30
0.0
 11
131.91732273878611
 21
157.02689336293969
 31
0.0
  0
LINE
  5
B0E
  8
2
 10
131.91732273878611
 20
157.02689336293969
 30
0.0
 11
132.71732273878609
 21
157.8268933629397
 31
0.0
  0
LINE
  5
B0F
  8
2
 10
127.87532273878649
 20
157.8268933629397
 30
0.0
 11
128.6753227387866
 21
157.02689336293969
 31
0.0
  0
LINE
  5
B11
  8
0
 10
92.796322738786415
 20
28.936186441074621
 30
0.0
 11
137.79632273878639
 21
28.9361864410746
 31
0.0
  0
LINE
  5
B12
  8
0
 10
92.796322738786472
 20
53.936186441074589
 30
0.0
 11
137.79632273878639
 21
53.936186441074589
 31
0.0
  0
LINE
  5
B13
  8
0
 10
92.796322738786415
 20
28.9361864410746
 30
0.0
 11
92.796322738786444
 21
53.936186441074589
 31
0.0
  0
LINE
  5
B14
  8
1
 10
130.29632273878639
 20
45.910181504518079
 30
0.0
 11
130.29632273878639
 21
23.936186441074621
 31
0.0
  0
LINE
  5
B15
  8
1
 10
100.2963227387864
 20
45.910181504518079
 30
0.0
 11
100.2963227387864
 21
23.936186441074621
 31
0.0
  0
LINE
  5
B16
  8
0
 10
137.79632273878639
 20
28.9361864410746
 30
0.0
 11
137.79632273878639
 21
53.936186441074568
 31
0.0
  0
LINE
  5
B17
  8
2
 10
101.9173227387862
 20
29.736186441074668
 30
0.0
 11
101.9173227387862
 21
39.936186441074661
 31
0.0
  0
LINE
  5
B18
  8
2
 10
102.2963227387864
 20
29.357186441074418
 30
0.0
 11
102.2963227387864
 21
36.936186441074653
 31
0.0
  0
LINE
  5
B19
  8
2
 10
98.675322738786733
 20
29.736186441074668
 30
0.0
 11
98.675322738786733
 21
39.936186441074661
 31
0.0
  0
LINE
  5
B1A
  8
2
 10
98.296322738786444
 20
29.357186441074418
 30
0.0
 11
98.296322738786444
 21
36.936186441074653
 31
0.0
  0
LINE
  5
B1B
  8
2
 10
101.9173227387862
 20
39.93618644107454
 30
0.0
 11
100.2963227387864
 21
40.910181504518107
 31
0.0
  0
LINE
  5
B1C
  8
2
 10
98.675322738786733
 20
39.936186441074661
 30
0.0
 11
101.9173227387862
 21
39.936186441074661
 31
0.0
  0
LINE
  5
B1D
  8
2
 10
98.296322738786444
 20
36.936186441074653
 30
0.0
 11
102.2963227387864
 21
36.936186441074653
 31
0.0
  0
LINE
  5
B1E
  8
2
 10
98.675322738786804
 20
39.936186441074661
 30
0.0
 11
100.2963227387864
 21
40.910181504518107
 31
0.0
  0
LINE
  5
B1F
  8
2
 10
98.296322738786515
 20
36.936186441074653
 30
0.0
 11
98.675322738786747
 21
37.592633697143697
 31
0.0
  0
LINE
  5
B20
  8
2
 10
102.2963227387864
 20
36.936186441074653
 30
0.0
 11
101.9173227387862
 21
37.592633697143697
 31
0.0
  0
LINE
  5
B21
  8
2
 10
101.9173227387862
 20
29.736186441074668
 30
0.0
 11
98.675322738786733
 21
29.736186441074668
 31
0.0
  0
LINE
  5
B22
  8
2
 10
98.675322738786733
 20
29.736186441074668
 30
0.0
 11
97.875322738786664
 21
28.936186441074661
 31
0.0
  0
LINE
  5
B23
  8
2
 10
102.71732273878619
 20
28.936186441074661
 30
0.0
 11
101.9173227387862
 21
29.736186441074668
 31
0.0
  0
LINE
  5
B24
  8
2
 10
132.29632273878639
 20
29.357186441074418
 30
0.0
 11
132.29632273878639
 21
36.936186441074653
 31
0.0
  0
LINE
  5
B25
  8
2
 10
131.91732273878611
 20
29.736186441074668
 30
0.0
 11
131.91732273878611
 21
39.936186441074661
 31
0.0
  0
LINE
  5
B26
  8
2
 10
128.29632273878639
 20
29.357186441074418
 30
0.0
 11
128.29632273878639
 21
36.936186441074653
 31
0.0
  0
LINE
  5
B27
  8
2
 10
128.6753227387866
 20
29.736186441074668
 30
0.0
 11
128.6753227387866
 21
39.936186441074661
 31
0.0
  0
LINE
  5
B28
  8
2
 10
131.917322738786
 20
39.936186441074661
 30
0.0
 11
130.29632273878639
 21
40.910181504518107
 31
0.0
  0
LINE
  5
B29
  8
2
 10
132.29632273878639
 20
36.936186441074653
 30
0.0
 11
128.29632273878639
 21
36.936186441074653
 31
0.0
  0
LINE
  5
B2A
  8
2
 10
131.91732273878611
 20
39.936186441074661
 30
0.0
 11
128.6753227387866
 21
39.936186441074661
 31
0.0
  0
LINE
  5
B2B
  8
2
 10
128.6753227387866
 20
39.93618644107454
 30
0.0
 11
130.29632273878639
 21
40.910181504518107
 31
0.0
  0
LINE
  5
B2C
  8
2
 10
128.29632273878639
 20
36.936186441074653
 30
0.0
 11
128.6753227387866
 21
37.592633697143697
 31
0.0
  0
LINE
  5
B2D
  8
2
 10
132.2963227387863
 20
36.936186441074653
 30
0.0
 11
131.91732273878611
 21
37.592633697143697
 31
0.0
  0
LINE
  5
B2E
  8
2
 10
128.6753227387866
 20
29.736186441074668
 30
0.0
 11
131.91732273878611
 21
29.736186441074668
 31
0.0
  0
LINE
  5
B2F
  8
2
 10
127.87532273878649
 20
28.936186441074661
 30
0.0
 11
128.6753227387866
 21
29.736186441074668
 31
0.0
  0
LINE
  5
B30
  8
2
 10
131.91732273878611
 20
29.736186441074668
 30
0.0
 11
132.71732273878609
 21
28.936186441074661
 31
0.0
  0
LINE
  5
B54
  8
3
 10
92.796322738786444
 20
50.110427442906662
 30
0.0
 11
137.79632273878639
 21
50.110427442906619
 31
0.0
  0
LINE
  5
B55
  8
0
 10
92.796322738786444
 20
44.436186441074639
 30
0.0
 11
137.79632273878639
 21
44.436186441074561
 31
0.0
  0
TEXT
  5
148D
  8
0
 62
     3
 10
0.0
 20
0.0
 30
0.0
 40
10.0
  1
PH3-30B
  7
STANDARD1
  0
ENDSEC
  0
EOF
