  0
SECTION
  2
HEADER
  9
$ACADVER
  1
AC1009
  9
$INSBASE
 10
0.0
 20
0.0
 30
0.0
  9
$EXTMIN
 10
0.0
 20
-2.960436562073669
 30
0.0
  9
$EXTMAX
 10
290.54938160082082
 20
162.3498991947661
 30
0.0
  9
$LIMMIN
 10
0.0
 20
0.0
  9
$LIMMAX
 10
385.0
 20
270.0
  9
$ORTHOMODE
 70
     1
  9
$REGENMODE
 70
     1
  9
$FILLMODE
 70
     1
  9
$QTEXTMODE
 70
     0
  9
$MIRRTEXT
 70
     0
  9
$DRAGMODE
 70
     2
  9
$LTSCALE
 40
10.0
  9
$OSMODE
 70
  3071
  9
$ATTMODE
 70
     1
  9
$TEXTSIZE
 40
4.0
  9
$TRACEWID
 40
0.05
  9
$TEXTSTYLE
  7
STANDARD
  9
$CLAYER
  8
0
  9
$CELTYPE
  6
BYLAYER
  9
$CECOLOR
 62
   256
  9
$DIMSCALE
 40
1.0
  9
$DIMASZ
 40
3.0
  9
$DIMEXO
 40
1.0
  9
$DIMDLI
 40
6.0
  9
$DIMRND
 40
0.0
  9
$DIMDLE
 40
0.0
  9
$DIMEXE
 40
1.0
  9
$DIMTP
 40
495.0
  9
$DIMTM
 40
0.0
  9
$DIMTXT
 40
3.0
  9
$DIMCEN
 40
0.0
  9
$DIMTSZ
 40
0.0
  9
$DIMTOL
 70
     0
  9
$DIMLIM
 70
     0
  9
$DIMTIH
 70
     0
  9
$DIMTOH
 70
     0
  9
$DIMSE1
 70
     0
  9
$DIMSE2
 70
     0
  9
$DIMTAD
 70
     1
  9
$DIMZIN
 70
     0
  9
$DIMBLK
  1

  9
$DIMASO
 70
     1
  9
$DIMSHO
 70
     0
  9
$DIMPOST
  1

  9
$DIMAPOST
  1

  9
$DIMALT
 70
     0
  9
$DIMALTD
 70
     2
  9
$DIMALTF
 40
25.399999999999999
  9
$DIMLFAC
 40
1.0
  9
$DIMTOFL
 70
     1
  9
$DIMTVP
 40
0.0
  9
$DIMTIX
 70
     1
  9
$DIMSOXD
 70
     0
  9
$DIMSAH
 70
     0
  9
$DIMBLK1
  1

  9
$DIMBLK2
  1

  9
$DIMSTYLE
  2
STANDARD
  9
$DIMCLRD
 70
     0
  9
$DIMCLRE
 70
     0
  9
$DIMCLRT
 70
     4
  9
$DIMTFAC
 40
1.0
  9
$DIMGAP
 40
1.0
  9
$LUNITS
 70
     2
  9
$LUPREC
 70
     4
  9
$SKETCHINC
 40
0.1
  9
$FILLETRAD
 40
0.0
  9
$AUNITS
 70
     0
  9
$AUPREC
 70
     0
  9
$MENU
  1
E:\r13\win\SUPPORT\ACAD
  9
$ELEVATION
 40
0.0
  9
$PELEVATION
 40
0.0
  9
$THICKNESS
 40
0.0
  9
$LIMCHECK
 70
     0
  9
$BLIPMODE
 70
     0
  9
$CHAMFERA
 40
0.0
  9
$CHAMFERB
 40
0.0
  9
$SKPOLY
 70
     0
  9
$TDCREATE
 40
2450541.3939600689
  9
$TDUPDATE
 40
2456597.7187875351
  9
$TDINDWG
 40
0.0159902315
  9
$TDUSRTIMER
 40
0.0159902315
  9
$USRTIMER
 70
     1
  9
$ANGBASE
 50
0.0
  9
$ANGDIR
 70
     0
  9
$PDMODE
 70
     0
  9
$PDSIZE
 40
0.0
  9
$PLINEWID
 40
0.0
  9
$COORDS
 70
     1
  9
$SPLFRAME
 70
     0
  9
$SPLINETYPE
 70
     6
  9
$SPLINESEGS
 70
     8
  9
$ATTDIA
 70
     0
  9
$ATTREQ
 70
     1
  9
$HANDLING
 70
     1
  9
$HANDSEED
  5
823
  9
$SURFTAB1
 70
     6
  9
$SURFTAB2
 70
     6
  9
$SURFTYPE
 70
     6
  9
$SURFU
 70
     6
  9
$SURFV
 70
     6
  9
$UCSNAME
  2

  9
$UCSORG
 10
0.0
 20
0.0
 30
0.0
  9
$UCSXDIR
 10
1.0
 20
0.0
 30
0.0
  9
$UCSYDIR
 10
0.0
 20
1.0
 30
0.0
  9
$PUCSNAME
  2

  9
$PUCSORG
 10
0.0
 20
0.0
 30
0.0
  9
$PUCSXDIR
 10
1.0
 20
0.0
 30
0.0
  9
$PUCSYDIR
 10
0.0
 20
1.0
 30
0.0
  9
$USERI1
 70
     3
  9
$USERI2
 70
     1
  9
$USERI3
 70
     1
  9
$USERI4
 70
     0
  9
$USERI5
 70
     0
  9
$USERR1
 40
1.0
  9
$USERR2
 40
3.0
  9
$USERR3
 40
3.0
  9
$USERR4
 40
3.0
  9
$USERR5
 40
10.0
  9
$WORLDVIEW
 70
     1
  9
$SHADEDGE
 70
     3
  9
$SHADEDIF
 70
    70
  9
$TILEMODE
 70
     1
  9
$MAXACTVP
 70
    16
  9
$PLIMCHECK
 70
     0
  9
$PEXTMIN
 10
1.0000000000000000E+020
 20
1.0000000000000000E+020
 30
1.0000000000000000E+020
  9
$PEXTMAX
 10
-1.0000000000000000E+020
 20
-1.0000000000000000E+020
 30
-1.0000000000000000E+020
  9
$PLIMMIN
 10
0.0
 20
0.0
  9
$PLIMMAX
 10
12.0
 20
9.0
  9
$UNITMODE
 70
     0
  9
$VISRETAIN
 70
     0
  9
$PLINEGEN
 70
     0
  9
$PSLTSCALE
 70
     0
  0
ENDSEC
  0
SECTION
  2
TABLES
  0
TABLE
  2
VPORT
 70
     1
  0
VPORT
  2
*ACTIVE
 70
     0
 10
0.0
 20
0.0
 11
1.0
 21
1.0
 12
192.49412581440311
 22
134.10366293909439
 13
0.0
 23
0.0
 14
5.0
 24
5.0
 15
10.0
 25
10.0
 16
0.0
 26
0.0
 36
1.0
 17
0.0
 27
0.0
 37
0.0
 40
277.29405978699532
 41
2.304913294797688
 42
50.0
 43
0.0
 44
0.0
 50
0.0
 51
0.0
 71
     0
 72
   100
 73
     1
 74
     0
 75
     0
 76
     0
 77
     0
 78
     0
  0
ENDTAB
  0
TABLE
  2
LTYPE
 70
     4
  0
LTYPE
  2
CONTINUOUS
 70
     0
  3
Solid Line
 72
    65
 73
     0
 40
0.0
  0
LTYPE
  2
CENTER
 70
     0
  3
____ _ ____ _ ____ _ ____ _ ____ _ ____ _ ____
 72
    65
 73
     4
 40
2.0
 49
1.25
 49
-0.25
 49
0.25
 49
-0.25
  0
LTYPE
  2
HIDDEN
 70
     0
  3
_ _ _ _ _ _ _ _ _ _ _ _ _ _ _ _ _ _ _ _ _ _ _
 72
    65
 73
     2
 40
0.375
 49
0.25
 49
-0.125
  0
LTYPE
  2
PHANTOM2
 70
     0
  3
___ _ _ ___ _ _ ___ _ _ ___ _ _
 72
    65
 73
     6
 40
1.25
 49
0.625
 49
-0.125
 49
0.125
 49
-0.125
 49
0.125
 49
-0.125
  0
ENDTAB
  0
TABLE
  2
LAYER
 70
     1
  0
LAYER
  2
0
 70
     0
 62
     7
  6
CONTINUOUS
  0
ENDTAB
  0
TABLE
  2
STYLE
 70
     2
  0
STYLE
  2
STANDARD
 70
     0
 40
0.0
 41
1.0
 50
0.0
 71
     0
 42
4.0
  3
SIMPLEX
  4
BIGFONT
  0
STYLE
  2
STANDARD1
 70
     0
 40
0.0
 41
1.0
 50
0.0
 71
     0
 42
3.0
  3
txt
  4

  0
ENDTAB
  0
TABLE
  2
VIEW
 70
     0
  0
ENDTAB
  0
TABLE
  2
UCS
 70
     0
  0
ENDTAB
  0
TABLE
  2
APPID
 70
    12
  0
APPID
  2
ACAD
 70
     0
  0
APPID
  2
ASM_BASE
 70
     0
  0
APPID
  2
ASM_EXPLO_VER_2_00
 70
     0
  0
APPID
  2
ASM_CADM_VER_12_00
 70
     0
  0
APPID
  2
ASM_BASEFORO
 70
     0
  0
APPID
  2
ASM_BASETRAVI
 70
     0
  0
APPID
  2
ASM_BASETRAVI1
 70
     0
  0
APPID
  2
ASM_GRUPPI
 70
     0
  0
APPID
  2
ASM_CADM_ALBERO
 70
     0
  0
APPID
  2
ASM_GOLE
 70
     0
  0
APPID
  2
ACAD_MLEADERVER
 70
     0
  0
APPID
  2
ACAD_NAV_VCDISPLAY
 70
     0
  0
ENDTAB
  0
TABLE
  2
DIMSTYLE
 70
     1
  0
DIMSTYLE
  2
STANDARD
 70
     0
  3

  4

  5

  6

  7

 40
1.0
 41
0.18
 42
0.0625
 43
0.38
 44
0.18
 45
0.0
 46
0.0
 47
0.0
 48
0.0
140
0.18
141
0.09
142
0.0
143
25.399999999999999
144
1.0
145
0.0
146
1.0
147
0.09
 71
     0
 72
     0
 73
     1
 74
     1
 75
     0
 76
     0
 77
     0
 78
     0
170
     0
171
     2
172
     0
173
     0
174
     0
175
     0
176
     0
177
     0
178
     0
  0
ENDTAB
  0
ENDSEC
  0
SECTION
  2
BLOCKS
  0
BLOCK
  8
0
  2
$MODEL_SPACE
 70
     0
 10
0.0
 20
0.0
 30
0.0
  3
$MODEL_SPACE
  1

  0
ENDBLK
  5
6B3
  8
0
  0
BLOCK
 67
     1
  8
0
  2
$PAPER_SPACE
 70
     0
 10
0.0
 20
0.0
 30
0.0
  3
$PAPER_SPACE
  1

  0
ENDBLK
  5
6B1
 67
     1
  8
0
  0
BLOCK
  8
0
  2
STDGX5
 70
     0
 10
0.0
 20
0.0
 30
0.0
  3
STDGX5
  1

  0
ENDBLK
  5
4F
  8
0
  0
ENDSEC
  0
SECTION
  2
ENTITIES
  0
INSERT
  5
DE
  8
0
  6
CONTINUOUS
 62
     7
  2
STDGX5
 10
0.0
 20
0.0
 30
0.0
  0
INSERT
  5
DF
  8
0
  6
CONTINUOUS
 62
     7
  2
STDGX5
 10
0.0
 20
0.0
 30
0.0
  0
INSERT
  5
15C
  8
0
  6
CONTINUOUS
 62
     7
  2
STDGX5
 10
275.0
 20
0.0
 30
0.0
  0
INSERT
  5
15D
  8
0
  6
CONTINUOUS
 62
     7
  2
STDGX5
 10
275.0
 20
0.0
 30
0.0
  0
INSERT
  5
42F
  8
0
  6
CONTINUOUS
 62
     7
  2
STDGX5
 10
30.608621050749779
 20
53.173469491929943
 30
0.0
  0
INSERT
  5
430
  8
0
  6
CONTINUOUS
 62
     7
  2
STDGX5
 10
30.608621050749779
 20
53.173469491929943
 30
0.0
  0
INSERT
  5
431
  8
0
  6
CONTINUOUS
 62
     7
  2
STDGX5
 10
305.60862105074978
 20
53.173469491929943
 30
0.0
  0
INSERT
  5
432
  8
0
  6
CONTINUOUS
 62
     7
  2
STDGX5
 10
305.60862105074978
 20
53.173469491929943
 30
0.0
  0
INSERT
  5
520
  8
0
  6
CONTINUOUS
 62
     7
  2
STDGX5
 10
45.499302106388193
 20
44.35714295772538
 30
0.0
  0
INSERT
  5
521
  8
0
  6
CONTINUOUS
 62
     7
  2
STDGX5
 10
45.499302106388193
 20
44.35714295772538
 30
0.0
  0
INSERT
  5
522
  8
0
  6
CONTINUOUS
 62
     7
  2
STDGX5
 10
320.4993021063882
 20
44.35714295772538
 30
0.0
  0
INSERT
  5
523
  8
0
  6
CONTINUOUS
 62
     7
  2
STDGX5
 10
320.4993021063882
 20
44.35714295772538
 30
0.0
  0
LINE
  5
57C
  8
0
  6
HIDDEN
 62
     2
 10
162.8467637183962
 20
138.60732212857539
 30
0.0
 11
140.7504111818873
 21
138.60732212857539
 31
0.0
  0
LINE
  5
57D
  8
0
  6
HIDDEN
 62
     2
 10
162.8467637183962
 20
148.09247626095669
 30
0.0
 11
140.7504111818873
 21
148.09247626095669
 31
0.0
  0
LINE
  5
57E
  8
0
  6
CONTINUOUS
 62
     7
 10
182.8467637183962
 20
129.34989919476601
 30
0.0
 11
137.16892595888021
 21
129.34989919476601
 31
0.0
  0
LINE
  5
57F
  8
0
  6
CONTINUOUS
 62
     7
 10
137.1689259588801
 20
157.34989919476601
 30
0.0
 11
182.8467637183962
 21
157.34989919476601
 31
0.0
  0
LINE
  5
580
  8
0
  6
CENTER
 62
     1
 10
227.8467637183962
 20
143.34989919476601
 30
0.0
 11
127.8467637183962
 21
143.34989919476601
 31
0.0
  0
LINE
  5
581
  8
0
  6
HIDDEN
 62
     2
 10
162.8467637183962
 20
135.84989919476601
 30
0.0
 11
162.8467637183962
 21
143.34989919476601
 31
0.0
  0
LINE
  5
582
  8
0
  6
CONTINUOUS
 62
     7
 10
222.8467637183962
 20
153.8859949167628
 30
0.0
 11
222.8467637183962
 21
132.81380347276931
 31
0.0
  0
LINE
  5
583
  8
0
  6
CONTINUOUS
 62
     7
 10
182.8467637183962
 20
157.34989919476601
 30
0.0
 11
182.8467637183962
 21
129.34989919476601
 31
0.0
  0
LINE
  5
584
  8
0
  6
HIDDEN
 62
     2
 10
222.8467637183962
 20
135.84989919476601
 30
0.0
 11
162.8467637183962
 21
135.84989919476601
 31
0.0
  0
LINE
  5
585
  8
0
  6
CONTINUOUS
 62
     7
 10
222.3841586925171
 20
132.31520381782511
 30
0.0
 11
182.8467637183962
 21
129.34989919476601
 31
0.0
  0
ARC
  5
586
  8
0
  6
CONTINUOUS
 62
     7
 10
222.3467637183962
 20
132.81380347276931
 30
0.0
 40
0.5
 50
274.289153328819
 51
360.0
  0
LINE
  5
587
  8
0
  6
HIDDEN
 62
     2
 10
222.8467637183962
 20
150.8498991947661
 30
0.0
 11
162.8467637183962
 21
150.8498991947661
 31
0.0
  0
LINE
  5
588
  8
0
  6
CONTINUOUS
 62
     7
 10
222.38415869251699
 20
154.384594571707
 30
0.0
 11
182.8467637183962
 21
157.34989919476601
 31
0.0
  0
LINE
  5
589
  8
0
  6
HIDDEN
 62
     2
 10
162.8467637183962
 20
150.8498991947661
 30
0.0
 11
162.8467637183962
 21
143.34989919476601
 31
0.0
  0
LINE
  5
58A
  8
0
  6
HIDDEN
 62
     2
 10
140.7504111818873
 20
138.60732212857539
 30
0.0
 11
140.7504111818873
 21
143.34989919476601
 31
0.0
  0
ARC
  5
58B
  8
0
  6
CONTINUOUS
 62
     7
 10
167.01343038506329
 20
143.34989919476601
 30
0.0
 40
34.166666666666991
 50
158.0957259388689
 51
201.90427406113119
  0
LINE
  5
58C
  8
0
  6
CONTINUOUS
 62
     7
 10
137.1689259588801
 20
156.34989919476601
 30
0.0
 11
137.1689259588801
 21
130.34989919476601
 31
0.0
  0
ARC
  5
58D
  8
0
  6
CONTINUOUS
 62
     7
 10
137.16892595888021
 20
131.34989919476601
 30
0.0
 40
2.0
 50
201.90427406113139
 51
270.0
  0
LINE
  5
58E
  8
0
  6
HIDDEN
 62
     2
 10
140.7504111818873
 20
148.09247626095669
 30
0.0
 11
140.7504111818873
 21
143.34989919476601
 31
0.0
  0
ARC
  5
58F
  8
0
  6
CONTINUOUS
 62
     7
 10
137.1689259588801
 20
155.34989919476601
 30
0.0
 40
2.0
 50
90.0
 51
158.09572593886881
  0
CIRCLE
  5
590
  8
0
  6
CONTINUOUS
 62
     7
 10
271.54938160082082
 20
143.34989919476601
 30
0.0
 40
14.0
  0
LINE
  5
591
  8
0
  6
CENTER
 62
     1
 10
271.54938160082082
 20
124.349899194766
 30
0.0
 11
271.54938160082082
 21
162.3498991947661
 31
0.0
  0
LINE
  5
592
  8
0
  6
CENTER
 62
     1
 10
252.54938160082079
 20
143.34989919476601
 30
0.0
 11
290.54938160082082
 21
143.34989919476601
 31
0.0
  0
ARC
  5
595
  8
0
  6
CONTINUOUS
 62
     7
 10
222.3467637183962
 20
153.8859949167628
 30
0.0
 40
0.5
 50
0.0
 51
85.710846671180946
  0
CIRCLE
  5
598
  8
0
  6
CONTINUOUS
 62
     7
 10
271.54938160082082
 20
143.34989919476601
 30
0.0
 40
11.000000000000011
  0
CIRCLE
  5
599
  8
0
  6
CONTINUOUS
 62
     7
 10
271.54938160082082
 20
143.34989919476601
 30
0.0
 40
7.5
  0
CIRCLE
  5
59A
  8
0
  6
CONTINUOUS
 62
     7
 10
271.54938160082082
 20
143.34989919476601
 30
0.0
 40
4.742577066190619
  0
CIRCLE
  5
5B8
  8
0
  6
CONTINUOUS
 62
     7
 10
75.764503596175132
 20
143.34989919476601
 30
0.0
 40
14.0
  0
LINE
  5
5B9
  8
0
  6
CENTER
 62
     1
 10
75.764503596175132
 20
124.349899194766
 30
0.0
 11
75.764503596175132
 21
162.3498991947661
 31
0.0
  0
LINE
  5
5BA
  8
0
  6
CENTER
 62
     1
 10
56.764503596175132
 20
143.34989919476601
 30
0.0
 11
94.764503596175146
 21
143.34989919476601
 31
0.0
  0
TEXT
  5
795
  8
0
 62
     3
 10
0.0
 20
0.0
 30
0.0
 40
10.0
  1
PG90N-15
  7
STANDARD1
  0
ENDSEC
  0
EOF
