  0
SECTION
  2
HEADER
  9
$ACADVER
  1
AC1009
  9
$INSBASE
 10
0.0
 20
0.0
 30
0.0
  9
$EXTMIN
 10
0.0
 20
-2.960436562073669
 30
0.0
  9
$EXTMAX
 10
284.0
 20
199.0954873683375
 30
0.0
  9
$LIMMIN
 10
0.0
 20
0.0
  9
$LIMMAX
 10
375.0
 20
270.0
  9
$ORTHOMODE
 70
     1
  9
$REGENMODE
 70
     1
  9
$FILLMODE
 70
     1
  9
$QTEXTMODE
 70
     0
  9
$MIRRTEXT
 70
     0
  9
$DRAGMODE
 70
     2
  9
$LTSCALE
 40
10.0
  9
$OSMODE
 70
  3071
  9
$ATTMODE
 70
     1
  9
$TEXTSIZE
 40
4.000000000000048
  9
$TRACEWID
 40
0.05
  9
$TEXTSTYLE
  7
STANDARD
  9
$CLAYER
  8
0
  9
$CELTYPE
  6
BYLAYER
  9
$CECOLOR
 62
   256
  9
$DIMSCALE
 40
1.0
  9
$DIMASZ
 40
3.0
  9
$DIMEXO
 40
2.0
  9
$DIMDLI
 40
0.38
  9
$DIMRND
 40
0.0
  9
$DIMDLE
 40
0.0
  9
$DIMEXE
 40
2.0
  9
$DIMTP
 40
0.0
  9
$DIMTM
 40
0.0
  9
$DIMTXT
 40
3.2000000000000002
  9
$DIMCEN
 40
0.0
  9
$DIMTSZ
 40
0.0
  9
$DIMTOL
 70
     0
  9
$DIMLIM
 70
     0
  9
$DIMTIH
 70
     0
  9
$DIMTOH
 70
     0
  9
$DIMSE1
 70
     0
  9
$DIMSE2
 70
     0
  9
$DIMTAD
 70
     1
  9
$DIMZIN
 70
     0
  9
$DIMBLK
  1

  9
$DIMASO
 70
     1
  9
$DIMSHO
 70
     0
  9
$DIMPOST
  1

  9
$DIMAPOST
  1

  9
$DIMALT
 70
     0
  9
$DIMALTD
 70
     2
  9
$DIMALTF
 40
25.399999999999999
  9
$DIMLFAC
 40
1.0
  9
$DIMTOFL
 70
     1
  9
$DIMTVP
 40
1.6000000000000001
  9
$DIMTIX
 70
     1
  9
$DIMSOXD
 70
     0
  9
$DIMSAH
 70
     0
  9
$DIMBLK1
  1

  9
$DIMBLK2
  1

  9
$DIMSTYLE
  2
STANDARD
  9
$DIMCLRD
 70
     0
  9
$DIMCLRE
 70
     0
  9
$DIMCLRT
 70
     0
  9
$DIMTFAC
 40
1.0
  9
$DIMGAP
 40
0.09
  9
$LUNITS
 70
     2
  9
$LUPREC
 70
     4
  9
$SKETCHINC
 40
0.1
  9
$FILLETRAD
 40
0.5
  9
$AUNITS
 70
     0
  9
$AUPREC
 70
     4
  9
$MENU
  1
E:\r13\win\SUPPORT\ACAD
  9
$ELEVATION
 40
0.0
  9
$PELEVATION
 40
0.0
  9
$THICKNESS
 40
0.0
  9
$LIMCHECK
 70
     0
  9
$BLIPMODE
 70
     0
  9
$CHAMFERA
 40
0.0
  9
$CHAMFERB
 40
0.0
  9
$SKPOLY
 70
     0
  9
$TDCREATE
 40
2449839.7820138889
  9
$TDUPDATE
 40
2456597.718644653
  9
$TDINDWG
 40
0.0509407292
  9
$TDUSRTIMER
 40
0.0509407292
  9
$USRTIMER
 70
     1
  9
$ANGBASE
 50
0.0
  9
$ANGDIR
 70
     0
  9
$PDMODE
 70
     0
  9
$PDSIZE
 40
0.0
  9
$PLINEWID
 40
0.0
  9
$COORDS
 70
     1
  9
$SPLFRAME
 70
     0
  9
$SPLINETYPE
 70
     6
  9
$SPLINESEGS
 70
     8
  9
$ATTDIA
 70
     0
  9
$ATTREQ
 70
     1
  9
$HANDLING
 70
     1
  9
$HANDSEED
  5
4E4
  9
$SURFTAB1
 70
     6
  9
$SURFTAB2
 70
     6
  9
$SURFTYPE
 70
     6
  9
$SURFU
 70
     6
  9
$SURFV
 70
     6
  9
$UCSNAME
  2

  9
$UCSORG
 10
0.0
 20
0.0
 30
0.0
  9
$UCSXDIR
 10
1.0
 20
0.0
 30
0.0
  9
$UCSYDIR
 10
0.0
 20
1.0
 30
0.0
  9
$PUCSNAME
  2

  9
$PUCSORG
 10
0.0
 20
0.0
 30
0.0
  9
$PUCSXDIR
 10
1.0
 20
0.0
 30
0.0
  9
$PUCSYDIR
 10
0.0
 20
1.0
 30
0.0
  9
$USERI1
 70
     0
  9
$USERI2
 70
     1
  9
$USERI3
 70
     1
  9
$USERI4
 70
     0
  9
$USERI5
 70
     0
  9
$USERR1
 40
0.0
  9
$USERR2
 40
0.0
  9
$USERR3
 40
0.0
  9
$USERR4
 40
0.0
  9
$USERR5
 40
0.0
  9
$WORLDVIEW
 70
     1
  9
$SHADEDGE
 70
     3
  9
$SHADEDIF
 70
    70
  9
$TILEMODE
 70
     1
  9
$MAXACTVP
 70
    16
  9
$PLIMCHECK
 70
     0
  9
$PEXTMIN
 10
1.0000000000000000E+020
 20
1.0000000000000000E+020
 30
1.0000000000000000E+020
  9
$PEXTMAX
 10
-1.0000000000000000E+020
 20
-1.0000000000000000E+020
 30
-1.0000000000000000E+020
  9
$PLIMMIN
 10
0.0
 20
0.0
  9
$PLIMMAX
 10
12.0
 20
9.0
  9
$UNITMODE
 70
     0
  9
$VISRETAIN
 70
     0
  9
$PLINEGEN
 70
     0
  9
$PSLTSCALE
 70
     0
  0
ENDSEC
  0
SECTION
  2
TABLES
  0
TABLE
  2
VPORT
 70
     1
  0
VPORT
  2
*ACTIVE
 70
     0
 10
0.0
 20
0.0
 11
1.0
 21
1.0
 12
187.49427839065231
 22
134.10366293909439
 13
0.0
 23
0.0
 14
10.0
 24
10.0
 15
10.0
 25
10.0
 16
0.0
 26
0.0
 36
1.0
 17
0.0
 27
0.0
 37
0.0
 40
277.29405978699532
 41
2.304913294797688
 42
50.0
 43
0.0
 44
0.0
 50
0.0
 51
0.0
 71
     0
 72
   500
 73
     1
 74
     0
 75
     0
 76
     0
 77
     0
 78
     2
  0
ENDTAB
  0
TABLE
  2
LTYPE
 70
     3
  0
LTYPE
  2
CONTINUOUS
 70
     0
  3
Solid Line
 72
    65
 73
     0
 40
0.0
  0
LTYPE
  2
CENTER
 70
     0
  3
____ _ ____ _ ____ _ ____ _ ____ _ ____ _ ____
 72
    65
 73
     4
 40
2.0
 49
1.25
 49
-0.25
 49
0.25
 49
-0.25
  0
LTYPE
  2
PHANTOM2
 70
     0
  3
___ _ _ ___ _ _ ___ _ _ ___ _ _
 72
    65
 73
     6
 40
1.25
 49
0.625
 49
-0.125
 49
0.125
 49
-0.125
 49
0.125
 49
-0.125
  0
ENDTAB
  0
TABLE
  2
LAYER
 70
     2
  0
LAYER
  2
0
 70
     0
 62
     7
  6
CONTINUOUS
  0
LAYER
  2
1
 70
     0
 62
     1
  6
CENTER
  0
ENDTAB
  0
TABLE
  2
STYLE
 70
     2
  0
STYLE
  2
STANDARD
 70
     0
 40
0.0
 41
1.0
 50
0.0
 71
     0
 42
4.000000000000048
  3
TXT
  4
BIGFONT
  0
STYLE
  2
STANDARD1
 70
     0
 40
0.0
 41
1.0
 50
0.0
 71
     0
 42
3.0
  3
txt
  4

  0
ENDTAB
  0
TABLE
  2
VIEW
 70
     1
  0
VIEW
  2
ALL
 70
     0
 40
270.0
 10
220.99159663865549
 20
135.0
 41
0.0
 11
0.0
 21
0.0
 31
1.0
 12
0.0
 22
0.0
 32
0.0
 42
0.0
 43
0.0
 44
0.0
 50
0.0
 71
     0
  0
ENDTAB
  0
TABLE
  2
UCS
 70
     0
  0
ENDTAB
  0
TABLE
  2
APPID
 70
     4
  0
APPID
  2
ACAD
 70
     0
  0
APPID
  2
ACAD_MLEADERVER
 70
     0
  0
APPID
  2
ACAD_EXEMPT_FROM_CAD_STANDARDS
 70
     0
  0
APPID
  2
ACAD_NAV_VCDISPLAY
 70
     0
  0
ENDTAB
  0
TABLE
  2
DIMSTYLE
 70
     1
  0
DIMSTYLE
  2
STANDARD
 70
     0
  3

  4

  5

  6

  7

 40
1.0
 41
0.18
 42
0.0625
 43
0.38
 44
0.18
 45
0.0
 46
0.0
 47
0.0
 48
0.0
140
0.18
141
0.09
142
0.0
143
25.399999999999999
144
1.0
145
0.0
146
1.0
147
0.09
 71
     0
 72
     0
 73
     1
 74
     1
 75
     0
 76
     0
 77
     0
 78
     0
170
     0
171
     2
172
     0
173
     0
174
     0
175
     0
176
     0
177
     0
178
     0
  0
ENDTAB
  0
ENDSEC
  0
SECTION
  2
BLOCKS
  0
BLOCK
  8
0
  2
$MODEL_SPACE
 70
     0
 10
0.0
 20
0.0
 30
0.0
  3
$MODEL_SPACE
  1

  0
ENDBLK
  5
E2
  8
0
  0
BLOCK
 67
     1
  8
0
  2
$PAPER_SPACE
 70
     0
 10
0.0
 20
0.0
 30
0.0
  3
$PAPER_SPACE
  1

  0
ENDBLK
  5
E0
 67
     1
  8
0
  0
ENDSEC
  0
SECTION
  2
ENTITIES
  0
LINE
  5
43
  8
0
 10
169.0094747296597
 20
123.0533123143927
 30
0.0
 11
169.0094747296597
 21
137.13766242228229
 31
0.0
  0
LINE
  5
44
  8
0
 10
186.00947472965979
 20
139.0954873683375
 30
0.0
 11
206.03001112025311
 21
139.0954873683375
 31
0.0
  0
LINE
  5
45
  8
0
 10
206.03001112025319
 20
121.0954873683375
 30
0.0
 11
186.00947472965979
 21
121.0954873683375
 31
0.0
  0
LINE
  5
46
  8
1
 10
164.0094747296597
 20
130.0954873683375
 30
0.0
 11
214.0094747296597
 21
130.0954873683375
 31
0.0
  0
ARC
  5
47
  8
0
 10
187.7594747296599
 20
130.0954873683375
 30
0.0
 40
21.24999999999984
 50
337.68199805282779
 51
22.31800194717227
  0
LINE
  5
48
  8
0
 10
186.0094747296597
 20
121.0954873683375
 30
0.0
 11
186.0094747296597
 21
139.0954873683375
 31
0.0
  0
LINE
  5
49
  8
0
 10
169.46552782451161
 20
137.63572734729499
 30
0.0
 11
186.00947472965979
 21
139.0954873683375
 31
0.0
  0
LINE
  5
4A
  8
0
 10
169.46552782451161
 20
122.55524738938
 30
0.0
 11
186.00947472965979
 21
121.0954873683375
 31
0.0
  0
ARC
  5
4B
  8
0
 10
206.03001112025311
 20
137.5954873683375
 30
0.0
 40
1.5
 50
22.31800194717227
 51
90.0
  0
ARC
  5
4C
  8
0
 10
206.03001112025319
 20
122.5954873683375
 30
0.0
 40
1.5
 50
270.0
 51
337.68199805282791
  0
LINE
  5
59
  8
0
 10
206.03001112025319
 20
122.0954873683375
 30
0.0
 11
206.03001112025311
 21
138.0954873683375
 31
0.0
  0
ARC
  5
5A
  8
0
 10
169.5094747296597
 20
137.13766242228229
 30
0.0
 40
0.5
 50
95.042451069171051
 51
179.99999999999989
  0
ARC
  5
5B
  8
0
 10
169.5094747296597
 20
123.0533123143927
 30
0.0
 40
0.5
 50
180.0
 51
264.95754893082909
  0
CIRCLE
  5
67
  8
0
 10
270.0
 20
130.0
 30
0.0
 40
9.0
  0
LINE
  5
68
  8
1
 10
270.0
 20
144.0
 30
0.0
 11
270.0
 21
116.0
 31
0.0
  0
LINE
  5
69
  8
1
 10
284.0
 20
130.0
 30
0.0
 11
256.0
 21
130.0
 31
0.0
  0
ARC
  5
6A
  8
0
 10
169.5094747296597
 20
183.05331231439271
 30
0.0
 40
0.5
 50
180.0
 51
264.95754893082909
  0
ARC
  5
6B
  8
0
 10
169.5094747296597
 20
197.13766242228229
 30
0.0
 40
0.5
 50
95.042451069171051
 51
179.99999999999989
  0
LINE
  5
6C
  8
0
 10
206.03001112025319
 20
182.0954873683375
 30
0.0
 11
206.03001112025311
 21
198.0954873683375
 31
0.0
  0
ARC
  5
6D
  8
0
 10
206.03001112025319
 20
182.5954873683375
 30
0.0
 40
1.5
 50
270.0
 51
337.68199805282791
  0
ARC
  5
6E
  8
0
 10
206.03001112025311
 20
197.5954873683375
 30
0.0
 40
1.5
 50
22.31800194717227
 51
90.0
  0
LINE
  5
6F
  8
0
 10
169.46552782451161
 20
182.5552473893799
 30
0.0
 11
186.00947472965979
 21
181.0954873683375
 31
0.0
  0
LINE
  5
70
  8
0
 10
169.46552782451161
 20
197.63572734729499
 30
0.0
 11
186.00947472965979
 21
199.0954873683375
 31
0.0
  0
LINE
  5
71
  8
0
 10
186.0094747296597
 20
181.0954873683375
 30
0.0
 11
186.0094747296597
 21
199.0954873683375
 31
0.0
  0
ARC
  5
72
  8
0
 10
187.7594747296599
 20
190.0954873683375
 30
0.0
 40
21.24999999999984
 50
337.68199805282779
 51
22.31800194717227
  0
LINE
  5
73
  8
1
 10
164.0094747296597
 20
190.0954873683375
 30
0.0
 11
214.0094747296597
 21
190.0954873683375
 31
0.0
  0
LINE
  5
74
  8
0
 10
206.03001112025319
 20
181.0954873683375
 30
0.0
 11
186.00947472965979
 21
181.0954873683375
 31
0.0
  0
LINE
  5
75
  8
0
 10
186.00947472965979
 20
199.0954873683375
 30
0.0
 11
206.03001112025311
 21
199.0954873683375
 31
0.0
  0
LINE
  5
76
  8
0
 10
169.0094747296597
 20
183.05331231439271
 30
0.0
 11
169.0094747296597
 21
197.13766242228229
 31
0.0
  0
ARC
  5
77
  8
0
 10
169.5094747296597
 20
63.053312314392677
 30
0.0
 40
0.5
 50
180.0
 51
264.95754893082909
  0
ARC
  5
78
  8
0
 10
169.5094747296597
 20
77.137662422282304
 30
0.0
 40
0.5
 50
95.042451069171051
 51
179.99999999999989
  0
LINE
  5
79
  8
0
 10
206.03001112025319
 20
62.095487368337501
 30
0.0
 11
206.03001112025311
 21
78.095487368337501
 31
0.0
  0
ARC
  5
7A
  8
0
 10
206.03001112025319
 20
62.595487368337501
 30
0.0
 40
1.5
 50
270.0
 51
337.68199805282791
  0
ARC
  5
7B
  8
0
 10
206.03001112025311
 20
77.595487368337501
 30
0.0
 40
1.5
 50
22.31800194717227
 51
90.0
  0
LINE
  5
7C
  8
0
 10
169.46552782451161
 20
62.555247389379993
 30
0.0
 11
186.00947472965979
 21
61.095487368337501
 31
0.0
  0
LINE
  5
7D
  8
0
 10
169.46552782451161
 20
77.635727347295017
 30
0.0
 11
186.00947472965979
 21
79.095487368337501
 31
0.0
  0
LINE
  5
7E
  8
0
 10
186.0094747296597
 20
61.095487368337501
 30
0.0
 11
186.0094747296597
 21
79.095487368337473
 31
0.0
  0
ARC
  5
7F
  8
0
 10
187.7594747296599
 20
70.095487368337501
 30
0.0
 40
21.24999999999984
 50
337.68199805282779
 51
22.31800194717227
  0
LINE
  5
80
  8
1
 10
164.0094747296597
 20
70.095487368337501
 30
0.0
 11
214.0094747296597
 21
70.095487368337501
 31
0.0
  0
LINE
  5
81
  8
0
 10
206.03001112025319
 20
61.095487368337501
 30
0.0
 11
186.00947472965979
 21
61.095487368337501
 31
0.0
  0
LINE
  5
82
  8
0
 10
186.00947472965979
 20
79.095487368337501
 30
0.0
 11
206.03001112025311
 21
79.095487368337501
 31
0.0
  0
LINE
  5
83
  8
0
 10
169.0094747296597
 20
63.053312314392677
 30
0.0
 11
169.0094747296597
 21
77.137662422282304
 31
0.0
  0
ARC
  5
3DF
  8
0
 10
110.4056772084547
 20
130.0954873683375
 30
0.0
 40
3.2000000000000002
 50
126.9159860929006
 51
143.08401390709949
  0
CIRCLE
  5
3E0
  8
0
 10
110.4056772084547
 20
130.0954873683375
 30
0.0
 40
6.813262580917236
  0
CIRCLE
  5
3E1
  8
0
 10
110.4056772084547
 20
130.0954873683375
 30
0.0
 40
7.5603599684362699
  0
ARC
  5
3E2
  8
0
 10
110.4056772084547
 20
130.09548736833739
 30
0.0
 40
4.0000000000000302
 50
128.54055022264509
 51
141.45944977735539
  0
ARC
  5
3E3
  8
0
 10
110.4056772084547
 20
130.0954873683375
 30
0.0
 40
3.999999999999952
 50
173.54055022264421
 51
186.4594497773557
  0
ARC
  5
3E4
  8
0
 10
110.4056772084547
 20
130.0954873683375
 30
0.0
 40
3.9999999999999751
 50
83.540550222645123
 51
96.459449777355772
  0
ARC
  5
3E5
  8
0
 10
110.4056772084547
 20
130.09548736833739
 30
0.0
 40
3.999999999999984
 50
218.5405502226445
 51
231.45944977735479
  0
ARC
  5
3E6
  8
0
 10
110.4056772084547
 20
130.09548736833739
 30
0.0
 40
4.0000000000000364
 50
38.540550222644491
 51
51.459449777354827
  0
ARC
  5
3E7
  8
0
 10
110.4056772084547
 20
130.09548736833739
 30
0.0
 40
3.999999999999948
 50
263.54055022264509
 51
276.45944977735491
  0
ARC
  5
3E8
  8
0
 10
110.4056772084547
 20
130.09548736833739
 30
0.0
 40
3.9999999999999818
 50
353.5405502226443
 51
6.459449777355732
  0
ARC
  5
3E9
  8
0
 10
110.4056772084547
 20
130.0954873683375
 30
0.0
 40
4.0000000000000364
 50
308.54055022264521
 51
321.45944977735542
  0
LINE
  5
3EA
  8
0
 10
107.2374758259665
 20
130.54548736833749
 30
0.0
 11
105.6268175118325
 21
130.54548736833749
 31
0.0
  0
LINE
  5
3EB
  8
0
 10
107.84722247519881
 20
128.1734287381494
 30
0.0
 11
106.7083150591001
 21
127.03452132205069
 31
0.0
  0
LINE
  5
3EC
  8
0
 10
109.9556772084547
 20
126.9272859858493
 30
0.0
 11
109.9556772084547
 21
125.3166276717152
 31
0.0
  0
LINE
  5
3ED
  8
0
 10
112.3277358386427
 20
127.5370326350815
 30
0.0
 11
113.4666432547414
 21
126.3981252189829
 31
0.0
  0
LINE
  5
3EE
  8
0
 10
113.5738785909429
 20
129.64548736833751
 30
0.0
 11
115.1845369050769
 21
129.64548736833751
 31
0.0
  0
LINE
  5
3EF
  8
0
 10
112.9641319417107
 20
132.01754599852549
 30
0.0
 11
114.10303935780929
 21
133.1564534146242
 31
0.0
  0
LINE
  5
3F0
  8
0
 10
110.85567720845469
 20
133.26368875082571
 30
0.0
 11
110.85567720845469
 21
134.87434706495969
 31
0.0
  0
LINE
  5
3F1
  8
0
 10
108.4836185782667
 20
132.6539421015934
 30
0.0
 11
107.344711162168
 21
133.7928495176921
 31
0.0
  0
LINE
  5
3F2
  8
0
 10
105.6268175118325
 20
129.64548736833751
 30
0.0
 11
107.2374758259665
 21
129.64548736833751
 31
0.0
  0
LINE
  5
3F3
  8
0
 10
107.344711162168
 20
126.3981252189829
 30
0.0
 11
108.4836185782667
 21
127.5370326350815
 31
0.0
  0
LINE
  5
3F4
  8
0
 10
110.85567720845469
 20
125.3166276717152
 30
0.0
 11
110.85567720845469
 21
126.9272859858493
 31
0.0
  0
LINE
  5
3F5
  8
0
 10
114.10303935780929
 20
127.03452132205079
 30
0.0
 11
112.9641319417107
 21
128.1734287381494
 31
0.0
  0
LINE
  5
3F6
  8
0
 10
115.1845369050769
 20
130.54548736833749
 30
0.0
 11
113.5738785909429
 21
130.54548736833749
 31
0.0
  0
LINE
  5
3F7
  8
0
 10
113.4666432547414
 20
133.7928495176921
 30
0.0
 11
112.3277358386427
 21
132.6539421015934
 31
0.0
  0
LINE
  5
3F8
  8
0
 10
109.9556772084547
 20
134.87434706495969
 30
0.0
 11
109.9556772084547
 21
133.26368875082571
 31
0.0
  0
LINE
  5
3F9
  8
0
 10
106.7083150591001
 20
133.1564534146242
 30
0.0
 11
107.84722247519881
 21
132.01754599852549
 31
0.0
  0
CIRCLE
  5
3FA
  8
0
 10
110.4056772084548
 20
130.09548736833739
 30
0.0
 40
4.7999999999998693
  0
LINE
  5
3FB
  8
1
 10
97.828460870463374
 20
130.0954873683375
 30
0.0
 11
122.98289354644611
 21
130.0954873683375
 31
0.0
  0
LINE
  5
3FC
  8
1
 10
110.4056772084547
 20
117.5182710303461
 30
0.0
 11
110.4056772084547
 21
142.67270370632889
 31
0.0
  0
CIRCLE
  5
3FD
  8
0
 10
110.4056772084547
 20
130.0954873683375
 30
0.0
 40
9.0
  0
ARC
  5
412
  8
0
 10
110.4056772084547
 20
130.0954873683375
 30
0.0
 40
3.2000000000000002
 50
216.91598609290051
 51
233.0840139070996
  0
ARC
  5
414
  8
0
 10
110.4056772084547
 20
130.0954873683375
 30
0.0
 40
3.2000000000000002
 50
261.91598609290043
 51
278.08401390709957
  0
ARC
  5
415
  8
0
 10
110.4056772084547
 20
130.0954873683375
 30
0.0
 40
3.2000000000000002
 50
306.91598609290031
 51
323.08401390709912
  0
ARC
  5
416
  8
0
 10
110.4056772084547
 20
130.0954873683375
 30
0.0
 40
3.2000000000000002
 50
351.91598609290031
 51
8.0840139070993065
  0
ARC
  5
417
  8
0
 10
110.4056772084547
 20
130.0954873683375
 30
0.0
 40
3.2000000000000002
 50
36.915986092900432
 51
53.084013907099418
  0
ARC
  5
418
  8
0
 10
110.4056772084547
 20
130.0954873683375
 30
0.0
 40
3.2000000000000002
 50
81.915986092900638
 51
98.084013907099333
  0
ARC
  5
419
  8
0
 10
110.4056772084547
 20
130.0954873683375
 30
0.0
 40
3.2000000000000002
 50
171.9159860929031
 51
188.08401390710219
  0
TEXT
  5
47E
  8
0
 62
     3
 10
0.0
 20
0.0
 30
0.0
 40
10.0
  1
PG40N
  7
STANDARD1
  0
ENDSEC
  0
EOF
