  0
SECTION
  2
HEADER
  9
$ACADVER
  1
AC1009
  9
$INSBASE
 10
0.0
 20
0.0
 30
0.0
  9
$EXTMIN
 10
0.0
 20
-2.960436562073669
 30
0.0
  9
$EXTMAX
 10
350.32564694803028
 20
232.81804556354891
 30
0.0
  9
$LIMMIN
 10
0.0
 20
0.0
  9
$LIMMAX
 10
375.0
 20
270.0
  9
$ORTHOMODE
 70
     1
  9
$REGENMODE
 70
     1
  9
$FILLMODE
 70
     1
  9
$QTEXTMODE
 70
     0
  9
$MIRRTEXT
 70
     0
  9
$DRAGMODE
 70
     2
  9
$LTSCALE
 40
10.0
  9
$OSMODE
 70
   743
  9
$ATTMODE
 70
     1
  9
$TEXTSIZE
 40
0.2
  9
$TRACEWID
 40
0.05
  9
$TEXTSTYLE
  7
STANDARD
  9
$CLAYER
  8
0
  9
$CELTYPE
  6
BYLAYER
  9
$CECOLOR
 62
   256
  9
$DIMSCALE
 40
1.0
  9
$DIMASZ
 40
3.0
  9
$DIMEXO
 40
2.0
  9
$DIMDLI
 40
0.38
  9
$DIMRND
 40
0.0
  9
$DIMDLE
 40
0.0
  9
$DIMEXE
 40
2.0
  9
$DIMTP
 40
0.0
  9
$DIMTM
 40
0.0
  9
$DIMTXT
 40
3.2000000000000002
  9
$DIMCEN
 40
0.0
  9
$DIMTSZ
 40
0.0
  9
$DIMTOL
 70
     0
  9
$DIMLIM
 70
     0
  9
$DIMTIH
 70
     0
  9
$DIMTOH
 70
     0
  9
$DIMSE1
 70
     0
  9
$DIMSE2
 70
     0
  9
$DIMTAD
 70
     1
  9
$DIMZIN
 70
     0
  9
$DIMBLK
  1

  9
$DIMASO
 70
     1
  9
$DIMSHO
 70
     0
  9
$DIMPOST
  1

  9
$DIMAPOST
  1

  9
$DIMALT
 70
     0
  9
$DIMALTD
 70
     2
  9
$DIMALTF
 40
25.399999999999999
  9
$DIMLFAC
 40
1.0
  9
$DIMTOFL
 70
     1
  9
$DIMTVP
 40
1.6000000000000001
  9
$DIMTIX
 70
     1
  9
$DIMSOXD
 70
     0
  9
$DIMSAH
 70
     0
  9
$DIMBLK1
  1

  9
$DIMBLK2
  1

  9
$DIMSTYLE
  2
STANDARD
  9
$DIMCLRD
 70
     0
  9
$DIMCLRE
 70
     0
  9
$DIMCLRT
 70
     0
  9
$DIMTFAC
 40
1.0
  9
$DIMGAP
 40
0.09
  9
$LUNITS
 70
     2
  9
$LUPREC
 70
     4
  9
$SKETCHINC
 40
0.1
  9
$FILLETRAD
 40
0.0
  9
$AUNITS
 70
     0
  9
$AUPREC
 70
     4
  9
$MENU
  1
E:\r13\win\SUPPORT\ACAD
  9
$ELEVATION
 40
0.0
  9
$PELEVATION
 40
0.0
  9
$THICKNESS
 40
0.0
  9
$LIMCHECK
 70
     0
  9
$BLIPMODE
 70
     0
  9
$CHAMFERA
 40
0.0
  9
$CHAMFERB
 40
0.0
  9
$SKPOLY
 70
     0
  9
$TDCREATE
 40
2449839.7960995371
  9
$TDUPDATE
 40
2458131.7252781829
  9
$TDINDWG
 40
0.0582156366
  9
$TDUSRTIMER
 40
0.0582156366
  9
$USRTIMER
 70
     1
  9
$ANGBASE
 50
0.0
  9
$ANGDIR
 70
     0
  9
$PDMODE
 70
     0
  9
$PDSIZE
 40
0.0
  9
$PLINEWID
 40
0.0
  9
$COORDS
 70
     1
  9
$SPLFRAME
 70
     0
  9
$SPLINETYPE
 70
     6
  9
$SPLINESEGS
 70
     8
  9
$ATTDIA
 70
     0
  9
$ATTREQ
 70
     1
  9
$HANDLING
 70
     1
  9
$HANDSEED
  5
6DF
  9
$SURFTAB1
 70
     6
  9
$SURFTAB2
 70
     6
  9
$SURFTYPE
 70
     6
  9
$SURFU
 70
     6
  9
$SURFV
 70
     6
  9
$UCSNAME
  2

  9
$UCSORG
 10
0.0
 20
0.0
 30
0.0
  9
$UCSXDIR
 10
1.0
 20
0.0
 30
0.0
  9
$UCSYDIR
 10
0.0
 20
1.0
 30
0.0
  9
$PUCSNAME
  2

  9
$PUCSORG
 10
0.0
 20
0.0
 30
0.0
  9
$PUCSXDIR
 10
1.0
 20
0.0
 30
0.0
  9
$PUCSYDIR
 10
0.0
 20
1.0
 30
0.0
  9
$USERI1
 70
     0
  9
$USERI2
 70
     1
  9
$USERI3
 70
     1
  9
$USERI4
 70
     0
  9
$USERI5
 70
     0
  9
$USERR1
 40
0.0
  9
$USERR2
 40
0.0
  9
$USERR3
 40
0.0
  9
$USERR4
 40
0.0
  9
$USERR5
 40
0.0
  9
$WORLDVIEW
 70
     1
  9
$SHADEDGE
 70
     3
  9
$SHADEDIF
 70
    70
  9
$TILEMODE
 70
     1
  9
$MAXACTVP
 70
    16
  9
$PLIMCHECK
 70
     0
  9
$PEXTMIN
 10
1.0000000000000000E+020
 20
1.0000000000000000E+020
 30
1.0000000000000000E+020
  9
$PEXTMAX
 10
-1.0000000000000000E+020
 20
-1.0000000000000000E+020
 30
-1.0000000000000000E+020
  9
$PLIMMIN
 10
0.0
 20
0.0
  9
$PLIMMAX
 10
12.0
 20
9.0
  9
$UNITMODE
 70
     0
  9
$VISRETAIN
 70
     0
  9
$PLINEGEN
 70
     0
  9
$PSLTSCALE
 70
     0
  0
ENDSEC
  0
SECTION
  2
TABLES
  0
TABLE
  2
VPORT
 70
     4
  0
VPORT
  2
*ACTIVE
 70
     0
 10
0.0
 20
0.0
 11
1.0
 21
1.0
 12
251.26009649116131
 22
133.51897435202409
 13
0.0
 23
0.0
 14
1.5
 24
1.5
 15
10.0
 25
10.0
 16
0.0
 26
0.0
 36
1.0
 17
0.0
 27
0.0
 37
0.0
 40
275.54528837446242
 41
2.5860979462875191
 42
50.0
 43
0.0
 44
0.0
 50
0.0
 51
0.0
 71
     0
 72
   500
 73
     1
 74
     0
 75
     0
 76
     0
 77
     0
 78
     2
  0
ENDTAB
  0
TABLE
  2
LTYPE
 70
     4
  0
LTYPE
  2
CONTINUOUS
 70
     0
  3
Solid Line
 72
    65
 73
     0
 40
0.0
  0
LTYPE
  2
CENTER
 70
     0
  3
____ _ ____ _ ____ _ ____ _ ____ _ ____ _ ____
 72
    65
 73
     4
 40
2.0
 49
1.25
 49
-0.25
 49
0.25
 49
-0.25
  0
LTYPE
  2
PHANTOM
 70
     0
  3
_____ _ _ _____ _ _ _____ _ _ _____ _ _ ____
 72
    65
 73
     6
 40
2.5
 49
1.25
 49
-0.25
 49
0.25
 49
-0.25
 49
0.25
 49
-0.25
  0
LTYPE
  2
HIDDEN
 70
     0
  3
_ _ _ _ _ _ _ _ _ _ _ _ _ _ _ _ _ _ _ _ _ _ _
 72
    65
 73
     2
 40
0.375
 49
0.25
 49
-0.125
  0
ENDTAB
  0
TABLE
  2
LAYER
 70
     5
  0
LAYER
  2
0
 70
     0
 62
     7
  6
CONTINUOUS
  0
LAYER
  2
1
 70
     0
 62
     1
  6
CENTER
  0
LAYER
  2
3
 70
     0
 62
     3
  6
CONTINUOUS
  0
LAYER
  2
5
 70
     0
 62
     3
  6
PHANTOM
  0
LAYER
  2
2
 70
     0
 62
     2
  6
HIDDEN
  0
ENDTAB
  0
TABLE
  2
STYLE
 70
     3
  0
STYLE
  2
STANDARD
 70
     0
 40
0.0
 41
1.0
 50
0.0
 71
     0
 42
0.2
  3
TXT
  4
BIGFONT
  0
STYLE
  2
SIM070
 70
     0
 40
0.0
 41
0.7
 50
0.0
 71
     0
 42
3.5
  3
SIMPLEX
  4

  0
STYLE
  2
STANDARD1
 70
     0
 40
0.0
 41
1.0
 50
0.0
 71
     0
 42
3.0
  3
txt
  4

  0
ENDTAB
  0
TABLE
  2
VIEW
 70
     1
  0
VIEW
  2
ALL
 70
     0
 40
270.0
 10
220.99159663865549
 20
135.0
 41
0.0
 11
0.0
 21
0.0
 31
1.0
 12
0.0
 22
0.0
 32
0.0
 42
0.0
 43
0.0
 44
0.0
 50
0.0
 71
     0
  0
ENDTAB
  0
TABLE
  2
UCS
 70
     0
  0
ENDTAB
  0
TABLE
  2
APPID
 70
     2
  0
APPID
  2
ACAD
 70
     0
  0
APPID
  2
ACAD_MLEADERVER
 70
     0
  0
ENDTAB
  0
TABLE
  2
DIMSTYLE
 70
     1
  0
DIMSTYLE
  2
STANDARD
 70
     0
  3

  4

  5

  6

  7

 40
1.0
 41
0.18
 42
0.0625
 43
0.38
 44
0.18
 45
0.0
 46
0.0
 47
0.0
 48
0.0
140
0.18
141
0.09
142
0.0
143
25.399999999999999
144
1.0
145
0.0
146
1.0
147
0.09
 71
     0
 72
     0
 73
     1
 74
     1
 75
     0
 76
     0
 77
     0
 78
     0
170
     0
171
     2
172
     0
173
     0
174
     0
175
     0
176
     0
177
     0
178
     0
  0
ENDTAB
  0
ENDSEC
  0
SECTION
  2
BLOCKS
  0
BLOCK
  8
0
  2
$MODEL_SPACE
 70
     0
 10
0.0
 20
0.0
 30
0.0
  3
$MODEL_SPACE
  1

  0
ENDBLK
  5
1FA
  8
0
  0
BLOCK
 67
     1
  8
0
  2
$PAPER_SPACE
 70
     0
 10
0.0
 20
0.0
 30
0.0
  3
$PAPER_SPACE
  1

  0
ENDBLK
  5
1F8
 67
     1
  8
0
  0
ENDSEC
  0
SECTION
  2
ENTITIES
  0
LINE
  5
38
  8
0
 10
151.41678838556291
 20
144.42775779376501
 30
0.0
 11
136.41678838556291
 21
144.42775779376501
 31
0.0
  0
LINE
  5
39
  8
0
 10
152.41678838556291
 20
143.42775779376501
 30
0.0
 11
151.41678838556291
 21
144.42775779376501
 31
0.0
  0
LINE
  5
3A
  8
0
 10
135.41678838556291
 20
143.42775779376501
 30
0.0
 11
136.41678838556291
 21
144.42775779376501
 31
0.0
  0
LINE
  5
3B
  8
0
 10
118.9167883855628
 20
143.42775779376501
 30
0.0
 11
118.9167883855628
 21
103.427757793765
 31
0.0
  0
LINE
  5
46
  8
0
 10
152.41678838556319
 20
103.427757793765
 30
0.0
 11
152.41678838556291
 21
143.42775779376501
 31
0.0
  0
LINE
  5
4B
  8
1
 10
143.9167883855628
 20
98.427757793765068
 30
0.0
 11
143.9167883855628
 21
149.4277577937651
 31
0.0
  0
LINE
  5
4C
  8
0
 10
152.41678838556311
 20
143.4277577937647
 30
0.0
 11
118.9167883855628
 21
143.42775779376501
 31
0.0
  0
LINE
  5
4D
  8
0
 10
208.93227405245369
 20
142.42775779376501
 30
0.0
 11
224.30613759488639
 21
142.42775779376501
 31
0.0
  0
LINE
  5
4E
  8
0
 10
224.30613759488759
 20
140.92775779376689
 30
0.0
 11
224.30613759488759
 21
143.42775779376501
 31
0.0
  0
LINE
  5
4F
  8
0
 10
213.93227405245369
 20
140.92775779376689
 30
0.0
 11
224.30613759488759
 21
140.92775779376689
 31
0.0
  0
LINE
  5
50
  8
0
 10
208.93227405245349
 20
143.4277577937647
 30
0.0
 11
242.43227405245381
 21
143.42775779376501
 31
0.0
  0
LINE
  5
51
  8
1
 10
217.43227405245381
 20
98.427757793765068
 30
0.0
 11
217.43227405245381
 21
149.42775779376501
 31
0.0
  0
LINE
  5
54
  8
0
 10
208.93227405245349
 20
103.427757793765
 30
0.0
 11
208.93227405245369
 21
143.42775779376501
 31
0.0
  0
LINE
  5
5D
  8
0
 10
242.43227405245381
 20
143.42775779376501
 30
0.0
 11
242.43227405245381
 21
103.427757793765
 31
0.0
  0
LINE
  5
5E
  8
1
 10
180.67453121900829
 20
98.427757793765053
 30
0.0
 11
180.67453121900829
 21
174.42775779376501
 31
0.0
  0
LINE
  5
68
  8
0
 10
172.17453121900829
 20
142.42775779376501
 30
0.0
 11
189.17453121900829
 21
142.42775779376501
 31
0.0
  0
LINE
  5
69
  8
0
 10
172.17453121900829
 20
117.4277577937651
 30
0.0
 11
172.17453121900829
 21
143.42775779376501
 31
0.0
  0
LINE
  5
6D
  8
0
 10
189.17453121900829
 20
143.42775779376501
 30
0.0
 11
189.17453121900829
 21
142.42775779376501
 31
0.0
  0
LINE
  5
6E
  8
0
 10
188.42049791142321
 20
140.92775779376689
 30
0.0
 11
189.17453121900829
 21
140.92775779376689
 31
0.0
  0
LINE
  5
6F
  8
0
 10
188.42049791142321
 20
142.42775779376501
 30
0.0
 11
188.42049791142321
 21
140.92775779376689
 31
0.0
  0
LINE
  5
70
  8
0
 10
189.17453121900829
 20
143.42775779376501
 30
0.0
 11
172.17453121900829
 21
143.42775779376501
 31
0.0
  0
LINE
  5
71
  8
0
 10
225.93227405245381
 20
143.42775779376501
 30
0.0
 11
224.93227405245381
 21
144.42775779376501
 31
0.0
  0
LINE
  5
72
  8
0
 10
208.93227405245369
 20
143.42775779376501
 30
0.0
 11
209.93227405245381
 21
144.42775779376501
 31
0.0
  0
LINE
  5
73
  8
0
 10
209.93227405245381
 20
144.42775779376501
 30
0.0
 11
224.93227405245381
 21
144.42775779376501
 31
0.0
  0
LINE
  5
76
  8
5
 10
175.67453121900829
 20
144.42775779376501
 30
0.0
 11
176.4585406383228
 21
147.56379547102031
 31
0.0
  0
LINE
  5
78
  8
5
 10
185.67453121900829
 20
144.42775779376501
 30
0.0
 11
184.8905217996938
 21
147.56379547102031
 31
0.0
  0
LINE
  5
7A
  8
0
 10
173.17453121900829
 20
144.42775779376501
 30
0.0
 11
188.17453121900829
 21
144.42775779376501
 31
0.0
  0
LINE
  5
7B
  8
0
 10
172.17453121900829
 20
143.42775779376501
 30
0.0
 11
173.17453121900829
 21
144.42775779376501
 31
0.0
  0
LINE
  5
7C
  8
0
 10
189.17453121900829
 20
143.42775779376501
 30
0.0
 11
188.17453121900829
 21
144.42775779376501
 31
0.0
  0
LINE
  5
7D
  8
0
 10
175.67453121900829
 20
222.81804556354919
 30
0.0
 11
175.67453121900829
 21
209.691909105983
 31
0.0
  0
LINE
  5
7E
  8
0
 10
185.67453121900829
 20
222.81804556354919
 30
0.0
 11
185.67453121900829
 21
209.691909105983
 31
0.0
  0
ARC
  5
7F
  8
0
 10
180.67453121900829
 20
222.81804556354919
 30
0.0
 40
5.0
 50
0.0
 51
180.0
  0
CIRCLE
  5
80
  8
0
 10
180.67453121900829
 20
202.81804556354919
 30
0.0
 40
7.5
  0
CIRCLE
  5
81
  8
0
 10
180.67453121900829
 20
202.81804556354919
 30
0.0
 40
8.5
  0
LINE
  5
88
  8
0
 10
137.0429248431285
 20
143.4277577937649
 30
0.0
 11
137.0429248431285
 21
103.4277577937651
 31
0.0
  0
LINE
  5
8A
  8
0
 10
224.30613759488639
 20
143.4277577937649
 30
0.0
 11
224.30613759488639
 21
103.427757793765
 31
0.0
  0
LINE
  5
8C
  8
0
 10
181.67453121900829
 20
200.568045734055
 30
0.0
 11
179.67453121900829
 21
200.568045734055
 31
0.0
  0
LINE
  5
8D
  8
0
 10
180.67453121900829
 20
207.068045734055
 30
0.0
 11
180.67453121900829
 21
205.068045734055
 31
0.0
  0
LINE
  5
8E
  8
0
 10
180.67453121900829
 20
207.068045734055
 30
0.0
 11
179.67453121900829
 21
207.068045734055
 31
0.0
  0
LINE
  5
8F
  8
0
 10
181.67453121900829
 20
205.068045734055
 30
0.0
 11
180.67453121900829
 21
205.068045734055
 31
0.0
  0
LINE
  5
90
  8
0
 10
179.6745312190082
 20
201.818045734055
 30
0.0
 11
180.6745312190082
 21
201.818045734055
 31
0.0
  0
LINE
  5
91
  8
0
 10
180.67453121900829
 20
203.818045734055
 30
0.0
 11
180.67453121900829
 21
201.818045734055
 31
0.0
  0
LINE
  5
92
  8
0
 10
179.67453121900829
 20
203.818045734055
 30
0.0
 11
180.67453121900829
 21
203.818045734055
 31
0.0
  0
LINE
  5
C4
  8
0
 10
304.7602185129619
 20
122.4277577937644
 30
0.0
 11
303.86021851296181
 21
122.4277577937644
 31
0.0
  0
LINE
  5
C5
  8
0
 10
304.7602185129619
 20
148.92775779376441
 30
0.0
 11
304.7602185129619
 21
122.4277577937644
 31
0.0
  0
LINE
  5
C6
  8
0
 10
302.96021851296189
 20
148.92775779376441
 30
0.0
 11
302.96021851296177
 21
123.4277577937644
 31
0.0
  0
LINE
  5
C7
  8
0
 10
304.7602185129619
 20
143.42775779376521
 30
0.0
 11
302.96021851296177
 21
143.42775779376521
 31
0.0
  0
LINE
  5
C9
  8
0
 10
304.7602185129619
 20
124.6777577937642
 30
0.0
 11
302.96021851296177
 21
124.6777577937642
 31
0.0
  0
LINE
  5
CA
  8
0
 10
303.86021851296181
 20
123.4277577937643
 30
0.0
 11
302.96021851296177
 21
123.4277577937643
 31
0.0
  0
LINE
  5
CB
  8
0
 10
303.86021851296181
 20
123.4277577937643
 30
0.0
 11
303.86021851296181
 21
122.4277577937644
 31
0.0
  0
LINE
  5
CC
  8
0
 10
347.82564694803028
 20
123.4277577937643
 30
0.0
 11
347.82564694803028
 21
122.4277577937644
 31
0.0
  0
LINE
  5
CD
  8
0
 10
347.82564694803028
 20
123.4277577937643
 30
0.0
 11
348.7256469480302
 21
123.4277577937643
 31
0.0
  0
LINE
  5
CE
  8
0
 10
281.87750429542751
 20
147.4277577937651
 30
0.0
 11
283.8775042954274
 21
147.4277577937651
 31
0.0
  0
LINE
  5
CF
  8
0
 10
283.8775042954274
 20
123.4277577937643
 30
0.0
 11
283.8775042954274
 21
147.4277577937651
 31
0.0
  0
LINE
  5
D0
  8
0
 10
281.87750429542751
 20
123.4277577937643
 30
0.0
 11
281.87750429542751
 21
147.4277577937651
 31
0.0
  0
LINE
  5
D1
  8
1
 10
281.87750429542763
 20
174.42775779376529
 30
0.0
 11
281.87750429542763
 21
117.4277577937644
 31
0.0
  0
LINE
  5
D3
  8
0
 10
276.78282224510031
 20
144.04902560628341
 30
0.0
 11
277.66151471128529
 21
147.5637954710204
 31
0.0
  0
ARC
  5
D4
  8
0
 10
275.72122971099509
 20
148.04886672109291
 30
0.0
 40
1.999999999999446
 50
345.96375653207377
 51
28.152329838050051
  0
LINE
  5
D5
  8
0
 10
286.97218833884142
 20
144.04902560628341
 30
0.0
 11
286.09349587265638
 21
147.5637954710204
 31
0.0
  0
ARC
  5
D6
  8
0
 10
288.03378087294658
 20
148.04886672109291
 30
0.0
 40
1.999999999999446
 50
151.8476388472848
 51
194.03624346792631
  0
LINE
  5
D8
  8
0
 10
286.4871170887688
 20
143.4277577937651
 30
0.0
 11
285.12750429542763
 21
143.4277577937651
 31
0.0
  0
LINE
  5
DB
  8
0
 10
285.12750429542763
 20
143.4277577937651
 30
0.0
 11
285.12750429542763
 21
124.6777577937644
 31
0.0
  0
LINE
  5
DC
  8
0
 10
278.62750429542763
 20
143.42775779376521
 30
0.0
 11
278.62750429542763
 21
126.6777577937642
 31
0.0
  0
LINE
  5
DD
  8
0
 10
278.62750429542763
 20
143.4277577937651
 30
0.0
 11
277.26789349517293
 21
143.42775779376521
 31
0.0
  0
LINE
  5
DE
  8
0
 10
282.87750429542751
 20
122.4277577937644
 30
0.0
 11
278.62750429542763
 21
126.6777577937642
 31
0.0
  0
LINE
  5
DF
  8
0
 10
282.87750429542751
 20
122.4277577937644
 30
0.0
 11
285.12750429542763
 21
124.6777577937644
 31
0.0
  0
ARC
  5
E0
  8
0
 10
286.4871170887688
 20
143.9277577937651
 30
0.0
 40
0.5
 50
270.00000000000091
 51
14.036243467937521
  0
ARC
  5
E1
  8
0
 10
277.26789349517293
 20
143.92775779376521
 30
0.0
 40
0.5
 50
165.96375653206249
 51
270.00000000000011
  0
LINE
  5
E3
  8
0
 10
346.92564694803031
 20
124.6777577937642
 30
0.0
 11
347.82564694803028
 21
124.6777577937642
 31
0.0
  0
LINE
  5
E4
  8
0
 10
347.82564694803028
 20
124.6777577937642
 30
0.0
 11
347.82564694803028
 21
143.42775779376521
 31
0.0
  0
LINE
  5
E5
  8
0
 10
347.82564694803028
 20
126.6777577937643
 30
0.0
 11
348.7256469480302
 21
126.6777577937642
 31
0.0
  0
LINE
  5
E8
  8
0
 10
346.92564694803031
 20
143.42775779376521
 30
0.0
 11
348.7256469480302
 21
143.42775779376521
 31
0.0
  0
LINE
  5
E9
  8
0
 10
348.7256469480302
 20
148.9277577937645
 30
0.0
 11
348.7256469480302
 21
123.4277577937644
 31
0.0
  0
LINE
  5
EA
  8
0
 10
346.92564694803031
 20
148.9277577937645
 30
0.0
 11
346.92564694803031
 21
122.4277577937644
 31
0.0
  0
LINE
  5
EB
  8
0
 10
346.92564694803031
 20
122.4277577937644
 30
0.0
 11
347.82564694803028
 21
122.4277577937644
 31
0.0
  0
ARC
  5
ED
  8
0
 10
330.45254353075069
 20
143.92775779376521
 30
0.0
 40
0.5
 50
270.0
 51
14.036243467937499
  0
ARC
  5
EE
  8
0
 10
321.23331993715482
 20
143.9277577937651
 30
0.0
 40
0.5
 50
165.96375653206249
 51
269.9999999999992
  0
LINE
  5
EF
  8
0
 10
327.0929327304961
 20
147.4277577937651
 30
0.0
 11
329.0929327304961
 21
147.4277577937651
 31
0.0
  0
LINE
  5
F0
  8
0
 10
324.8429327304961
 20
122.4277577937644
 30
0.0
 11
322.59293273049599
 21
124.6777577937644
 31
0.0
  0
LINE
  5
F1
  8
0
 10
324.8429327304961
 20
122.4277577937644
 30
0.0
 11
329.0929327304961
 21
126.6777577937642
 31
0.0
  0
LINE
  5
F2
  8
0
 10
327.0929327304961
 20
147.4277577937651
 30
0.0
 11
327.0929327304961
 21
124.6777577937643
 31
0.0
  0
LINE
  5
F3
  8
0
 10
329.0929327304961
 20
143.4277577937651
 30
0.0
 11
330.45254353075069
 21
143.42775779376521
 31
0.0
  0
LINE
  5
F4
  8
0
 10
329.0929327304961
 20
147.4277577937651
 30
0.0
 11
329.0929327304961
 21
126.6777577937642
 31
0.0
  0
LINE
  5
F5
  8
0
 10
322.5929327304961
 20
143.4277577937651
 30
0.0
 11
322.59293273049599
 21
124.6777577937644
 31
0.0
  0
LINE
  5
F8
  8
0
 10
321.23331993715482
 20
143.4277577937651
 30
0.0
 11
322.5929327304961
 21
143.4277577937651
 31
0.0
  0
ARC
  5
FA
  8
0
 10
319.68665615297698
 20
148.04886672109291
 30
0.0
 40
1.999999999999446
 50
345.96375653207377
 51
28.152361152716662
  0
LINE
  5
FB
  8
0
 10
320.7482486870822
 20
144.04902560628341
 30
0.0
 11
321.62694115326718
 21
147.5637954710204
 31
0.0
  0
ARC
  5
FC
  8
0
 10
331.99920731492853
 20
148.04886672109291
 30
0.0
 40
1.999999999999446
 50
151.84767016195141
 51
194.0362434679262
  0
LINE
  5
FD
  8
0
 10
330.93761478082331
 20
144.04902560628341
 30
0.0
 11
330.05892231463832
 21
147.5637954710204
 31
0.0
  0
LINE
  5
FF
  8
1
 10
325.84293273049599
 20
174.42775779376529
 30
0.0
 11
325.84293273049599
 21
117.4277577937644
 31
0.0
  0
LINE
  5
100
  8
0
 10
181.67453121900829
 20
198.31804445526171
 30
0.0
 11
179.67453121900829
 21
198.31804445526171
 31
0.0
  0
LINE
  5
101
  8
0
 10
181.67453121900829
 20
208.31804539304329
 30
0.0
 11
179.67453121900829
 21
208.31804539304329
 31
0.0
  0
LINE
  5
102
  8
0
 10
179.67453121900829
 20
208.31804539304329
 30
0.0
 11
179.67453121900829
 21
198.31804445526171
 31
0.0
  0
LINE
  5
103
  8
0
 10
181.67453121900829
 20
208.31804539304329
 30
0.0
 11
181.67453121900829
 21
198.31804445526171
 31
0.0
  0
ARC
  5
104
  8
0
 10
180.67453121900829
 20
202.81804556354919
 30
0.0
 40
2.5
 50
113.57817847820149
 51
246.4218215218057
  0
ARC
  5
105
  8
0
 10
180.67453121900829
 20
202.81804556354919
 30
0.0
 40
2.5
 50
293.57817847820041
 51
66.421821521799643
  0
LINE
  5
106
  8
1
 10
194.17453121900829
 20
202.81804556354919
 30
0.0
 11
162.1777218554291
 21
202.81804556354919
 31
0.0
  0
LINE
  5
107
  8
1
 10
180.67453121900829
 20
232.81804556354891
 30
0.0
 11
180.67453121900829
 21
189.31804556354919
 31
0.0
  0
LINE
  5
119
  8
0
 10
137.0429248431285
 20
142.42775779376501
 30
0.0
 11
152.41678838556291
 21
142.42775779376501
 31
0.0
  0
LINE
  5
11E
  8
0
 10
213.93227405245381
 20
140.92775779376689
 30
0.0
 11
213.93227405245381
 21
142.42775779376501
 31
0.0
  0
LINE
  5
11F
  8
0
 10
189.17453121900829
 20
140.92775779376689
 30
0.0
 11
189.17453121900829
 21
103.427757793765
 31
0.0
  0
LINE
  5
120
  8
0
 10
222.6284264751605
 20
141.4277577937651
 30
0.0
 11
224.30613759488759
 21
141.4277577937651
 31
0.0
  0
LINE
  5
121
  8
0
 10
222.6284264751605
 20
142.42775779376501
 30
0.0
 11
222.6284264751605
 21
141.4277577937651
 31
0.0
  0
LINE
  5
122
  8
0
 10
223.43227405245381
 20
140.92775779376689
 30
0.0
 11
223.43227405245381
 21
141.4277577937651
 31
0.0
  0
LINE
  5
16D
  8
0
 10
82.159045552117675
 20
140.92775779376689
 30
0.0
 11
82.159045552117689
 21
103.427757793765
 31
0.0
  0
LINE
  5
16E
  8
0
 10
82.159045552117675
 20
143.42775779376501
 30
0.0
 11
83.159045552117675
 21
144.42775779376501
 31
0.0
  0
LINE
  5
16F
  8
0
 10
99.159045552117675
 20
143.42775779376501
 30
0.0
 11
98.159045552117675
 21
144.42775779376501
 31
0.0
  0
LINE
  5
170
  8
0
 10
98.159045552117675
 20
144.42775779376501
 30
0.0
 11
83.159045552117675
 21
144.42775779376501
 31
0.0
  0
LINE
  5
171
  8
0
 10
82.159045552117675
 20
143.42775779376501
 30
0.0
 11
99.159045552117675
 21
143.42775779376501
 31
0.0
  0
LINE
  5
172
  8
0
 10
82.913078859702779
 20
142.42775779376501
 30
0.0
 11
82.913078859702779
 21
140.92775779376689
 31
0.0
  0
LINE
  5
173
  8
0
 10
85.659045552117675
 20
140.92775779376689
 30
0.0
 11
82.159045552117675
 21
140.92775779376689
 31
0.0
  0
LINE
  5
174
  8
0
 10
82.159045552117675
 20
143.42775779376501
 30
0.0
 11
82.159045552117675
 21
142.42775779376501
 31
0.0
  0
LINE
  5
177
  8
0
 10
99.159045552117675
 20
117.4277577937641
 30
0.0
 11
99.159045552117675
 21
143.42775779376501
 31
0.0
  0
LINE
  5
178
  8
0
 10
99.159045552117675
 20
142.42775779376501
 30
0.0
 11
95.659045552117675
 21
142.42775779376501
 31
0.0
  0
LINE
  5
17E
  8
1
 10
90.659045552117675
 20
98.427757793765053
 30
0.0
 11
90.659045552117689
 21
149.42775779376501
 31
0.0
  0
LINE
  5
17F
  8
0
 10
85.659045552117675
 20
143.42775779376501
 30
0.0
 11
85.659045552117675
 21
103.427757793765
 31
0.0
  0
LINE
  5
180
  8
0
 10
95.659045552117675
 20
143.42775779376501
 30
0.0
 11
95.659045552117675
 21
103.427757793765
 31
0.0
  0
LINE
  5
181
  8
0
 10
85.659045552117675
 20
142.42775779376501
 30
0.0
 11
82.159045552117675
 21
142.42775779376501
 31
0.0
  0
LINE
  5
182
  8
0
 10
84.659045552117689
 20
142.42775779376501
 30
0.0
 11
84.659045552117689
 21
140.92775779376689
 31
0.0
  0
LINE
  5
18E
  8
1
 10
188.67453121900829
 20
221.81804556354891
 30
0.0
 11
172.67453121900829
 21
221.81804556354891
 31
0.0
  0
ARC
  5
3F8
  8
0
 10
92.313675420087449
 20
121.77312792579539
 30
0.0
 40
0.2599999999999114
 50
225.00000000002359
 51
44.999999999967471
  0
ARC
  5
3F9
  8
0
 10
89.004415684147887
 20
125.0823876617348
 30
0.0
 40
0.2599999999999114
 50
45.00000000002359
 51
224.9999999999674
  0
LINE
  5
3FA
  8
0
 10
88.820567921039284
 20
124.8985398986265
 30
0.0
 11
89.831730618129484
 21
123.88737720153649
 31
0.0
  0
LINE
  5
3FB
  8
0
 10
92.497523183196066
 20
124.8985398986264
 30
0.0
 11
91.486360486105866
 21
123.8873772015363
 31
0.0
  0
LINE
  5
3FC
  8
0
 10
92.129827656979046
 20
125.2662354248434
 30
0.0
 11
91.118664959889145
 21
124.2550727277534
 31
0.0
  0
ARC
  5
3FD
  8
0
 10
92.31367542008735
 20
125.0823876617349
 30
0.0
 40
0.2599999999999114
 50
315.0000000000241
 51
134.99999999996771
  0
LINE
  5
3FE
  8
0
 10
89.188263447256475
 20
125.2662354248433
 30
0.0
 11
90.199426144346674
 21
124.2550727277534
 31
0.0
  0
ARC
  5
3FF
  8
0
 10
90.659045552117902
 20
124.7146921355246
 30
0.0
 40
0.65
 50
225.00000000000361
 51
315.00000000000517
  0
ARC
  5
400
  8
0
 10
91.945979893877208
 20
123.4277577937649
 30
0.0
 40
0.65
 50
135.00000000000139
 51
225.00000000000011
  0
LINE
  5
401
  8
0
 10
92.129827656979046
 20
121.5892801626868
 30
0.0
 11
91.118664959888903
 21
122.6004428597769
 31
0.0
  0
LINE
  5
402
  8
0
 10
92.497523183196066
 20
121.9569756889038
 30
0.0
 11
91.486360486106094
 21
122.9681383859938
 31
0.0
  0
ARC
  5
403
  8
0
 10
89.004415684148
 20
121.77312792579539
 30
0.0
 40
0.2599999999999114
 50
135.0000000000241
 51
314.99999999996771
  0
LINE
  5
404
  8
0
 10
89.188263447256347
 20
121.58928016268671
 30
0.0
 11
90.199426144346489
 21
122.60044285977681
 31
0.0
  0
LINE
  5
405
  8
0
 10
88.820567921039526
 20
121.9569756889039
 30
0.0
 11
89.831730618129598
 21
122.9681383859939
 31
0.0
  0
CIRCLE
  5
406
  8
0
 10
90.659045552117675
 20
123.427757793765
 30
0.0
 40
3.8999999999999999
  0
ARC
  5
407
  8
0
 10
90.659045552117675
 20
122.14082345200571
 30
0.0
 40
0.65
 50
45.000000000000291
 51
135.00000000000139
  0
ARC
  5
408
  8
0
 10
89.372111210358241
 20
123.42775779376529
 30
0.0
 40
0.65
 50
315.00000000000159
 51
45.000000000000291
  0
CIRCLE
  5
409
  8
0
 10
90.659045552117675
 20
123.427757793765
 30
0.0
 40
4.4000000000000004
  0
LINE
  5
40A
  8
0
 10
99.159045552117675
 20
117.4277577937651
 30
0.0
 11
99.159045552117675
 21
114.427757793765
 31
0.0
  0
LINE
  5
40B
  8
0
 10
99.159045552117675
 20
114.427757793765
 30
0.0
 11
98.159045552117675
 21
114.4277577937651
 31
0.0
  0
LINE
  5
40C
  8
0
 10
100.1590455521176
 20
107.927757793765
 30
0.0
 11
98.159045552117675
 21
107.9277577937649
 31
0.0
  0
LINE
  5
40D
  8
0
 10
99.159045552117675
 20
103.427757793765
 30
0.0
 11
99.159045552117675
 21
107.927757793765
 31
0.0
  0
LINE
  5
40E
  8
0
 10
104.1590455521178
 20
117.427757793765
 30
0.0
 11
98.159045552117675
 21
117.4277577937651
 31
0.0
  0
LINE
  5
40F
  8
0
 10
98.159045552117675
 20
107.9277577937649
 30
0.0
 11
98.159045552117675
 21
117.4277577937651
 31
0.0
  0
POLYLINE
  5
410
  8
0
 10
104.15904555211772
 20
117.42775779376511
 30
0.0
 66
     1
 70
     8
  0
VERTEX
  8
0
  5
5DB
 10
104.159
 20
117.428
 30
0.000000
  70
    32
  0
VERTEX
  8
0
  5
5DC
 10
104.159
 20
117.311
 30
0.000000
  70
    32
  0
VERTEX
  8
0
  5
5DD
 10
104.158
 20
117.195
 30
0.000000
  70
    32
  0
VERTEX
  8
0
  5
5DE
 10
104.156
 20
117.078
 30
0.000000
  70
    32
  0
VERTEX
  8
0
  5
5DF
 10
104.154
 20
116.962
 30
0.000000
  70
    32
  0
VERTEX
  8
0
  5
5E0
 10
104.152
 20
116.845
 30
0.000000
  70
    32
  0
VERTEX
  8
0
  5
5E1
 10
104.148
 20
116.729
 30
0.000000
  70
    32
  0
VERTEX
  8
0
  5
5E2
 10
104.144
 20
116.613
 30
0.000000
  70
    32
  0
VERTEX
  8
0
  5
5E3
 10
104.140
 20
116.497
 30
0.000000
  70
    32
  0
VERTEX
  8
0
  5
5E4
 10
104.135
 20
116.381
 30
0.000000
  70
    32
  0
VERTEX
  8
0
  5
5E5
 10
104.129
 20
116.265
 30
0.000000
  70
    32
  0
VERTEX
  8
0
  5
5E6
 10
104.123
 20
116.149
 30
0.000000
  70
    32
  0
VERTEX
  8
0
  5
5E7
 10
104.116
 20
116.034
 30
0.000000
  70
    32
  0
VERTEX
  8
0
  5
5E8
 10
104.108
 20
115.919
 30
0.000000
  70
    32
  0
VERTEX
  8
0
  5
5E9
 10
104.100
 20
115.804
 30
0.000000
  70
    32
  0
VERTEX
  8
0
  5
5EA
 10
104.091
 20
115.689
 30
0.000000
  70
    32
  0
VERTEX
  8
0
  5
5EB
 10
104.082
 20
115.574
 30
0.000000
  70
    32
  0
VERTEX
  8
0
  5
5EC
 10
104.072
 20
115.460
 30
0.000000
  70
    32
  0
VERTEX
  8
0
  5
5ED
 10
104.062
 20
115.346
 30
0.000000
  70
    32
  0
VERTEX
  8
0
  5
5EE
 10
104.051
 20
115.233
 30
0.000000
  70
    32
  0
VERTEX
  8
0
  5
5EF
 10
104.039
 20
115.119
 30
0.000000
  70
    32
  0
VERTEX
  8
0
  5
5F0
 10
104.027
 20
115.007
 30
0.000000
  70
    32
  0
VERTEX
  8
0
  5
5F1
 10
104.014
 20
114.894
 30
0.000000
  70
    32
  0
VERTEX
  8
0
  5
5F2
 10
104.001
 20
114.782
 30
0.000000
  70
    32
  0
VERTEX
  8
0
  5
5F3
 10
103.987
 20
114.670
 30
0.000000
  70
    32
  0
VERTEX
  8
0
  5
5F4
 10
103.972
 20
114.559
 30
0.000000
  70
    32
  0
VERTEX
  8
0
  5
5F5
 10
103.957
 20
114.448
 30
0.000000
  70
    32
  0
VERTEX
  8
0
  5
5F6
 10
103.941
 20
114.337
 30
0.000000
  70
    32
  0
VERTEX
  8
0
  5
5F7
 10
103.925
 20
114.227
 30
0.000000
  70
    32
  0
VERTEX
  8
0
  5
5F8
 10
103.908
 20
114.118
 30
0.000000
  70
    32
  0
VERTEX
  8
0
  5
5F9
 10
103.891
 20
114.009
 30
0.000000
  70
    32
  0
VERTEX
  8
0
  5
5FA
 10
103.873
 20
113.900
 30
0.000000
  70
    32
  0
VERTEX
  8
0
  5
5FB
 10
103.855
 20
113.792
 30
0.000000
  70
    32
  0
VERTEX
  8
0
  5
5FC
 10
103.836
 20
113.685
 30
0.000000
  70
    32
  0
VERTEX
  8
0
  5
5FD
 10
103.816
 20
113.578
 30
0.000000
  70
    32
  0
VERTEX
  8
0
  5
5FE
 10
103.796
 20
113.472
 30
0.000000
  70
    32
  0
VERTEX
  8
0
  5
5FF
 10
103.775
 20
113.366
 30
0.000000
  70
    32
  0
VERTEX
  8
0
  5
600
 10
103.754
 20
113.261
 30
0.000000
  70
    32
  0
VERTEX
  8
0
  5
601
 10
103.732
 20
113.156
 30
0.000000
  70
    32
  0
VERTEX
  8
0
  5
602
 10
103.710
 20
113.053
 30
0.000000
  70
    32
  0
VERTEX
  8
0
  5
603
 10
103.687
 20
112.949
 30
0.000000
  70
    32
  0
VERTEX
  8
0
  5
604
 10
103.663
 20
112.847
 30
0.000000
  70
    32
  0
VERTEX
  8
0
  5
605
 10
103.639
 20
112.745
 30
0.000000
  70
    32
  0
VERTEX
  8
0
  5
606
 10
103.615
 20
112.644
 30
0.000000
  70
    32
  0
VERTEX
  8
0
  5
607
 10
103.590
 20
112.544
 30
0.000000
  70
    32
  0
VERTEX
  8
0
  5
608
 10
103.564
 20
112.444
 30
0.000000
  70
    32
  0
VERTEX
  8
0
  5
609
 10
103.538
 20
112.345
 30
0.000000
  70
    32
  0
VERTEX
  8
0
  5
60A
 10
103.512
 20
112.247
 30
0.000000
  70
    32
  0
VERTEX
  8
0
  5
60B
 10
103.485
 20
112.150
 30
0.000000
  70
    32
  0
VERTEX
  8
0
  5
60C
 10
103.457
 20
112.053
 30
0.000000
  70
    32
  0
VERTEX
  8
0
  5
60D
 10
103.429
 20
111.958
 30
0.000000
  70
    32
  0
VERTEX
  8
0
  5
60E
 10
103.401
 20
111.863
 30
0.000000
  70
    32
  0
VERTEX
  8
0
  5
60F
 10
103.372
 20
111.769
 30
0.000000
  70
    32
  0
VERTEX
  8
0
  5
610
 10
103.342
 20
111.675
 30
0.000000
  70
    32
  0
VERTEX
  8
0
  5
611
 10
103.312
 20
111.583
 30
0.000000
  70
    32
  0
VERTEX
  8
0
  5
612
 10
103.282
 20
111.492
 30
0.000000
  70
    32
  0
VERTEX
  8
0
  5
613
 10
103.251
 20
111.401
 30
0.000000
  70
    32
  0
VERTEX
  8
0
  5
614
 10
103.220
 20
111.311
 30
0.000000
  70
    32
  0
VERTEX
  8
0
  5
615
 10
103.188
 20
111.223
 30
0.000000
  70
    32
  0
VERTEX
  8
0
  5
616
 10
103.156
 20
111.135
 30
0.000000
  70
    32
  0
VERTEX
  8
0
  5
617
 10
103.123
 20
111.048
 30
0.000000
  70
    32
  0
VERTEX
  8
0
  5
618
 10
103.090
 20
110.962
 30
0.000000
  70
    32
  0
VERTEX
  8
0
  5
619
 10
103.056
 20
110.877
 30
0.000000
  70
    32
  0
VERTEX
  8
0
  5
61A
 10
103.022
 20
110.793
 30
0.000000
  70
    32
  0
VERTEX
  8
0
  5
61B
 10
102.987
 20
110.710
 30
0.000000
  70
    32
  0
VERTEX
  8
0
  5
61C
 10
102.953
 20
110.628
 30
0.000000
  70
    32
  0
VERTEX
  8
0
  5
61D
 10
102.917
 20
110.547
 30
0.000000
  70
    32
  0
VERTEX
  8
0
  5
61E
 10
102.881
 20
110.468
 30
0.000000
  70
    32
  0
VERTEX
  8
0
  5
61F
 10
102.845
 20
110.389
 30
0.000000
  70
    32
  0
VERTEX
  8
0
  5
620
 10
102.809
 20
110.311
 30
0.000000
  70
    32
  0
VERTEX
  8
0
  5
621
 10
102.772
 20
110.234
 30
0.000000
  70
    32
  0
VERTEX
  8
0
  5
622
 10
102.734
 20
110.159
 30
0.000000
  70
    32
  0
VERTEX
  8
0
  5
623
 10
102.697
 20
110.084
 30
0.000000
  70
    32
  0
VERTEX
  8
0
  5
624
 10
102.658
 20
110.011
 30
0.000000
  70
    32
  0
VERTEX
  8
0
  5
625
 10
102.620
 20
109.938
 30
0.000000
  70
    32
  0
VERTEX
  8
0
  5
626
 10
102.581
 20
109.867
 30
0.000000
  70
    32
  0
VERTEX
  8
0
  5
627
 10
102.542
 20
109.797
 30
0.000000
  70
    32
  0
VERTEX
  8
0
  5
628
 10
102.502
 20
109.728
 30
0.000000
  70
    32
  0
VERTEX
  8
0
  5
629
 10
102.462
 20
109.661
 30
0.000000
  70
    32
  0
VERTEX
  8
0
  5
62A
 10
102.422
 20
109.594
 30
0.000000
  70
    32
  0
VERTEX
  8
0
  5
62B
 10
102.381
 20
109.529
 30
0.000000
  70
    32
  0
VERTEX
  8
0
  5
62C
 10
102.340
 20
109.465
 30
0.000000
  70
    32
  0
VERTEX
  8
0
  5
62D
 10
102.299
 20
109.402
 30
0.000000
  70
    32
  0
VERTEX
  8
0
  5
62E
 10
102.257
 20
109.340
 30
0.000000
  70
    32
  0
VERTEX
  8
0
  5
62F
 10
102.215
 20
109.279
 30
0.000000
  70
    32
  0
VERTEX
  8
0
  5
630
 10
102.173
 20
109.220
 30
0.000000
  70
    32
  0
VERTEX
  8
0
  5
631
 10
102.131
 20
109.162
 30
0.000000
  70
    32
  0
VERTEX
  8
0
  5
632
 10
102.088
 20
109.105
 30
0.000000
  70
    32
  0
VERTEX
  8
0
  5
633
 10
102.045
 20
109.050
 30
0.000000
  70
    32
  0
VERTEX
  8
0
  5
634
 10
102.001
 20
108.995
 30
0.000000
  70
    32
  0
VERTEX
  8
0
  5
635
 10
101.957
 20
108.942
 30
0.000000
  70
    32
  0
VERTEX
  8
0
  5
636
 10
101.914
 20
108.890
 30
0.000000
  70
    32
  0
VERTEX
  8
0
  5
637
 10
101.869
 20
108.840
 30
0.000000
  70
    32
  0
VERTEX
  8
0
  5
638
 10
101.825
 20
108.791
 30
0.000000
  70
    32
  0
VERTEX
  8
0
  5
639
 10
101.780
 20
108.743
 30
0.000000
  70
    32
  0
VERTEX
  8
0
  5
63A
 10
101.735
 20
108.696
 30
0.000000
  70
    32
  0
VERTEX
  8
0
  5
63B
 10
101.690
 20
108.651
 30
0.000000
  70
    32
  0
VERTEX
  8
0
  5
63C
 10
101.644
 20
108.607
 30
0.000000
  70
    32
  0
VERTEX
  8
0
  5
63D
 10
101.599
 20
108.564
 30
0.000000
  70
    32
  0
VERTEX
  8
0
  5
63E
 10
101.553
 20
108.523
 30
0.000000
  70
    32
  0
VERTEX
  8
0
  5
63F
 10
101.507
 20
108.483
 30
0.000000
  70
    32
  0
VERTEX
  8
0
  5
640
 10
101.460
 20
108.444
 30
0.000000
  70
    32
  0
VERTEX
  8
0
  5
641
 10
101.414
 20
108.407
 30
0.000000
  70
    32
  0
VERTEX
  8
0
  5
642
 10
101.367
 20
108.371
 30
0.000000
  70
    32
  0
VERTEX
  8
0
  5
643
 10
101.320
 20
108.337
 30
0.000000
  70
    32
  0
VERTEX
  8
0
  5
644
 10
101.273
 20
108.304
 30
0.000000
  70
    32
  0
VERTEX
  8
0
  5
645
 10
101.226
 20
108.272
 30
0.000000
  70
    32
  0
VERTEX
  8
0
  5
646
 10
101.179
 20
108.241
 30
0.000000
  70
    32
  0
VERTEX
  8
0
  5
647
 10
101.131
 20
108.212
 30
0.000000
  70
    32
  0
VERTEX
  8
0
  5
648
 10
101.083
 20
108.185
 30
0.000000
  70
    32
  0
VERTEX
  8
0
  5
649
 10
101.035
 20
108.159
 30
0.000000
  70
    32
  0
VERTEX
  8
0
  5
64A
 10
100.987
 20
108.134
 30
0.000000
  70
    32
  0
VERTEX
  8
0
  5
64B
 10
100.939
 20
108.110
 30
0.000000
  70
    32
  0
VERTEX
  8
0
  5
64C
 10
100.891
 20
108.088
 30
0.000000
  70
    32
  0
VERTEX
  8
0
  5
64D
 10
100.843
 20
108.068
 30
0.000000
  70
    32
  0
VERTEX
  8
0
  5
64E
 10
100.794
 20
108.048
 30
0.000000
  70
    32
  0
VERTEX
  8
0
  5
64F
 10
100.746
 20
108.031
 30
0.000000
  70
    32
  0
VERTEX
  8
0
  5
650
 10
100.697
 20
108.014
 30
0.000000
  70
    32
  0
VERTEX
  8
0
  5
651
 10
100.649
 20
107.999
 30
0.000000
  70
    32
  0
VERTEX
  8
0
  5
652
 10
100.600
 20
107.986
 30
0.000000
  70
    32
  0
VERTEX
  8
0
  5
653
 10
100.551
 20
107.974
 30
0.000000
  70
    32
  0
VERTEX
  8
0
  5
654
 10
100.502
 20
107.963
 30
0.000000
  70
    32
  0
VERTEX
  8
0
  5
655
 10
100.453
 20
107.953
 30
0.000000
  70
    32
  0
VERTEX
  8
0
  5
656
 10
100.404
 20
107.946
 30
0.000000
  70
    32
  0
VERTEX
  8
0
  5
657
 10
100.355
 20
107.939
 30
0.000000
  70
    32
  0
VERTEX
  8
0
  5
658
 10
100.306
 20
107.934
 30
0.000000
  70
    32
  0
VERTEX
  8
0
  5
659
 10
100.257
 20
107.931
 30
0.000000
  70
    32
  0
VERTEX
  8
0
  5
65A
 10
100.208
 20
107.928
 30
0.000000
  70
    32
  0
VERTEX
  8
0
  5
65B
 10
100.159
 20
107.928
 30
0.000000
  70
    32
  0
SEQEND
  8
0
  5
65C
  0
LINE
  5
411
  8
0
 10
89.059045552117766
 20
139.42775779376501
 30
0.0
 11
85.659045552117675
 21
139.42775779376501
 31
0.0
  0
LINE
  5
412
  8
0
 10
89.059045552117766
 20
129.42775779376501
 30
0.0
 11
85.659045552117675
 21
129.42775779376501
 31
0.0
  0
LINE
  5
413
  8
0
 10
89.059045552117766
 20
129.4277577937651
 30
0.0
 11
89.059045552117766
 21
139.42775779376501
 31
0.0
  0
LINE
  5
414
  8
0
 10
92.259045552117684
 20
129.42775779376501
 30
0.0
 11
92.259045552117684
 21
139.42775779376501
 31
0.0
  0
LINE
  5
415
  8
0
 10
95.659045552117675
 20
139.42775779376501
 30
0.0
 11
92.259045552117684
 21
139.42775779376501
 31
0.0
  0
LINE
  5
416
  8
0
 10
95.659045552117675
 20
129.42775779376501
 30
0.0
 11
92.259045552117684
 21
129.42775779376501
 31
0.0
  0
LINE
  5
417
  8
0
 10
99.159045552117675
 20
103.427757793765
 30
0.0
 11
82.159045552117675
 21
103.4277577937651
 31
0.0
  0
LINE
  5
418
  8
0
 10
130.24292484312849
 20
107.427757793765
 30
0.0
 11
134.0429248431285
 21
107.4277577937651
 31
0.0
  0
LINE
  5
419
  8
1
 10
130.4167883855628
 20
112.927757793765
 30
0.0
 11
119.4167883855629
 21
112.927757793765
 31
0.0
  0
LINE
  5
41A
  8
0
 10
118.9167883855628
 20
103.427757793765
 30
0.0
 11
152.41678838556311
 21
103.427757793765
 31
0.0
  0
LINE
  5
41B
  8
1
 10
124.9167883855629
 20
118.427757793765
 30
0.0
 11
124.9167883855629
 21
107.427757793765
 31
0.0
  0
CIRCLE
  5
41C
  8
0
 10
124.9167883855629
 20
112.927757793765
 30
0.0
 40
2.0669999999999988
  0
CIRCLE
  5
41D
  8
3
 10
124.9167883855629
 20
112.927757793765
 30
0.0
 40
2.5
  0
LINE
  5
41E
  8
0
 10
129.74292484312861
 20
113.427757793765
 30
0.0
 11
129.74292484312849
 21
107.927757793765
 31
0.0
  0
ARC
  5
41F
  8
0
 10
134.0429248431285
 20
107.9277577937651
 30
0.0
 40
0.5
 50
270.0
 51
0.0
  0
ARC
  5
420
  8
0
 10
130.24292484312849
 20
107.927757793765
 30
0.0
 40
0.5
 50
180.0
 51
270.0
  0
LINE
  5
421
  8
0
 10
134.5429248431285
 20
120.427757793765
 30
0.0
 11
125.4167883855628
 21
120.427757793765
 31
0.0
  0
LINE
  5
422
  8
0
 10
134.5429248431285
 20
126.427757793765
 30
0.0
 11
125.4167883855628
 21
126.427757793765
 31
0.0
  0
LINE
  5
423
  8
0
 10
139.9167883855628
 20
107.927757793765
 30
0.0
 11
147.91678838556291
 21
107.927757793765
 31
0.0
  0
LINE
  5
424
  8
0
 10
139.9167883855628
 20
117.427757793765
 30
0.0
 11
147.91678838556291
 21
117.427757793765
 31
0.0
  0
LINE
  5
425
  8
0
 10
147.91678838556291
 20
107.927757793765
 30
0.0
 11
147.91678838556291
 21
117.4277577937651
 31
0.0
  0
LINE
  5
426
  8
0
 10
139.9167883855628
 20
107.927757793765
 30
0.0
 11
139.9167883855628
 21
117.4277577937651
 31
0.0
  0
ARC
  5
427
  8
0
 10
122.8786213121333
 20
121.9895907203279
 30
0.0
 40
2.4631578947368422
 50
181.8793760836227
 51
223.72123483055049
  0
ARC
  5
428
  8
0
 10
122.8786213121333
 20
124.86592486718681
 30
0.0
 40
2.4631578947368422
 50
136.27876516919829
 51
178.12062391637721
  0
LINE
  5
429
  8
0
 10
120.4167883855629
 20
121.9088104253518
 30
0.0
 11
120.4167883855629
 21
124.9467051621782
 31
0.0
  0
ARC
  5
42A
  8
0
 10
124.9167883855629
 20
113.427757793765
 30
0.0
 40
4.8261364575656946
 50
359.9999999999996
 51
79.178298371008651
  0
ARC
  5
42B
  8
0
 10
125.9167883855629
 20
118.65917534206029
 30
0.0
 40
0.5
 50
180.0
 51
259.17829837100862
  0
LINE
  5
42C
  8
0
 10
125.4167883855629
 20
129.4277577937649
 30
0.0
 11
119.4167883855629
 21
129.42775779376501
 31
0.0
  0
LINE
  5
42D
  8
0
 10
125.4167883855629
 20
129.4277577937649
 30
0.0
 11
125.4167883855629
 21
118.65917534206029
 31
0.0
  0
ARC
  5
42E
  8
0
 10
118.0167883855628
 20
123.427757793765
 30
0.0
 40
4.4000000000000004
 50
288.55300453502031
 51
71.446995464979594
  0
LINE
  5
42F
  8
0
 10
134.5429248431285
 20
138.9277577937649
 30
0.0
 11
134.5429248431285
 21
107.9277577937651
 31
0.0
  0
LINE
  5
430
  8
0
 10
134.0429248431285
 20
139.4277577937649
 30
0.0
 11
119.4167883855629
 21
139.42775779376501
 31
0.0
  0
LINE
  5
431
  8
0
 10
172.17453121900829
 20
103.427757793765
 30
0.0
 11
172.17453121900829
 21
107.927757793765
 31
0.0
  0
LINE
  5
432
  8
0
 10
172.17453121900829
 20
103.427757793765
 30
0.0
 11
189.17453121900829
 21
103.427757793765
 31
0.0
  0
LINE
  5
433
  8
0
 10
171.17453121900829
 20
107.927757793765
 30
0.0
 11
173.17453121900829
 21
107.9277577937649
 31
0.0
  0
LINE
  5
434
  8
0
 10
167.1745312190082
 20
117.427757793765
 30
0.0
 11
173.17453121900829
 21
117.4277577937651
 31
0.0
  0
LINE
  5
435
  8
0
 10
173.17453121900829
 20
107.9277577937649
 30
0.0
 11
173.17453121900829
 21
117.4277577937651
 31
0.0
  0
POLYLINE
  5
436
  8
0
 10
167.17453121900817
 20
117.42775779376511
 30
0.0
 66
     1
 70
     8
  0
VERTEX
  8
0
  5
65D
 10
167.175
 20
117.428
 30
0.000000
  70
    32
  0
VERTEX
  8
0
  5
65E
 10
167.175
 20
117.311
 30
0.000000
  70
    32
  0
VERTEX
  8
0
  5
65F
 10
167.176
 20
117.195
 30
0.000000
  70
    32
  0
VERTEX
  8
0
  5
660
 10
167.177
 20
117.078
 30
0.000000
  70
    32
  0
VERTEX
  8
0
  5
661
 10
167.179
 20
116.962
 30
0.000000
  70
    32
  0
VERTEX
  8
0
  5
662
 10
167.182
 20
116.845
 30
0.000000
  70
    32
  0
VERTEX
  8
0
  5
663
 10
167.185
 20
116.729
 30
0.000000
  70
    32
  0
VERTEX
  8
0
  5
664
 10
167.189
 20
116.613
 30
0.000000
  70
    32
  0
VERTEX
  8
0
  5
665
 10
167.194
 20
116.497
 30
0.000000
  70
    32
  0
VERTEX
  8
0
  5
666
 10
167.199
 20
116.381
 30
0.000000
  70
    32
  0
VERTEX
  8
0
  5
667
 10
167.205
 20
116.265
 30
0.000000
  70
    32
  0
VERTEX
  8
0
  5
668
 10
167.211
 20
116.149
 30
0.000000
  70
    32
  0
VERTEX
  8
0
  5
669
 10
167.218
 20
116.034
 30
0.000000
  70
    32
  0
VERTEX
  8
0
  5
66A
 10
167.225
 20
115.919
 30
0.000000
  70
    32
  0
VERTEX
  8
0
  5
66B
 10
167.233
 20
115.804
 30
0.000000
  70
    32
  0
VERTEX
  8
0
  5
66C
 10
167.242
 20
115.689
 30
0.000000
  70
    32
  0
VERTEX
  8
0
  5
66D
 10
167.251
 20
115.574
 30
0.000000
  70
    32
  0
VERTEX
  8
0
  5
66E
 10
167.261
 20
115.460
 30
0.000000
  70
    32
  0
VERTEX
  8
0
  5
66F
 10
167.272
 20
115.346
 30
0.000000
  70
    32
  0
VERTEX
  8
0
  5
670
 10
167.283
 20
115.233
 30
0.000000
  70
    32
  0
VERTEX
  8
0
  5
671
 10
167.294
 20
115.119
 30
0.000000
  70
    32
  0
VERTEX
  8
0
  5
672
 10
167.307
 20
115.007
 30
0.000000
  70
    32
  0
VERTEX
  8
0
  5
673
 10
167.319
 20
114.894
 30
0.000000
  70
    32
  0
VERTEX
  8
0
  5
674
 10
167.333
 20
114.782
 30
0.000000
  70
    32
  0
VERTEX
  8
0
  5
675
 10
167.347
 20
114.670
 30
0.000000
  70
    32
  0
VERTEX
  8
0
  5
676
 10
167.361
 20
114.559
 30
0.000000
  70
    32
  0
VERTEX
  8
0
  5
677
 10
167.376
 20
114.448
 30
0.000000
  70
    32
  0
VERTEX
  8
0
  5
678
 10
167.392
 20
114.337
 30
0.000000
  70
    32
  0
VERTEX
  8
0
  5
679
 10
167.408
 20
114.227
 30
0.000000
  70
    32
  0
VERTEX
  8
0
  5
67A
 10
167.425
 20
114.118
 30
0.000000
  70
    32
  0
VERTEX
  8
0
  5
67B
 10
167.443
 20
114.009
 30
0.000000
  70
    32
  0
VERTEX
  8
0
  5
67C
 10
167.461
 20
113.900
 30
0.000000
  70
    32
  0
VERTEX
  8
0
  5
67D
 10
167.479
 20
113.792
 30
0.000000
  70
    32
  0
VERTEX
  8
0
  5
67E
 10
167.498
 20
113.685
 30
0.000000
  70
    32
  0
VERTEX
  8
0
  5
67F
 10
167.518
 20
113.578
 30
0.000000
  70
    32
  0
VERTEX
  8
0
  5
680
 10
167.538
 20
113.472
 30
0.000000
  70
    32
  0
VERTEX
  8
0
  5
681
 10
167.559
 20
113.366
 30
0.000000
  70
    32
  0
VERTEX
  8
0
  5
682
 10
167.580
 20
113.261
 30
0.000000
  70
    32
  0
VERTEX
  8
0
  5
683
 10
167.602
 20
113.156
 30
0.000000
  70
    32
  0
VERTEX
  8
0
  5
684
 10
167.624
 20
113.053
 30
0.000000
  70
    32
  0
VERTEX
  8
0
  5
685
 10
167.647
 20
112.949
 30
0.000000
  70
    32
  0
VERTEX
  8
0
  5
686
 10
167.670
 20
112.847
 30
0.000000
  70
    32
  0
VERTEX
  8
0
  5
687
 10
167.694
 20
112.745
 30
0.000000
  70
    32
  0
VERTEX
  8
0
  5
688
 10
167.719
 20
112.644
 30
0.000000
  70
    32
  0
VERTEX
  8
0
  5
689
 10
167.744
 20
112.544
 30
0.000000
  70
    32
  0
VERTEX
  8
0
  5
68A
 10
167.769
 20
112.444
 30
0.000000
  70
    32
  0
VERTEX
  8
0
  5
68B
 10
167.795
 20
112.345
 30
0.000000
  70
    32
  0
VERTEX
  8
0
  5
68C
 10
167.822
 20
112.247
 30
0.000000
  70
    32
  0
VERTEX
  8
0
  5
68D
 10
167.849
 20
112.150
 30
0.000000
  70
    32
  0
VERTEX
  8
0
  5
68E
 10
167.876
 20
112.053
 30
0.000000
  70
    32
  0
VERTEX
  8
0
  5
68F
 10
167.904
 20
111.958
 30
0.000000
  70
    32
  0
VERTEX
  8
0
  5
690
 10
167.933
 20
111.863
 30
0.000000
  70
    32
  0
VERTEX
  8
0
  5
691
 10
167.962
 20
111.769
 30
0.000000
  70
    32
  0
VERTEX
  8
0
  5
692
 10
167.991
 20
111.675
 30
0.000000
  70
    32
  0
VERTEX
  8
0
  5
693
 10
168.021
 20
111.583
 30
0.000000
  70
    32
  0
VERTEX
  8
0
  5
694
 10
168.052
 20
111.492
 30
0.000000
  70
    32
  0
VERTEX
  8
0
  5
695
 10
168.082
 20
111.401
 30
0.000000
  70
    32
  0
VERTEX
  8
0
  5
696
 10
168.114
 20
111.311
 30
0.000000
  70
    32
  0
VERTEX
  8
0
  5
697
 10
168.146
 20
111.223
 30
0.000000
  70
    32
  0
VERTEX
  8
0
  5
698
 10
168.178
 20
111.135
 30
0.000000
  70
    32
  0
VERTEX
  8
0
  5
699
 10
168.211
 20
111.048
 30
0.000000
  70
    32
  0
VERTEX
  8
0
  5
69A
 10
168.244
 20
110.962
 30
0.000000
  70
    32
  0
VERTEX
  8
0
  5
69B
 10
168.278
 20
110.877
 30
0.000000
  70
    32
  0
VERTEX
  8
0
  5
69C
 10
168.312
 20
110.793
 30
0.000000
  70
    32
  0
VERTEX
  8
0
  5
69D
 10
168.346
 20
110.710
 30
0.000000
  70
    32
  0
VERTEX
  8
0
  5
69E
 10
168.381
 20
110.628
 30
0.000000
  70
    32
  0
VERTEX
  8
0
  5
69F
 10
168.416
 20
110.547
 30
0.000000
  70
    32
  0
VERTEX
  8
0
  5
6A0
 10
168.452
 20
110.468
 30
0.000000
  70
    32
  0
VERTEX
  8
0
  5
6A1
 10
168.488
 20
110.389
 30
0.000000
  70
    32
  0
VERTEX
  8
0
  5
6A2
 10
168.525
 20
110.311
 30
0.000000
  70
    32
  0
VERTEX
  8
0
  5
6A3
 10
168.562
 20
110.234
 30
0.000000
  70
    32
  0
VERTEX
  8
0
  5
6A4
 10
168.599
 20
110.159
 30
0.000000
  70
    32
  0
VERTEX
  8
0
  5
6A5
 10
168.637
 20
110.084
 30
0.000000
  70
    32
  0
VERTEX
  8
0
  5
6A6
 10
168.675
 20
110.011
 30
0.000000
  70
    32
  0
VERTEX
  8
0
  5
6A7
 10
168.714
 20
109.938
 30
0.000000
  70
    32
  0
VERTEX
  8
0
  5
6A8
 10
168.752
 20
109.867
 30
0.000000
  70
    32
  0
VERTEX
  8
0
  5
6A9
 10
168.792
 20
109.797
 30
0.000000
  70
    32
  0
VERTEX
  8
0
  5
6AA
 10
168.831
 20
109.728
 30
0.000000
  70
    32
  0
VERTEX
  8
0
  5
6AB
 10
168.871
 20
109.661
 30
0.000000
  70
    32
  0
VERTEX
  8
0
  5
6AC
 10
168.912
 20
109.594
 30
0.000000
  70
    32
  0
VERTEX
  8
0
  5
6AD
 10
168.952
 20
109.529
 30
0.000000
  70
    32
  0
VERTEX
  8
0
  5
6AE
 10
168.993
 20
109.465
 30
0.000000
  70
    32
  0
VERTEX
  8
0
  5
6AF
 10
169.035
 20
109.402
 30
0.000000
  70
    32
  0
VERTEX
  8
0
  5
6B0
 10
169.076
 20
109.340
 30
0.000000
  70
    32
  0
VERTEX
  8
0
  5
6B1
 10
169.118
 20
109.279
 30
0.000000
  70
    32
  0
VERTEX
  8
0
  5
6B2
 10
169.160
 20
109.220
 30
0.000000
  70
    32
  0
VERTEX
  8
0
  5
6B3
 10
169.203
 20
109.162
 30
0.000000
  70
    32
  0
VERTEX
  8
0
  5
6B4
 10
169.246
 20
109.105
 30
0.000000
  70
    32
  0
VERTEX
  8
0
  5
6B5
 10
169.289
 20
109.050
 30
0.000000
  70
    32
  0
VERTEX
  8
0
  5
6B6
 10
169.332
 20
108.995
 30
0.000000
  70
    32
  0
VERTEX
  8
0
  5
6B7
 10
169.376
 20
108.942
 30
0.000000
  70
    32
  0
VERTEX
  8
0
  5
6B8
 10
169.420
 20
108.890
 30
0.000000
  70
    32
  0
VERTEX
  8
0
  5
6B9
 10
169.464
 20
108.840
 30
0.000000
  70
    32
  0
VERTEX
  8
0
  5
6BA
 10
169.509
 20
108.791
 30
0.000000
  70
    32
  0
VERTEX
  8
0
  5
6BB
 10
169.554
 20
108.743
 30
0.000000
  70
    32
  0
VERTEX
  8
0
  5
6BC
 10
169.599
 20
108.696
 30
0.000000
  70
    32
  0
VERTEX
  8
0
  5
6BD
 10
169.644
 20
108.651
 30
0.000000
  70
    32
  0
VERTEX
  8
0
  5
6BE
 10
169.689
 20
108.607
 30
0.000000
  70
    32
  0
VERTEX
  8
0
  5
6BF
 10
169.735
 20
108.564
 30
0.000000
  70
    32
  0
VERTEX
  8
0
  5
6C0
 10
169.781
 20
108.523
 30
0.000000
  70
    32
  0
VERTEX
  8
0
  5
6C1
 10
169.827
 20
108.483
 30
0.000000
  70
    32
  0
VERTEX
  8
0
  5
6C2
 10
169.873
 20
108.444
 30
0.000000
  70
    32
  0
VERTEX
  8
0
  5
6C3
 10
169.920
 20
108.407
 30
0.000000
  70
    32
  0
VERTEX
  8
0
  5
6C4
 10
169.967
 20
108.371
 30
0.000000
  70
    32
  0
VERTEX
  8
0
  5
6C5
 10
170.013
 20
108.337
 30
0.000000
  70
    32
  0
VERTEX
  8
0
  5
6C6
 10
170.060
 20
108.304
 30
0.000000
  70
    32
  0
VERTEX
  8
0
  5
6C7
 10
170.108
 20
108.272
 30
0.000000
  70
    32
  0
VERTEX
  8
0
  5
6C8
 10
170.155
 20
108.241
 30
0.000000
  70
    32
  0
VERTEX
  8
0
  5
6C9
 10
170.203
 20
108.212
 30
0.000000
  70
    32
  0
VERTEX
  8
0
  5
6CA
 10
170.250
 20
108.185
 30
0.000000
  70
    32
  0
VERTEX
  8
0
  5
6CB
 10
170.298
 20
108.159
 30
0.000000
  70
    32
  0
VERTEX
  8
0
  5
6CC
 10
170.346
 20
108.134
 30
0.000000
  70
    32
  0
VERTEX
  8
0
  5
6CD
 10
170.394
 20
108.110
 30
0.000000
  70
    32
  0
VERTEX
  8
0
  5
6CE
 10
170.442
 20
108.088
 30
0.000000
  70
    32
  0
VERTEX
  8
0
  5
6CF
 10
170.491
 20
108.068
 30
0.000000
  70
    32
  0
VERTEX
  8
0
  5
6D0
 10
170.539
 20
108.048
 30
0.000000
  70
    32
  0
VERTEX
  8
0
  5
6D1
 10
170.588
 20
108.031
 30
0.000000
  70
    32
  0
VERTEX
  8
0
  5
6D2
 10
170.636
 20
108.014
 30
0.000000
  70
    32
  0
VERTEX
  8
0
  5
6D3
 10
170.685
 20
107.999
 30
0.000000
  70
    32
  0
VERTEX
  8
0
  5
6D4
 10
170.734
 20
107.986
 30
0.000000
  70
    32
  0
VERTEX
  8
0
  5
6D5
 10
170.782
 20
107.974
 30
0.000000
  70
    32
  0
VERTEX
  8
0
  5
6D6
 10
170.831
 20
107.963
 30
0.000000
  70
    32
  0
VERTEX
  8
0
  5
6D7
 10
170.880
 20
107.953
 30
0.000000
  70
    32
  0
VERTEX
  8
0
  5
6D8
 10
170.929
 20
107.946
 30
0.000000
  70
    32
  0
VERTEX
  8
0
  5
6D9
 10
170.978
 20
107.939
 30
0.000000
  70
    32
  0
VERTEX
  8
0
  5
6DA
 10
171.027
 20
107.934
 30
0.000000
  70
    32
  0
VERTEX
  8
0
  5
6DB
 10
171.076
 20
107.931
 30
0.000000
  70
    32
  0
VERTEX
  8
0
  5
6DC
 10
171.125
 20
107.928
 30
0.000000
  70
    32
  0
VERTEX
  8
0
  5
6DD
 10
171.175
 20
107.928
 30
0.000000
  70
    32
  0
SEQEND
  8
0
  5
6DE
  0
LINE
  5
437
  8
0
 10
226.80613759488821
 20
120.427757793765
 30
0.0
 11
235.93227405245389
 21
120.427757793765
 31
0.0
  0
LINE
  5
438
  8
0
 10
226.80613759488821
 20
126.427757793765
 30
0.0
 11
235.93227405245389
 21
126.427757793765
 31
0.0
  0
LINE
  5
439
  8
0
 10
227.30613759488821
 20
139.4277577937649
 30
0.0
 11
241.93227405245381
 21
139.42775779376501
 31
0.0
  0
LINE
  5
43A
  8
0
 10
235.93227405245381
 20
129.4277577937649
 30
0.0
 11
235.93227405245381
 21
118.65917534206029
 31
0.0
  0
LINE
  5
43B
  8
0
 10
235.93227405245381
 20
129.4277577937649
 30
0.0
 11
241.93227405245381
 21
129.42775779376501
 31
0.0
  0
LINE
  5
43C
  8
0
 10
226.80613759488821
 20
138.9277577937649
 30
0.0
 11
226.80613759488821
 21
107.9277577937651
 31
0.0
  0
LINE
  5
43D
  8
0
 10
231.10613759488831
 20
107.427757793765
 30
0.0
 11
227.30613759488821
 21
107.4277577937651
 31
0.0
  0
ARC
  5
43E
  8
0
 10
231.10613759488831
 20
107.927757793765
 30
0.0
 40
0.5
 50
270.0
 51
0.0
  0
ARC
  5
43F
  8
0
 10
227.30613759488821
 20
107.9277577937651
 30
0.0
 40
0.5
 50
180.0
 51
270.0
  0
ARC
  5
440
  8
0
 10
227.30613759488821
 20
138.9277577937649
 30
0.0
 40
0.5
 50
90.0
 51
180.0
  0
ARC
  5
441
  8
0
 10
238.4704411258833
 20
124.86592486718681
 30
0.0
 40
2.4631578947368422
 50
1.879376083622758
 51
43.72123483080162
  0
ARC
  5
442
  8
0
 10
243.33227405245381
 20
123.427757793765
 30
0.0
 40
4.4000000000000004
 50
108.55300453502041
 51
251.44699546497969
  0
ARC
  5
443
  8
0
 10
238.4704411258833
 20
121.9895907203279
 30
0.0
 40
2.4631578947368422
 50
316.2787651694494
 51
358.12062391637733
  0
LINE
  5
444
  8
0
 10
240.93227405245381
 20
121.9088104253518
 30
0.0
 11
240.93227405245381
 21
124.9467051621782
 31
0.0
  0
ARC
  5
445
  8
0
 10
231.10613759488811
 20
107.927757793765
 30
0.0
 40
0.5
 50
270.0
 51
0.0
  0
CIRCLE
  5
446
  8
3
 10
236.43227405245381
 20
112.927757793765
 30
0.0
 40
2.5
  0
CIRCLE
  5
447
  8
0
 10
236.43227405245381
 20
112.927757793765
 30
0.0
 40
2.0669999999999988
  0
LINE
  5
448
  8
1
 10
230.93227405245381
 20
112.927757793765
 30
0.0
 11
241.93227405245381
 21
112.927757793765
 31
0.0
  0
LINE
  5
449
  8
0
 10
231.60613759488811
 20
113.427757793765
 30
0.0
 11
231.60613759488811
 21
107.927757793765
 31
0.0
  0
ARC
  5
44A
  8
0
 10
236.43227405245381
 20
113.427757793765
 30
0.0
 40
4.8261364575656946
 50
100.82170162899131
 51
180.0000000000004
  0
LINE
  5
44B
  8
1
 10
236.43227405245381
 20
118.427757793765
 30
0.0
 11
236.43227405245381
 21
107.427757793765
 31
0.0
  0
ARC
  5
44C
  8
0
 10
235.43227405245381
 20
118.65917534206029
 30
0.0
 40
0.5
 50
280.82170162899138
 51
0.0
  0
LINE
  5
44D
  8
0
 10
241.93227405245381
 20
103.427757793765
 30
0.0
 11
208.93227405245361
 21
103.427757793765
 31
0.0
  0
LINE
  5
44E
  8
1
 10
180.6745312190082
 20
77.153806909842672
 30
0.0
 11
180.6745312190082
 21
34.153806909842672
 31
0.0
  0
ARC
  5
44F
  8
0
 10
180.67453121900829
 20
63.653806909842672
 30
0.0
 40
8.5
 50
306.03187907246848
 51
233.96812092753069
  0
LINE
  5
450
  8
1
 10
194.1745312190082
 20
63.653806909842672
 30
0.0
 11
162.1745312190082
 21
63.653806909842672
 31
0.0
  0
LINE
  5
451
  8
0
 10
185.67453121900829
 20
44.153806909842658
 30
0.0
 11
185.6745312190082
 21
56.779943367408919
 31
0.0
  0
LINE
  5
452
  8
0
 10
175.67453121900829
 20
44.153806909842658
 30
0.0
 11
175.6745312190082
 21
56.779943367408919
 31
0.0
  0
LINE
  5
453
  8
1
 10
190.6745312190082
 20
44.153806909842658
 30
0.0
 11
170.6745312190082
 21
44.153806909842658
 31
0.0
  0
ARC
  5
454
  8
0
 10
180.6745312190082
 20
44.153806909842658
 30
0.0
 40
5.0
 50
180.0
 51
0.0
  0
ARC
  5
455
  8
0
 10
180.67453121900829
 20
63.653806909842672
 30
0.0
 40
9.5
 50
155.0989376296325
 51
204.90106237036741
  0
ARC
  5
456
  8
0
 10
180.67453121900829
 20
63.653806909842672
 30
0.0
 40
13.5
 50
162.76471474291219
 51
197.23528525708781
  0
LINE
  5
457
  8
0
 10
167.7807342607806
 20
59.653806909842672
 30
0.0
 11
173.1745312190082
 21
59.653806909842672
 31
0.0
  0
LINE
  5
458
  8
0
 10
167.7807342607806
 20
67.653806909842672
 30
0.0
 11
173.1745312190082
 21
67.653806909842672
 31
0.0
  0
LINE
  5
46E
  8
0
 10
167.78073426078069
 20
198.52455450201481
 30
0.0
 11
173.17453121900829
 21
198.52455450201481
 31
0.0
  0
LINE
  5
46F
  8
0
 10
167.78073426078069
 20
206.52455450201481
 30
0.0
 11
173.17453121900829
 21
206.52455450201481
 31
0.0
  0
ARC
  5
470
  8
0
 10
180.6745312190084
 20
202.52455450201481
 30
0.0
 40
13.5
 50
162.76471474291219
 51
197.23528525708781
  0
LINE
  5
473
  8
0
 10
286.0979900494612
 20
171.92775779376441
 30
0.0
 11
277.65701854139411
 21
171.92775779376441
 31
0.0
  0
ARC
  5
475
  8
0
 10
281.87750429542763
 20
160.42775779376441
 30
0.0
 40
12.25
 50
110.1530742571085
 51
159.8469257428917
  0
LINE
  5
477
  8
0
 10
270.37750429542763
 20
164.64824354779799
 30
0.0
 11
270.37750429542763
 21
156.2072720397309
 31
0.0
  0
LINE
  5
478
  8
0
 10
277.657018541394
 20
148.92775779376441
 30
0.0
 11
286.09799004946109
 21
148.92775779376441
 31
0.0
  0
LINE
  5
479
  8
0
 10
293.37750429542763
 20
156.20727203973081
 30
0.0
 11
293.37750429542763
 21
164.6482435477979
 31
0.0
  0
ARC
  5
47A
  8
0
 10
281.87750429542763
 20
160.42775779376441
 30
0.0
 40
12.25
 50
20.15307425710823
 51
69.846925742891486
  0
ARC
  5
47B
  8
0
 10
281.87750429542763
 20
160.42775779376441
 30
0.0
 40
12.25
 50
200.1530742571083
 51
249.84692574289119
  0
ARC
  5
47C
  8
0
 10
281.87750429542763
 20
160.42775779376441
 30
0.0
 40
12.25
 50
290.15307425710881
 51
339.84692574289181
  0
ARC
  5
47F
  8
0
 10
283.87750429542763
 20
166.42775779376441
 30
0.0
 40
2.5
 50
270.0
 51
90.0
  0
ARC
  5
481
  8
0
 10
279.87750429542763
 20
166.42775779376441
 30
0.0
 40
2.5
 50
90.0
 51
270.0
  0
LINE
  5
482
  8
0
 10
279.87750429542763
 20
168.92775779376441
 30
0.0
 11
283.87750429542763
 21
168.92775779376441
 31
0.0
  0
LINE
  5
483
  8
0
 10
279.87750429542763
 20
163.92775779376441
 30
0.0
 11
283.87750429542763
 21
163.92775779376441
 31
0.0
  0
LINE
  5
487
  8
0
 10
306.36021851296192
 20
148.92775779376441
 30
0.0
 11
306.36021851296192
 21
171.92775779376441
 31
0.0
  0
LINE
  5
489
  8
0
 10
306.36021851296192
 20
171.92775779376441
 30
0.0
 11
301.36021851296192
 21
171.92775779376441
 31
0.0
  0
LINE
  5
48A
  8
0
 10
301.36021851296192
 20
171.92775779376441
 30
0.0
 11
301.36021851296192
 21
171.92775779376441
 31
0.0
  0
LINE
  5
48B
  8
0
 10
301.36021851296192
 20
171.92775779376441
 30
0.0
 11
301.36021851296192
 21
148.92775779376441
 31
0.0
  0
LINE
  5
48C
  8
0
 10
301.36021851296192
 20
148.92775779376441
 30
0.0
 11
306.36021851296192
 21
148.92775779376441
 31
0.0
  0
LINE
  5
48D
  8
0
 10
323.84293273049622
 20
163.92775779376441
 30
0.0
 11
327.8429327304961
 21
163.92775779376441
 31
0.0
  0
LINE
  5
48E
  8
0
 10
323.84293273049622
 20
168.92775779376441
 30
0.0
 11
327.8429327304961
 21
168.92775779376441
 31
0.0
  0
ARC
  5
48F
  8
0
 10
323.84293273049622
 20
166.42775779376441
 30
0.0
 40
2.5
 50
90.0
 51
270.0
  0
ARC
  5
490
  8
0
 10
327.8429327304961
 20
166.42775779376441
 30
0.0
 40
2.5
 50
270.0
 51
90.0
  0
ARC
  5
491
  8
0
 10
325.8429327304961
 20
160.42775779376441
 30
0.0
 40
12.25
 50
290.15307425710881
 51
339.84692574289181
  0
ARC
  5
492
  8
0
 10
325.8429327304961
 20
160.42775779376441
 30
0.0
 40
12.25
 50
200.1530742571083
 51
249.84692574289119
  0
ARC
  5
493
  8
0
 10
325.8429327304961
 20
160.42775779376441
 30
0.0
 40
12.25
 50
20.15307425710823
 51
69.846925742891486
  0
LINE
  5
494
  8
0
 10
337.3429327304961
 20
156.20727203973081
 30
0.0
 11
337.3429327304961
 21
164.6482435477979
 31
0.0
  0
LINE
  5
495
  8
0
 10
321.62244697646253
 20
148.92775779376441
 30
0.0
 11
330.06341848452962
 21
148.92775779376441
 31
0.0
  0
LINE
  5
496
  8
0
 10
314.3429327304961
 20
164.64824354779799
 30
0.0
 11
314.3429327304961
 21
156.2072720397309
 31
0.0
  0
ARC
  5
497
  8
0
 10
325.8429327304961
 20
160.42775779376441
 30
0.0
 40
12.25
 50
110.1530742571085
 51
159.8469257428917
  0
LINE
  5
498
  8
0
 10
330.06341848452968
 20
171.92775779376441
 30
0.0
 11
321.62244697646258
 21
171.92775779376441
 31
0.0
  0
LINE
  5
499
  8
0
 10
345.32564694803028
 20
148.9277577937645
 30
0.0
 11
350.32564694803028
 21
148.9277577937645
 31
0.0
  0
LINE
  5
49A
  8
0
 10
345.32564694803028
 20
171.92775779376441
 30
0.0
 11
345.32564694803028
 21
148.9277577937645
 31
0.0
  0
LINE
  5
49B
  8
0
 10
345.32564694803028
 20
171.92775779376441
 30
0.0
 11
345.32564694803028
 21
171.92775779376441
 31
0.0
  0
LINE
  5
49C
  8
0
 10
350.32564694803028
 20
171.92775779376441
 30
0.0
 11
345.32564694803028
 21
171.92775779376441
 31
0.0
  0
LINE
  5
49D
  8
0
 10
350.32564694803028
 20
148.9277577937645
 30
0.0
 11
350.32564694803028
 21
171.92775779376441
 31
0.0
  0
LINE
  5
4B8
  8
5
 10
178.6745312190084
 20
163.92775779376441
 30
0.0
 11
182.67453121900829
 21
163.92775779376441
 31
0.0
  0
LINE
  5
4B9
  8
5
 10
178.6745312190084
 20
168.92775779376441
 30
0.0
 11
182.67453121900829
 21
168.92775779376441
 31
0.0
  0
ARC
  5
4BA
  8
5
 10
178.6745312190084
 20
166.42775779376441
 30
0.0
 40
2.5
 50
90.0
 51
270.0
  0
ARC
  5
4BB
  8
5
 10
182.67453121900829
 20
166.42775779376441
 30
0.0
 40
2.5
 50
270.0
 51
90.0
  0
ARC
  5
4BC
  8
5
 10
180.67453121900829
 20
160.42775779376441
 30
0.0
 40
12.25
 50
290.15307425710881
 51
339.84692574289181
  0
ARC
  5
4BD
  8
5
 10
180.67453121900829
 20
160.42775779376441
 30
0.0
 40
12.25
 50
200.1530742571083
 51
249.84692574289119
  0
ARC
  5
4BE
  8
5
 10
180.67453121900829
 20
160.42775779376441
 30
0.0
 40
12.25
 50
20.15307425710823
 51
69.846925742891486
  0
LINE
  5
4BF
  8
5
 10
192.17453121900829
 20
156.20727203973081
 30
0.0
 11
192.17453121900829
 21
164.6482435477979
 31
0.0
  0
LINE
  5
4C0
  8
5
 10
176.45404546497471
 20
148.92775779376441
 30
0.0
 11
184.89501697304181
 21
148.92775779376441
 31
0.0
  0
LINE
  5
4C1
  8
5
 10
169.17453121900829
 20
164.64824354779799
 30
0.0
 11
169.17453121900829
 21
156.2072720397309
 31
0.0
  0
ARC
  5
4C2
  8
5
 10
180.67453121900829
 20
160.42775779376441
 30
0.0
 40
12.25
 50
110.1530742571085
 51
159.8469257428917
  0
LINE
  5
4C3
  8
5
 10
184.89501697304189
 20
171.92775779376441
 30
0.0
 11
176.4540454649748
 21
171.92775779376441
 31
0.0
  0
ARC
  5
4C4
  8
5
 10
174.51825663457589
 20
148.04886672109291
 30
0.0
 40
1.999999999999446
 50
345.96375653207377
 51
28.152329838050051
  0
ARC
  5
4C6
  8
5
 10
186.8308077965273
 20
148.04886672109291
 30
0.0
 40
1.999999999999446
 50
151.8476388472848
 51
194.03624346792631
  0
TEXT
  5
56B
  8
0
 62
     3
 10
0.0
 20
0.0
 30
0.0
 40
10.0
  1
PFC17KY
  7
STANDARD1
  0
ENDSEC
  0
EOF
