  0
SECTION
  2
HEADER
  9
$ACADVER
  1
AC1009
  9
$INSBASE
 10
0.0
 20
0.0
 30
0.0
  9
$EXTMIN
 10
0.0
 20
-1.4802182810368341
 30
0.0
  9
$EXTMAX
 10
48.000000000000057
 20
90.0
 30
0.0
  9
$LIMMIN
 10
0.0
 20
0.0
  9
$LIMMAX
 10
12.0
 20
9.0
  9
$ORTHOMODE
 70
     0
  9
$REGENMODE
 70
     1
  9
$FILLMODE
 70
     1
  9
$QTEXTMODE
 70
     0
  9
$MIRRTEXT
 70
     0
  9
$DRAGMODE
 70
     2
  9
$LTSCALE
 40
0.5
  9
$OSMODE
 70
    37
  9
$ATTMODE
 70
     1
  9
$TEXTSIZE
 40
0.2
  9
$TRACEWID
 40
0.05
  9
$TEXTSTYLE
  7
STANDARD
  9
$CLAYER
  8
0
  9
$CELTYPE
  6
BYLAYER
  9
$CECOLOR
 62
   256
  9
$DIMSCALE
 40
1.0
  9
$DIMASZ
 40
1.0
  9
$DIMEXO
 40
2.54
  9
$DIMDLI
 40
0.38
  9
$DIMRND
 40
0.0
  9
$DIMDLE
 40
0.0
  9
$DIMEXE
 40
2.54
  9
$DIMTP
 40
0.0
  9
$DIMTM
 40
0.0
  9
$DIMTXT
 40
3.2000000000000002
  9
$DIMCEN
 40
0.09
  9
$DIMTSZ
 40
0.0
  9
$DIMTOL
 70
     0
  9
$DIMLIM
 70
     0
  9
$DIMTIH
 70
     0
  9
$DIMTOH
 70
     0
  9
$DIMSE1
 70
     0
  9
$DIMSE2
 70
     0
  9
$DIMTAD
 70
     1
  9
$DIMZIN
 70
     0
  9
$DIMBLK
  1

  9
$DIMASO
 70
     1
  9
$DIMSHO
 70
     0
  9
$DIMPOST
  1

  9
$DIMAPOST
  1

  9
$DIMALT
 70
     0
  9
$DIMALTD
 70
     2
  9
$DIMALTF
 40
25.399999999999999
  9
$DIMLFAC
 40
1.0
  9
$DIMTOFL
 70
     0
  9
$DIMTVP
 40
1.0
  9
$DIMTIX
 70
     0
  9
$DIMSOXD
 70
     0
  9
$DIMSAH
 70
     0
  9
$DIMBLK1
  1

  9
$DIMBLK2
  1

  9
$DIMSTYLE
  2
STANDARD
  9
$DIMCLRD
 70
     0
  9
$DIMCLRE
 70
     0
  9
$DIMCLRT
 70
     0
  9
$DIMTFAC
 40
1.0
  9
$DIMGAP
 40
1.6000000000000001
  9
$LUNITS
 70
     2
  9
$LUPREC
 70
     1
  9
$SKETCHINC
 40
0.1
  9
$FILLETRAD
 40
0.5
  9
$AUNITS
 70
     0
  9
$AUPREC
 70
     1
  9
$MENU
  1
.
  9
$ELEVATION
 40
0.0
  9
$PELEVATION
 40
0.0
  9
$THICKNESS
 40
0.0
  9
$LIMCHECK
 70
     0
  9
$BLIPMODE
 70
     0
  9
$CHAMFERA
 40
0.2
  9
$CHAMFERB
 40
0.2
  9
$SKPOLY
 70
     0
  9
$TDCREATE
 40
2453173.4709223039
  9
$TDUPDATE
 40
2458824.5996214822
  9
$TDINDWG
 40
2.2143995369999998
  9
$TDUSRTIMER
 40
2456598.3175058332
  9
$USRTIMER
 70
     1
  9
$ANGBASE
 50
0.0
  9
$ANGDIR
 70
     0
  9
$PDMODE
 70
     0
  9
$PDSIZE
 40
0.0
  9
$PLINEWID
 40
0.0
  9
$COORDS
 70
     1
  9
$SPLFRAME
 70
     0
  9
$SPLINETYPE
 70
     6
  9
$SPLINESEGS
 70
     8
  9
$ATTDIA
 70
     0
  9
$ATTREQ
 70
     1
  9
$HANDLING
 70
     1
  9
$HANDSEED
  5
5C4C
  9
$SURFTAB1
 70
     6
  9
$SURFTAB2
 70
     6
  9
$SURFTYPE
 70
     6
  9
$SURFU
 70
     6
  9
$SURFV
 70
     6
  9
$UCSNAME
  2

  9
$UCSORG
 10
0.0
 20
0.0
 30
0.0
  9
$UCSXDIR
 10
1.0
 20
0.0
 30
0.0
  9
$UCSYDIR
 10
0.0
 20
1.0
 30
0.0
  9
$PUCSNAME
  2

  9
$PUCSORG
 10
0.0
 20
0.0
 30
0.0
  9
$PUCSXDIR
 10
1.0
 20
0.0
 30
0.0
  9
$PUCSYDIR
 10
0.0
 20
1.0
 30
0.0
  9
$USERI1
 70
     0
  9
$USERI2
 70
     0
  9
$USERI3
 70
     0
  9
$USERI4
 70
     0
  9
$USERI5
 70
     0
  9
$USERR1
 40
0.0
  9
$USERR2
 40
0.0
  9
$USERR3
 40
0.0
  9
$USERR4
 40
0.0
  9
$USERR5
 40
0.0
  9
$WORLDVIEW
 70
     1
  9
$SHADEDGE
 70
     3
  9
$SHADEDIF
 70
    70
  9
$TILEMODE
 70
     1
  9
$MAXACTVP
 70
    64
  9
$PLIMCHECK
 70
     0
  9
$PEXTMIN
 10
1.0000000000000000E+020
 20
1.0000000000000000E+020
 30
1.0000000000000000E+020
  9
$PEXTMAX
 10
-1.0000000000000000E+020
 20
-1.0000000000000000E+020
 30
-1.0000000000000000E+020
  9
$PLIMMIN
 10
0.0
 20
0.0
  9
$PLIMMAX
 10
12.0
 20
9.0
  9
$UNITMODE
 70
     0
  9
$VISRETAIN
 70
     1
  9
$PLINEGEN
 70
     0
  9
$PSLTSCALE
 70
     1
  0
ENDSEC
  0
SECTION
  2
TABLES
  0
TABLE
  2
VPORT
 70
     1
  0
VPORT
  2
*ACTIVE
 70
     0
 10
0.0
 20
0.0
 11
1.0
 21
1.0
 12
67.634077679481237
 22
33.26233155139434
 13
0.0
 23
0.0
 14
1.0
 24
1.0
 15
0.0
 25
0.0
 16
0.0
 26
0.0
 36
1.0
 17
0.0
 27
0.0
 37
0.0
 40
165.17210884767439
 41
2.3366214549938338
 42
50.0
 43
0.0
 44
0.0
 50
0.0
 51
0.0
 71
     0
 72
   100
 73
     1
 74
     1
 75
     0
 76
     0
 77
     0
 78
     0
  0
ENDTAB
  0
TABLE
  2
LTYPE
 70
     4
  0
LTYPE
  2
CONTINUOUS
 70
     0
  3
Solid line
 72
    65
 73
     0
 40
0.0
  0
LTYPE
  2
CENTER
 70
     0
  3
Center ____ _ ____ _ ____ _ ____ _ ____ _ ____
 72
    65
 73
     4
 40
12.0
 49
7.5
 49
-1.5
 49
1.5
 49
-1.5
  0
LTYPE
  2
HIDDEN
 70
     0
  3
Hidden __ __ __ __ __ __ __ __ __ __ __ __ __ _
 72
    65
 73
     2
 40
4.5
 49
3.0
 49
-1.5
  0
LTYPE
  2
PHANTOM2
 70
     0
  3
___ _ _ ___ _ _ ___ _ _ ___ _ _
 72
    65
 73
     6
 40
1.25
 49
0.625
 49
-0.125
 49
0.125
 49
-0.125
 49
0.125
 49
-0.125
  0
ENDTAB
  0
TABLE
  2
LAYER
 70
     5
  0
LAYER
  2
0
 70
     0
 62
     7
  6
CONTINUOUS
  0
LAYER
  2
1
 70
     0
 62
     1
  6
CENTER
  0
LAYER
  2
2
 70
     0
 62
     2
  6
HIDDEN
  0
LAYER
  2
3
 70
     0
 62
     3
  6
CONTINUOUS
  0
LAYER
  2
DEFPOINTS
 70
     0
 62
     7
  6
CONTINUOUS
  0
ENDTAB
  0
TABLE
  2
STYLE
 70
     2
  0
STYLE
  2
STANDARD
 70
     0
 40
0.0
 41
1.0
 50
0.0
 71
     0
 42
0.2
  3
simplex.shx
  4
bigfont.shx
  0
STYLE
  2
STANDARD1
 70
     0
 40
0.0
 41
1.0
 50
0.0
 71
     0
 42
3.0
  3
txt
  4

  0
ENDTAB
  0
TABLE
  2
VIEW
 70
     0
  0
ENDTAB
  0
TABLE
  2
UCS
 70
     0
  0
ENDTAB
  0
TABLE
  2
APPID
 70
     7
  0
APPID
  2
ACAD
 70
     0
  0
APPID
  2
ACAD_EXEMPT_FROM_CAD_STANDARDS
 70
     0
  0
APPID
  2
ACAD_NAV_VCDISPLAY
 70
     0
  0
APPID
  2
ACAD_DSTYLE_DIMJAG
 70
     0
  0
APPID
  2
ACAD_DSTYLE_DIMTALN
 70
     0
  0
APPID
  2
ACAD_DSTYLE_DIMRADIAL_EXTENSION
 70
     0
  0
APPID
  2
ACAD_MLEADERVER
 70
     0
  0
ENDTAB
  0
TABLE
  2
DIMSTYLE
 70
     1
  0
DIMSTYLE
  2
STANDARD
 70
     0
  3

  4

  5

  6

  7

 40
1.0
 41
0.18
 42
0.0625
 43
0.38
 44
0.18
 45
0.0
 46
0.0
 47
0.0
 48
0.0
140
0.18
141
0.09
142
0.0
143
25.399999999999999
144
1.0
145
0.0
146
1.0
147
0.09
 71
     0
 72
     0
 73
     1
 74
     1
 75
     0
 76
     0
 77
     0
 78
     0
170
     0
171
     2
172
     0
173
     0
174
     0
175
     0
176
     0
177
     0
178
     0
  0
ENDTAB
  0
ENDSEC
  0
SECTION
  2
BLOCKS
  0
BLOCK
  8
0
  2
$MODEL_SPACE
 70
     0
 10
0.0
 20
0.0
 30
0.0
  3
$MODEL_SPACE
  1

  0
ENDBLK
  5
9
  8
0
  0
BLOCK
 67
     1
  8
0
  2
$PAPER_SPACE
 70
     0
 10
0.0
 20
0.0
 30
0.0
  3
$PAPER_SPACE
  1

  0
ENDBLK
  5
E
 67
     1
  8
0
  0
ENDSEC
  0
SECTION
  2
ENTITIES
  0
TEXT
  5
4B0A
  8
0
 62
     3
 10
0.0
 20
0.0
 30
0.0
 40
5.0
  1
PEPP16S
  7
STANDARD1
  0
ARC
  5
4E59
  8
0
 10
46.127000000000059
 20
44.924663447877627
 30
0.0
 40
0.3810000000000117
 50
109.47122063449299
 51
250.52877936551391
  0
ARC
  5
4E5A
  8
0
 10
29.873000000000051
 20
44.924663447877627
 30
0.0
 40
0.3810000000000117
 50
289.47122063448609
 51
70.528779365507006
  0
LINE
  5
4E5B
  8
0
 10
30.0
 20
47.130913447877617
 30
0.0
 11
30.0
 21
45.283873692720391
 31
0.0
  0
LINE
  5
4E5C
  8
0
 10
46.00000000000005
 20
45.283873692720391
 30
0.0
 11
46.00000000000005
 21
47.130913447877617
 31
0.0
  0
LINE
  5
4E5D
  8
0
 10
30.0
 20
44.565453203034849
 30
0.0
 11
30.0
 21
41.580913447877599
 31
0.0
  0
LINE
  5
4E5E
  8
0
 10
46.00000000000005
 20
41.580913447877627
 30
0.0
 11
46.00000000000005
 21
44.565453203034849
 31
0.0
  0
LINE
  5
4E5F
  8
0
 10
30.075000000000049
 20
41.009913447877643
 30
0.0
 11
30.254000000000019
 21
40.830913447877627
 31
0.0
  0
LINE
  5
4E60
  8
0
 10
45.746000000000031
 20
40.830913447877627
 30
0.0
 11
45.925000000000068
 21
41.009913447877643
 31
0.0
  0
LINE
  5
4E61
  8
0
 10
45.925000000000068
 20
41.009913447877643
 30
0.0
 11
45.925000000000068
 21
41.580913447877627
 31
0.0
  0
LINE
  5
4E62
  8
0
 10
30.075000000000049
 20
41.580913447877599
 30
0.0
 11
30.075000000000049
 21
41.009913447877643
 31
0.0
  0
ARC
  5
4E63
  8
0
 10
45.75000000000005
 20
47.924663447877627
 30
0.0
 40
0.793750000000003
 50
90.0
 51
270.0
  0
ARC
  5
4E64
  8
0
 10
30.25
 20
47.924663447877627
 30
0.0
 40
0.7937500000000171
 50
270.0
 51
90.0
  0
LINE
  5
4E65
  8
0
 10
30.048679445527121
 20
59.679592893404731
 30
0.0
 11
30.0
 21
54.101480941412433
 31
0.0
  0
LINE
  5
4E66
  8
0
 10
30.0
 20
54.101480941412433
 30
0.0
 11
30.0
 21
48.718413447877623
 31
0.0
  0
LINE
  5
4E67
  8
0
 10
46.00000000000005
 20
48.718413447877623
 30
0.0
 11
46.00000000000005
 21
54.101480941412433
 31
0.0
  0
LINE
  5
4E68
  8
0
 10
46.00000000000005
 20
54.101480941412433
 30
0.0
 11
45.951320554472943
 21
59.679592893404731
 31
0.0
  0
LINE
  5
4E69
  8
0
 10
30.200000000000049
 20
59.830913447877599
 30
0.0
 11
30.048679445527121
 21
59.679592893404731
 31
0.0
  0
LINE
  5
4E6A
  8
0
 10
45.951320554472943
 20
59.679592893404731
 30
0.0
 11
45.800000000000068
 21
59.830913447877599
 31
0.0
  0
ARC
  5
4E6B
  8
0
 10
42.375150000000083
 20
58.98399999999998
 30
0.0
 40
1.0160000000000049
 50
56.467875116343912
 51
90.0
  0
ARC
  5
4E6C
  8
0
 10
33.624850000000038
 20
58.98399999999998
 30
0.0
 40
1.0160000000000049
 50
90.0
 51
123.5321248836561
  0
LINE
  5
4EB3
  8
0
 10
46.00000000000005
 20
44.565453203034849
 30
0.0
 11
30.0
 21
44.565453203034849
 31
0.0
  0
LINE
  5
4EB5
  8
0
 10
30.00000000000006
 20
45.283873692720391
 30
0.0
 11
46.0
 21
45.283873692720391
 31
0.0
  0
LINE
  5
4EB6
  8
0
 10
46.00000000000005
 20
47.130913447877617
 30
0.0
 11
30.0
 21
47.130913447877617
 31
0.0
  0
LINE
  5
4EB7
  8
0
 10
46.00000000000005
 20
41.580913447877627
 30
0.0
 11
30.0
 21
41.580913447877599
 31
0.0
  0
LINE
  5
4EB8
  8
0
 10
44.763994781696113
 20
54.101480941412767
 30
0.0
 11
38.317500000000052
 21
54.101480941422828
 31
0.0
  0
LINE
  5
4EB9
  8
0
 10
44.763994781696113
 20
54.101480941412767
 30
0.0
 11
44.763994781696113
 21
48.718413447877623
 31
0.0
  0
LINE
  5
4EBB
  8
0
 10
38.317500000000052
 20
48.718413447877623
 30
0.0
 11
44.763994781696113
 21
48.718413447877623
 31
0.0
  0
LINE
  5
4EBC
  8
0
 10
37.682499999999997
 20
59.679592893404731
 30
0.0
 11
31.278196298989659
 21
59.679592893404731
 31
0.0
  0
LINE
  5
4EBD
  8
0
 10
31.236005218303951
 20
54.101480941408617
 30
0.0
 11
37.682499999999997
 21
54.101480941412603
 31
0.0
  0
LINE
  5
4EBE
  8
0
 10
31.236005218303951
 20
54.101480941408617
 30
0.0
 11
31.278196298989659
 21
59.679592893404731
 31
0.0
  0
LINE
  5
4EC0
  8
0
 10
31.236005218303951
 20
48.718413447877623
 30
0.0
 11
31.236005218303951
 21
54.101480941408617
 31
0.0
  0
LINE
  5
4EC1
  8
0
 10
31.236005218303951
 20
48.718413447877623
 30
0.0
 11
37.682499999999997
 21
48.718413447877623
 31
0.0
  0
LINE
  5
4EC3
  8
0
 10
44.721803701010451
 20
59.679592893404731
 30
0.0
 11
38.317500000000052
 21
59.679592893404731
 31
0.0
  0
LINE
  5
4EC4
  8
0
 10
44.721803701010451
 20
59.679592893404731
 30
0.0
 11
44.763994781696113
 21
54.101480941412767
 31
0.0
  0
LINE
  5
4EC6
  8
0
 10
45.800000000000118
 20
59.830913447877599
 30
0.0
 11
38.317500000000052
 21
59.830913447877599
 31
0.0
  0
LINE
  5
4EC7
  8
0
 10
44.721803701010451
 20
59.679592893404731
 30
0.0
 11
44.590649626077891
 21
59.830913447877599
 31
0.0
  0
LINE
  5
4EC8
  8
0
 10
38.317500000000052
 20
59.830913447877599
 30
0.0
 11
38.317500000000052
 21
47.830913447877627
 31
0.0
  0
LINE
  5
4EC9
  8
0
 10
31.40935037392217
 20
59.830913447877599
 30
0.0
 11
31.278196298989659
 21
59.679592893404731
 31
0.0
  0
LINE
  5
4ECA
  8
0
 10
37.682499999999997
 20
59.830913447877599
 30
0.0
 11
30.200000000000049
 21
59.830913447877599
 31
0.0
  0
LINE
  5
4ECB
  8
0
 10
37.682500000000061
 20
47.830913447877627
 30
0.0
 11
37.682499999999997
 21
59.830913447877599
 31
0.0
  0
LINE
  5
4ECC
  8
0
 10
45.746000000000031
 20
40.830913447877627
 30
0.0
 11
30.254000000000019
 21
40.830913447877627
 31
0.0
  0
LINE
  5
4ECD
  8
0
 10
45.925000000000068
 20
41.009913447877643
 30
0.0
 11
30.075000000000049
 21
41.009913447877643
 31
0.0
  0
LINE
  5
4ECE
  8
0
 10
43.864077488164121
 20
47.830913447877627
 30
0.0
 11
44.181577488164123
 21
47.830913447877627
 31
0.0
  0
ARC
  5
4ECF
  8
0
 10
44.9336571724292
 20
47.958672336835541
 30
0.0
 40
0.7628539737014082
 50
95.177793122954128
 51
189.64103642910661
  0
ARC
  5
4ED0
  8
0
 10
31.060180206088379
 20
47.953928092384267
 30
0.0
 40
0.7681562321484272
 50
350.78481848857132
 51
84.396351959368232
  0
LINE
  5
4ED1
  8
0
 10
31.81842251183593
 20
47.830913447877627
 30
0.0
 11
32.135922511835929
 21
47.830913447877627
 31
0.0
  0
ARC
  5
4ED2
  8
0
 10
31.383842827571019
 20
47.958672336835598
 30
0.0
 40
0.762853973701329
 50
350.35896357088927
 51
84.822206877049155
  0
LINE
  5
4ED3
  8
0
 10
37.682499999999997
 20
47.830913447877627
 30
0.0
 11
38.317500000000052
 21
47.830913447877627
 31
0.0
  0
ARC
  5
4ED4
  8
0
 10
44.622319793911743
 20
47.95392809238416
 30
0.0
 40
0.7681562321485204
 50
95.603648040638319
 51
189.21518151142311
  0
LINE
  5
4ED7
  8
0
 10
30.918505218303949
 20
54.101480941408447
 30
0.0
 11
30.96069629898966
 21
59.679592893404731
 31
0.0
  0
LINE
  5
4ED8
  8
0
 10
30.96069629898966
 20
59.679592893404731
 30
0.0
 11
31.091850373922171
 21
59.830913447877599
 31
0.0
  0
LINE
  5
4EDA
  8
0
 10
31.135187793868909
 20
48.718413447877623
 30
0.0
 11
30.0
 21
48.718413447877623
 31
0.0
  0
LINE
  5
4EDB
  8
0
 10
30.918505218303949
 20
48.718413447877623
 30
0.0
 11
30.918505218303949
 21
54.101480941408447
 31
0.0
  0
LINE
  5
4EDC
  8
0
 10
45.039303701010454
 20
59.679592893404731
 30
0.0
 11
45.081494781696101
 21
54.10148094141158
 31
0.0
  0
LINE
  5
4EDD
  8
0
 10
45.081494781696101
 20
54.10148094141158
 30
0.0
 11
45.081494781696101
 21
48.718413447877623
 31
0.0
  0
LINE
  5
4EDF
  8
0
 10
44.908149626077943
 20
59.830913447877599
 30
0.0
 11
45.039303701010454
 21
59.679592893404731
 31
0.0
  0
LINE
  5
4EE0
  8
0
 10
46.000000000000107
 20
48.718413447877623
 30
0.0
 11
44.864812206131141
 21
48.718413447877623
 31
0.0
  0
LINE
  5
4EE1
  8
0
 10
30.96069629898966
 20
59.679592893404731
 30
0.0
 11
30.048679445527121
 21
59.679592893404731
 31
0.0
  0
LINE
  5
4EE4
  8
0
 10
45.951320554473
 20
59.679592893404731
 30
0.0
 11
45.039303701010454
 21
59.679592893404731
 31
0.0
  0
LINE
  5
4EE7
  8
0
 10
42.375150000000083
 20
60.0
 30
0.0
 11
33.624850000000038
 21
60.0
 31
0.0
  0
LINE
  5
4EE9
  8
0
 10
37.682499999999997
 20
51.999999999991353
 30
0.0
 11
38.317500000000052
 21
51.999999999991353
 31
0.0
  0
LINE
  5
4F24
  8
0
 10
30.0
 20
54.101480941409022
 30
0.0
 11
30.918505218303949
 21
54.101480941408447
 31
0.0
  0
LINE
  5
4F25
  8
0
 10
45.081494781696101
 20
54.10148094141158
 30
0.0
 11
46.00000000000005
 21
54.101480941411687
 31
0.0
  0
LINE
  5
4F26
  8
0
 10
38.317500000000052
 20
58.790138060685393
 30
0.0
 11
37.682499999999997
 21
58.790138060685393
 31
0.0
  0
LINE
  5
4F48
  8
2
 10
33.947385916947717
 20
51.999999999991353
 30
0.0
 11
42.052614083052333
 21
51.999999999991353
 31
0.0
  0
ARC
  5
4FD7
  8
2
 10
42.375150000000083
 20
58.98399999999998
 30
0.0
 40
1.01599999999999
 50
348.9999999992317
 51
56.467875116343912
  0
ARC
  5
4FD8
  8
2
 10
33.624850000000038
 20
58.98399999999998
 30
0.0
 40
1.01599999999999
 50
123.5321248836561
 51
191.0000000007698
  0
LINE
  5
4FD9
  8
2
 10
32.627516781629197
 20
58.790138060685393
 30
0.0
 11
33.947385916947717
 21
51.999999999991353
 31
0.0
  0
LINE
  5
4FDA
  8
2
 10
42.05261408305239
 20
51.999999999991353
 30
0.0
 11
43.37248321837091
 21
58.790138060685393
 31
0.0
  0
LINE
  5
504C
  8
2
 10
43.37248321838058
 20
58.790138060685393
 30
0.0
 11
32.627516781629197
 21
58.790138060685393
 31
0.0
  0
CIRCLE
  5
504D
  8
0
 10
38.000000000000057
 20
80.0
 30
0.0
 40
5.391149999999997
  0
LINE
  5
504E
  8
0
 10
30.918505218304009
 20
83.721885497541734
 30
0.0
 11
33.180480851632467
 21
82.415933256739166
 31
0.0
  0
LINE
  5
5050
  8
0
 10
30.918505218304009
 20
76.278114502458237
 30
0.0
 11
33.180480851632531
 21
77.584066743260806
 31
0.0
  0
LINE
  5
5055
  8
0
 10
37.682499999999997
 20
74.618207355118557
 30
0.0
 11
37.682499999999997
 21
72.00630287351342
 31
0.0
  0
LINE
  5
5057
  8
0
 10
31.236005218304001
 20
75.728188371055126
 30
0.0
 11
33.497980851632519
 21
77.034140611857708
 31
0.0
  0
LINE
  5
505C
  8
0
 10
31.236005218303951
 20
84.271811628944789
 30
0.0
 11
33.497980851632462
 21
82.965859388142263
 31
0.0
  0
LINE
  5
505D
  8
0
 10
37.682499999999997
 20
87.99369712648658
 30
0.0
 11
37.682499999999997
 21
85.381792644881443
 31
0.0
  0
LINE
  5
5066
  8
0
 10
38.317499999999988
 20
87.99369712648658
 30
0.0
 11
38.317500000000052
 21
85.381792644881443
 31
0.0
  0
LINE
  5
5068
  8
0
 10
42.502019148367587
 20
82.965859388142306
 30
0.0
 11
44.763994781696113
 21
84.271811628944874
 31
0.0
  0
LINE
  5
5069
  8
0
 10
42.81951914836759
 20
82.41593325673918
 30
0.0
 11
45.081494781696101
 21
83.721885497541749
 31
0.0
  0
LINE
  5
506B
  8
0
 10
42.81951914836759
 20
77.584066743260806
 30
0.0
 11
45.081494781696101
 21
76.278114502458237
 31
0.0
  0
LINE
  5
5070
  8
0
 10
42.502019148367587
 20
77.034140611857708
 30
0.0
 11
44.763994781696113
 21
75.728188371055154
 31
0.0
  0
LINE
  5
5071
  8
0
 10
38.317500000000052
 20
74.618207355118557
 30
0.0
 11
38.317500000000052
 21
72.00630287351342
 31
0.0
  0
ARC
  5
5096
  8
0
 10
38.000000000000057
 20
80.0
 30
0.0
 40
6.961805861478255
 50
327.38606299334742
 51
332.61393700665451
  0
ARC
  5
5097
  8
0
 10
38.000000000000057
 20
80.0
 30
0.0
 40
6.9618058614782701
 50
27.386062993346389
 51
32.613937006653551
  0
ARC
  5
5098
  8
0
 10
38.000000000000057
 20
80.0
 30
0.0
 40
6.9618058614782692
 50
87.386062993346457
 51
92.613937006653515
  0
ARC
  5
5099
  8
0
 10
38.000000000000057
 20
80.0
 30
0.0
 40
6.9618058614782674
 50
147.3860629933464
 51
152.6139370066536
  0
ARC
  5
509A
  8
0
 10
38.000000000000057
 20
80.0
 30
0.0
 40
6.9618058614782941
 50
207.3860629933464
 51
212.61393700665349
  0
ARC
  5
509B
  8
0
 10
38.000000000000057
 20
80.0
 30
0.0
 40
6.9618058614782967
 50
267.3860629933464
 51
272.61393700665349
  0
LINE
  5
50A4
  8
0
 10
39.732050807557641
 20
82.999999999980346
 30
0.0
 11
36.267949192492381
 21
83.000000000014552
 31
0.0
  0
LINE
  5
50A6
  8
0
 10
36.267949192442529
 20
82.999999999980346
 30
0.0
 11
34.535898384880277
 21
80.000000000060254
 31
0.0
  0
LINE
  5
50A8
  8
0
 10
34.535898384885058
 20
80.0
 30
0.0
 11
36.26794919238796
 21
77.000000000045645
 31
0.0
  0
LINE
  5
50AA
  8
0
 10
39.732050807557592
 20
77.000000000019611
 30
0.0
 11
41.464101615119823
 21
79.999999999939689
 31
0.0
  0
LINE
  5
50AC
  8
0
 10
36.267949192442529
 20
77.000000000019668
 30
0.0
 11
39.732050807507733
 21
76.999999999985334
 31
0.0
  0
LINE
  5
50AE
  8
0
 10
41.464101615115112
 20
79.999999999999886
 30
0.0
 11
39.732050807612161
 21
82.999999999954355
 31
0.0
  0
CIRCLE
  5
54D7
  8
0
 10
38.000000000000057
 20
80.0
 30
0.0
 40
8.0
  0
LINE
  5
5590
  8
2
 10
42.0
 20
50.828267628671199
 30
0.0
 11
34.0
 21
50.828267628671313
 31
0.0
  0
LINE
  5
5591
  8
2
 10
41.323500000000131
 20
50.828267628671227
 30
0.0
 11
42.0
 21
51.999999999991331
 31
0.0
  0
LINE
  5
5592
  8
2
 10
34.676499999999919
 20
50.828267628671227
 30
0.0
 11
34.000000000000057
 21
51.999999999991353
 31
0.0
  0
LINE
  5
5594
  8
1
 10
38.000000000000057
 20
90.0
 30
0.0
 11
38.000000000000057
 21
70.0
 31
0.0
  0
LINE
  5
5595
  8
1
 10
48.000000000000057
 20
80.0
 30
0.0
 11
28.00000000000006
 21
80.0
 31
0.0
  0
LINE
  5
5596
  8
0
 10
40.799999999999997
 20
30.0
 30
0.0
 11
35.200000000000053
 21
30.000000000000028
 31
0.0
  0
LINE
  5
5597
  8
0
 10
34.000000000000107
 20
40.830913447877627
 30
0.0
 11
34.000000000000057
 21
31.200000000000038
 31
0.0
  0
LINE
  5
5598
  8
3
 10
34.676499999999919
 20
40.830913447877627
 30
0.0
 11
34.676499999999919
 21
30.52350000000013
 31
0.0
  0
LINE
  5
5599
  8
3
 10
41.323500000000131
 20
40.830913447877627
 30
0.0
 11
41.323500000000131
 21
30.523500000000102
 31
0.0
  0
LINE
  5
559A
  8
0
 10
42.00000000000005
 20
40.830913447877627
 30
0.0
 11
42.00000000000005
 21
31.199999999999989
 31
0.0
  0
LINE
  5
559B
  8
0
 10
42.00000000000005
 20
31.199999999999989
 30
0.0
 11
40.799999999999997
 21
30.0
 31
0.0
  0
LINE
  5
559C
  8
0
 10
35.200000000000053
 20
30.000000000000028
 30
0.0
 11
34.000000000000057
 21
31.200000000000038
 31
0.0
  0
LINE
  5
559D
  8
0
 10
42.00000000000005
 20
31.199999999999928
 30
0.0
 11
34.0
 21
31.200000000000038
 31
0.0
  0
LINE
  5
55A1
  8
1
 10
38.000000000000057
 20
62.0
 30
0.0
 11
38.000000000000057
 21
28.0
 31
0.0
  0
LINE
  5
55E7
  8
2
 10
34.000000000000171
 20
51.999999999991353
 30
0.0
 11
34.000000000000057
 21
40.830913447877627
 31
0.0
  0
LINE
  5
55E8
  8
2
 10
34.676499999999919
 20
50.828267628671313
 30
0.0
 11
34.676499999999919
 21
40.830913447877663
 31
0.0
  0
LINE
  5
55E9
  8
2
 10
41.323500000000131
 20
50.828267628671199
 30
0.0
 11
41.323500000000131
 21
40.830913447877627
 31
0.0
  0
LINE
  5
55EA
  8
2
 10
42.00000000000005
 20
51.999999999991353
 30
0.0
 11
42.00000000000005
 21
40.830913447877627
 31
0.0
  0
LINE
  5
5630
  8
0
 10
37.682499999999997
 20
50.828267628671227
 30
0.0
 11
38.317500000000052
 21
50.828267628671227
 31
0.0
  0
ENDSEC
  0
EOF
