  0
SECTION
  2
HEADER
  9
$ACADVER
  1
AC1009
  9
$INSBASE
 10
0.0
 20
0.0
 30
0.0
  9
$EXTMIN
 10
0.0
 20
-1.4802182810368341
 30
0.0
  9
$EXTMAX
 10
44.0
 20
85.999999999937415
 30
0.0
  9
$LIMMIN
 10
0.0
 20
0.0
  9
$LIMMAX
 10
12.0
 20
9.0
  9
$ORTHOMODE
 70
     0
  9
$REGENMODE
 70
     1
  9
$FILLMODE
 70
     1
  9
$QTEXTMODE
 70
     0
  9
$MIRRTEXT
 70
     0
  9
$DRAGMODE
 70
     2
  9
$LTSCALE
 40
0.5
  9
$OSMODE
 70
    37
  9
$ATTMODE
 70
     1
  9
$TEXTSIZE
 40
0.2
  9
$TRACEWID
 40
0.05
  9
$TEXTSTYLE
  7
STANDARD
  9
$CLAYER
  8
0
  9
$CELTYPE
  6
BYLAYER
  9
$CECOLOR
 62
   256
  9
$DIMSCALE
 40
1.0
  9
$DIMASZ
 40
1.0
  9
$DIMEXO
 40
2.54
  9
$DIMDLI
 40
0.38
  9
$DIMRND
 40
0.0
  9
$DIMDLE
 40
0.0
  9
$DIMEXE
 40
2.54
  9
$DIMTP
 40
0.0
  9
$DIMTM
 40
0.0
  9
$DIMTXT
 40
3.2000000000000002
  9
$DIMCEN
 40
0.09
  9
$DIMTSZ
 40
0.0
  9
$DIMTOL
 70
     0
  9
$DIMLIM
 70
     0
  9
$DIMTIH
 70
     0
  9
$DIMTOH
 70
     0
  9
$DIMSE1
 70
     0
  9
$DIMSE2
 70
     0
  9
$DIMTAD
 70
     1
  9
$DIMZIN
 70
     0
  9
$DIMBLK
  1

  9
$DIMASO
 70
     1
  9
$DIMSHO
 70
     0
  9
$DIMPOST
  1

  9
$DIMAPOST
  1

  9
$DIMALT
 70
     0
  9
$DIMALTD
 70
     2
  9
$DIMALTF
 40
25.399999999999999
  9
$DIMLFAC
 40
1.0
  9
$DIMTOFL
 70
     0
  9
$DIMTVP
 40
1.0
  9
$DIMTIX
 70
     0
  9
$DIMSOXD
 70
     0
  9
$DIMSAH
 70
     0
  9
$DIMBLK1
  1

  9
$DIMBLK2
  1

  9
$DIMSTYLE
  2
STANDARD
  9
$DIMCLRD
 70
     0
  9
$DIMCLRE
 70
     0
  9
$DIMCLRT
 70
     0
  9
$DIMTFAC
 40
1.0
  9
$DIMGAP
 40
1.6000000000000001
  9
$LUNITS
 70
     2
  9
$LUPREC
 70
     1
  9
$SKETCHINC
 40
0.1
  9
$FILLETRAD
 40
0.5
  9
$AUNITS
 70
     0
  9
$AUPREC
 70
     1
  9
$MENU
  1
.
  9
$ELEVATION
 40
0.0
  9
$PELEVATION
 40
0.0
  9
$THICKNESS
 40
0.0
  9
$LIMCHECK
 70
     0
  9
$BLIPMODE
 70
     0
  9
$CHAMFERA
 40
0.2
  9
$CHAMFERB
 40
0.2
  9
$SKPOLY
 70
     0
  9
$TDCREATE
 40
2453173.4709223039
  9
$TDUPDATE
 40
2458824.5996176391
  9
$TDINDWG
 40
2.2103450809999998
  9
$TDUSRTIMER
 40
2456598.3134513772
  9
$USRTIMER
 70
     1
  9
$ANGBASE
 50
0.0
  9
$ANGDIR
 70
     0
  9
$PDMODE
 70
     0
  9
$PDSIZE
 40
0.0
  9
$PLINEWID
 40
0.0
  9
$COORDS
 70
     1
  9
$SPLFRAME
 70
     0
  9
$SPLINETYPE
 70
     6
  9
$SPLINESEGS
 70
     8
  9
$ATTDIA
 70
     0
  9
$ATTREQ
 70
     1
  9
$HANDLING
 70
     1
  9
$HANDSEED
  5
5BCF
  9
$SURFTAB1
 70
     6
  9
$SURFTAB2
 70
     6
  9
$SURFTYPE
 70
     6
  9
$SURFU
 70
     6
  9
$SURFV
 70
     6
  9
$UCSNAME
  2

  9
$UCSORG
 10
0.0
 20
0.0
 30
0.0
  9
$UCSXDIR
 10
1.0
 20
0.0
 30
0.0
  9
$UCSYDIR
 10
0.0
 20
1.0
 30
0.0
  9
$PUCSNAME
  2

  9
$PUCSORG
 10
0.0
 20
0.0
 30
0.0
  9
$PUCSXDIR
 10
1.0
 20
0.0
 30
0.0
  9
$PUCSYDIR
 10
0.0
 20
1.0
 30
0.0
  9
$USERI1
 70
     0
  9
$USERI2
 70
     0
  9
$USERI3
 70
     0
  9
$USERI4
 70
     0
  9
$USERI5
 70
     0
  9
$USERR1
 40
0.0
  9
$USERR2
 40
0.0
  9
$USERR3
 40
0.0
  9
$USERR4
 40
0.0
  9
$USERR5
 40
0.0
  9
$WORLDVIEW
 70
     1
  9
$SHADEDGE
 70
     3
  9
$SHADEDIF
 70
    70
  9
$TILEMODE
 70
     1
  9
$MAXACTVP
 70
    64
  9
$PLIMCHECK
 70
     0
  9
$PEXTMIN
 10
1.0000000000000000E+020
 20
1.0000000000000000E+020
 30
1.0000000000000000E+020
  9
$PEXTMAX
 10
-1.0000000000000000E+020
 20
-1.0000000000000000E+020
 30
-1.0000000000000000E+020
  9
$PLIMMIN
 10
0.0
 20
0.0
  9
$PLIMMAX
 10
12.0
 20
9.0
  9
$UNITMODE
 70
     0
  9
$VISRETAIN
 70
     1
  9
$PLINEGEN
 70
     0
  9
$PSLTSCALE
 70
     1
  0
ENDSEC
  0
SECTION
  2
TABLES
  0
TABLE
  2
VPORT
 70
     1
  0
VPORT
  2
*ACTIVE
 70
     0
 10
0.0
 20
0.0
 11
1.0
 21
1.0
 12
51.403525471401672
 22
46.26195635124818
 13
0.0
 23
0.0
 14
1.0
 24
1.0
 15
0.0
 25
0.0
 16
0.0
 26
0.0
 36
1.0
 17
0.0
 27
0.0
 37
0.0
 40
157.9499086961934
 41
2.3366214549938338
 42
50.0
 43
0.0
 44
0.0
 50
0.0
 51
0.0
 71
     0
 72
   100
 73
     1
 74
     1
 75
     0
 76
     0
 77
     0
 78
     0
  0
ENDTAB
  0
TABLE
  2
LTYPE
 70
     4
  0
LTYPE
  2
CONTINUOUS
 70
     0
  3
Solid line
 72
    65
 73
     0
 40
0.0
  0
LTYPE
  2
CENTER
 70
     0
  3
Center ____ _ ____ _ ____ _ ____ _ ____ _ ____
 72
    65
 73
     4
 40
12.0
 49
7.5
 49
-1.5
 49
1.5
 49
-1.5
  0
LTYPE
  2
HIDDEN
 70
     0
  3
Hidden __ __ __ __ __ __ __ __ __ __ __ __ __ _
 72
    65
 73
     2
 40
4.5
 49
3.0
 49
-1.5
  0
LTYPE
  2
PHANTOM2
 70
     0
  3
___ _ _ ___ _ _ ___ _ _ ___ _ _
 72
    65
 73
     6
 40
1.25
 49
0.625
 49
-0.125
 49
0.125
 49
-0.125
 49
0.125
 49
-0.125
  0
ENDTAB
  0
TABLE
  2
LAYER
 70
     5
  0
LAYER
  2
0
 70
     0
 62
     7
  6
CONTINUOUS
  0
LAYER
  2
1
 70
     0
 62
     1
  6
CENTER
  0
LAYER
  2
2
 70
     0
 62
     2
  6
HIDDEN
  0
LAYER
  2
3
 70
     0
 62
     3
  6
CONTINUOUS
  0
LAYER
  2
DEFPOINTS
 70
     0
 62
     7
  6
CONTINUOUS
  0
ENDTAB
  0
TABLE
  2
STYLE
 70
     2
  0
STYLE
  2
STANDARD
 70
     0
 40
0.0
 41
1.0
 50
0.0
 71
     0
 42
0.2
  3
simplex.shx
  4
bigfont.shx
  0
STYLE
  2
STANDARD1
 70
     0
 40
0.0
 41
1.0
 50
0.0
 71
     0
 42
3.0
  3
txt
  4

  0
ENDTAB
  0
TABLE
  2
VIEW
 70
     0
  0
ENDTAB
  0
TABLE
  2
UCS
 70
     0
  0
ENDTAB
  0
TABLE
  2
APPID
 70
     7
  0
APPID
  2
ACAD
 70
     0
  0
APPID
  2
ACAD_EXEMPT_FROM_CAD_STANDARDS
 70
     0
  0
APPID
  2
ACAD_NAV_VCDISPLAY
 70
     0
  0
APPID
  2
ACAD_DSTYLE_DIMJAG
 70
     0
  0
APPID
  2
ACAD_DSTYLE_DIMTALN
 70
     0
  0
APPID
  2
ACAD_DSTYLE_DIMRADIAL_EXTENSION
 70
     0
  0
APPID
  2
ACAD_MLEADERVER
 70
     0
  0
ENDTAB
  0
TABLE
  2
DIMSTYLE
 70
     1
  0
DIMSTYLE
  2
STANDARD
 70
     0
  3

  4

  5

  6

  7

 40
1.0
 41
0.18
 42
0.0625
 43
0.38
 44
0.18
 45
0.0
 46
0.0
 47
0.0
 48
0.0
140
0.18
141
0.09
142
0.0
143
25.399999999999999
144
1.0
145
0.0
146
1.0
147
0.09
 71
     0
 72
     0
 73
     1
 74
     1
 75
     0
 76
     0
 77
     0
 78
     0
170
     0
171
     2
172
     0
173
     0
174
     0
175
     0
176
     0
177
     0
178
     0
  0
ENDTAB
  0
ENDSEC
  0
SECTION
  2
BLOCKS
  0
BLOCK
  8
0
  2
$MODEL_SPACE
 70
     0
 10
0.0
 20
0.0
 30
0.0
  3
$MODEL_SPACE
  1

  0
ENDBLK
  5
9
  8
0
  0
BLOCK
 67
     1
  8
0
  2
$PAPER_SPACE
 70
     0
 10
0.0
 20
0.0
 30
0.0
  3
$PAPER_SPACE
  1

  0
ENDBLK
  5
E
 67
     1
  8
0
  0
ENDSEC
  0
SECTION
  2
ENTITIES
  0
TEXT
  5
3A00
  8
0
 62
     3
 10
0.0
 20
0.0
 30
0.0
 40
5.0
  1
PEPP12S
  7
STANDARD1
  0
ARC
  5
3E18
  8
0
 10
42.0
 20
46.051700841319011
 30
0.0
 40
0.7937500000000171
 50
90.0
 51
270.0
  0
ARC
  5
3E19
  8
0
 10
30.0
 20
46.051700841319011
 30
0.0
 40
0.7937500000000171
 50
270.0
 51
90.0
  0
LINE
  5
3E1A
  8
0
 10
30.0
 20
42.527825841318993
 30
0.0
 11
30.0
 21
39.832030922104082
 31
0.0
  0
LINE
  5
3E1B
  8
0
 10
42.0
 20
39.832030922104082
 30
0.0
 11
42.0
 21
42.527825841318993
 31
0.0
  0
LINE
  5
3E1C
  8
0
 10
30.0
 20
45.257950841318973
 30
0.0
 11
30.0
 21
43.289825841318986
 31
0.0
  0
LINE
  5
3E1D
  8
0
 10
42.0
 20
43.289825841318986
 30
0.0
 11
42.0
 21
45.257950841318973
 31
0.0
  0
LINE
  5
3E1E
  8
0
 10
30.000000000028191
 20
39.832030922104082
 30
0.0
 11
30.088900000025038
 21
39.678051605283031
 31
0.0
  0
LINE
  5
3E1F
  8
0
 10
41.911099999974958
 20
39.678051605283031
 30
0.0
 11
41.999999999971813
 21
39.832030922104082
 31
0.0
  0
LINE
  5
3E20
  8
0
 10
41.911099999999969
 20
39.073925841341101
 30
0.0
 11
41.911099999999969
 21
39.678051605283031
 31
0.0
  0
LINE
  5
3E21
  8
0
 10
30.088900000000031
 20
39.678051605283031
 30
0.0
 11
30.088900000000031
 21
39.073925841341101
 31
0.0
  0
LINE
  5
3E22
  8
0
 10
30.08890000006522
 20
39.073925841341101
 30
0.0
 11
30.25400000001218
 21
38.908825841394112
 31
0.0
  0
LINE
  5
3E23
  8
0
 10
41.745999999987824
 20
38.908825841394112
 30
0.0
 11
41.911099999934777
 21
39.073925841341101
 31
0.0
  0
ARC
  5
3E24
  8
0
 10
41.89999999999997
 20
42.908825841319008
 30
0.0
 40
0.3810000000000144
 50
90.0
 51
270.0
  0
ARC
  5
3E25
  8
0
 10
30.099999999999969
 20
42.908825841319008
 30
0.0
 40
0.3810000000000144
 50
270.0
 51
90.0
  0
LINE
  5
3E26
  8
0
 10
30.0
 20
52.087722414773161
 30
0.0
 11
30.0
 21
46.845450841319
 31
0.0
  0
LINE
  5
3E27
  8
0
 10
42.0
 20
46.845450841319
 30
0.0
 11
42.0
 21
52.087722414773161
 31
0.0
  0
LINE
  5
3E28
  8
0
 10
30.049486488484551
 20
57.758312329814707
 30
0.0
 11
30.000000000000629
 21
52.087722414773161
 31
0.0
  0
LINE
  5
3E29
  8
0
 10
41.999999999999382
 20
52.087722414773161
 30
0.0
 11
41.950513511515453
 21
57.758312329814707
 31
0.0
  0
LINE
  5
3E2A
  8
0
 10
41.950513511550071
 20
57.758312329814707
 30
0.0
 11
41.80000000007891
 21
57.908825841285903
 31
0.0
  0
LINE
  5
3E2B
  8
0
 10
30.19999999992109
 20
57.908825841285903
 30
0.0
 11
30.049486488449929
 21
57.758312329814707
 31
0.0
  0
ARC
  5
3E2C
  8
0
 10
40.051300000000019
 20
57.491999999937427
 30
0.0
 40
0.5079999999999988
 50
55.13721342881226
 51
90.0
  0
ARC
  5
3E2D
  8
0
 10
31.948699999999981
 20
57.491999999937427
 30
0.0
 40
0.5079999999999988
 50
90.0
 51
124.8627865711877
  0
LINE
  5
3E78
  8
0
 10
31.329648697400099
 20
45.908825841319008
 30
0.0
 11
31.647148697400102
 21
45.908825841319008
 31
0.0
  0
ARC
  5
3E79
  8
0
 10
30.899229132756599
 20
46.081186146350547
 30
0.0
 40
0.767523126639873
 50
347.02258714905372
 51
84.718588951561657
  0
LINE
  5
3E7A
  8
0
 10
30.969877741743922
 20
46.845450841319
 30
0.0
 11
35.682500000000012
 21
46.845450841319
 31
0.0
  0
LINE
  5
3E7B
  8
0
 10
35.682500000000012
 20
45.908825841319008
 30
0.0
 11
36.317500000000003
 21
45.908825841319008
 31
0.0
  0
LINE
  5
3E7C
  8
0
 10
36.317500000000003
 20
46.845450841319
 30
0.0
 11
41.030122258256142
 21
46.845450841319
 31
0.0
  0
ARC
  5
3E7D
  8
0
 10
41.10708155065975
 20
46.076622908567792
 30
0.0
 40
0.7726701255165566
 50
95.716237622365256
 51
192.5425862770189
  0
LINE
  5
3E7E
  8
0
 10
40.352851302599902
 20
45.908825841319008
 30
0.0
 11
40.670351302599897
 21
45.908825841319008
 31
0.0
  0
ARC
  5
3E7F
  8
0
 10
41.418270867243329
 20
46.081186146350547
 30
0.0
 40
0.7675231266398561
 50
95.281411048435004
 51
192.97741285094861
  0
LINE
  5
3E80
  8
0
 10
41.347622258256131
 20
46.845450841319
 30
0.0
 11
42.0
 21
46.845450841319
 31
0.0
  0
LINE
  5
3E81
  8
0
 10
30.0
 20
46.845450841319
 30
0.0
 11
30.652377741743919
 21
46.845450841319
 31
0.0
  0
ARC
  5
3E82
  8
0
 10
30.575418449340251
 20
46.076622908567792
 30
0.0
 40
0.7726701255165843
 50
347.45741372298352
 51
84.283762377634758
  0
LINE
  5
3E83
  8
0
 10
42.0
 20
45.257950841318973
 30
0.0
 11
30.0
 21
45.257950841318973
 31
0.0
  0
LINE
  5
3E84
  8
0
 10
36.317500000000003
 20
45.908825841319008
 30
0.0
 11
36.317500000000003
 21
57.908825841307561
 31
0.0
  0
LINE
  5
3E85
  8
0
 10
35.682499999999948
 20
57.908825841306367
 30
0.0
 11
35.682500000000012
 21
45.908825841319008
 31
0.0
  0
LINE
  5
3E86
  8
0
 10
42.00000000000005
 20
39.832030922104082
 30
0.0
 11
30.000000000028191
 21
39.832030922104082
 31
0.0
  0
LINE
  5
3E88
  8
0
 10
42.0
 20
42.527825841319007
 30
0.0
 11
30.0
 21
42.527825841318993
 31
0.0
  0
LINE
  5
3E8B
  8
0
 10
30.0
 20
43.289825841318986
 30
0.0
 11
42.0
 21
43.289825841318986
 31
0.0
  0
LINE
  5
3E8C
  8
0
 10
41.911099999999969
 20
39.678051605283031
 30
0.0
 11
30.088900000000031
 21
39.678051605283031
 31
0.0
  0
LINE
  5
3E8D
  8
0
 10
30.969877741743922
 20
52.08772241475225
 30
0.0
 11
30.969877741743922
 21
46.845450841319
 31
0.0
  0
LINE
  5
3E8E
  8
0
 10
35.682500000000012
 20
52.087722414753948
 30
0.0
 11
30.969877741743922
 21
52.08772241475225
 31
0.0
  0
LINE
  5
3E90
  8
0
 10
36.317500000000003
 20
52.087722414780842
 30
0.0
 11
41.030122258255957
 21
52.087722414759689
 31
0.0
  0
LINE
  5
3E91
  8
0
 10
41.030122258256142
 20
46.845450841319
 30
0.0
 11
41.030122258255957
 21
52.087722414759689
 31
0.0
  0
LINE
  5
3E93
  8
0
 10
35.682500000000012
 20
57.758312329819319
 30
0.0
 11
31.012794928231131
 21
57.75831232981875
 31
0.0
  0
LINE
  5
3E94
  8
0
 10
31.012794928231131
 20
57.75831232981875
 30
0.0
 11
30.969877741743922
 21
52.08772241475225
 31
0.0
  0
LINE
  5
3E96
  8
0
 10
41.030122258255957
 20
52.087722414759689
 30
0.0
 11
40.987205071768869
 21
57.758312329818807
 31
0.0
  0
LINE
  5
3E97
  8
0
 10
40.987205071768869
 20
57.758312329818807
 30
0.0
 11
36.317500000000003
 21
57.758312329819319
 31
0.0
  0
LINE
  5
3E99
  8
0
 10
31.143334233277589
 20
57.90882584129713
 30
0.0
 11
31.012794928231131
 21
57.75831232981875
 31
0.0
  0
LINE
  5
3E9D
  8
0
 10
40.987205071768869
 20
57.758312329818807
 30
0.0
 11
40.856665766722472
 21
57.90882584129713
 31
0.0
  0
LINE
  5
3E9F
  8
0
 10
41.911099999999969
 20
39.073925841341101
 30
0.0
 11
30.08890000006522
 21
39.073925841341101
 31
0.0
  0
LINE
  5
3EA1
  8
0
 10
41.745999999987824
 20
38.908825841394112
 30
0.0
 11
30.25400000001218
 21
38.908825841394112
 31
0.0
  0
LINE
  5
3EA4
  8
0
 10
30.65237774174415
 20
52.087722414760087
 30
0.0
 11
30.652377741743919
 21
46.845450841319
 31
0.0
  0
LINE
  5
3EA5
  8
0
 10
30.69529492823159
 20
57.758312329819319
 30
0.0
 11
30.65237774174415
 21
52.087722414760087
 31
0.0
  0
LINE
  5
3EA6
  8
0
 10
30.69529492823159
 20
57.758312329819319
 30
0.0
 11
30.82583423327759
 21
57.90882584129713
 31
0.0
  0
LINE
  5
3EA8
  8
0
 10
41.174165766722467
 20
57.90882584129713
 30
0.0
 11
41.304705071768751
 21
57.758312329818807
 31
0.0
  0
LINE
  5
3EA9
  8
0
 10
41.347622258255853
 20
52.087722414759412
 30
0.0
 11
41.304705071768751
 21
57.758312329818807
 31
0.0
  0
LINE
  5
3EAA
  8
0
 10
41.347622258256131
 20
46.845450841319
 30
0.0
 11
41.347622258255853
 21
52.087722414759412
 31
0.0
  0
LINE
  5
3EAB
  8
0
 10
30.69529492823159
 20
57.758312329819319
 30
0.0
 11
30.049486488471871
 21
57.758312329818807
 31
0.0
  0
LINE
  5
3EAC
  8
0
 10
41.950513511528122
 20
57.758312329818807
 30
0.0
 11
41.304705071768751
 21
57.758312329818807
 31
0.0
  0
LINE
  5
3EAE
  8
0
 10
41.800000000046794
 20
57.908825841318048
 30
0.0
 11
36.317500000000003
 21
57.908825841307589
 31
0.0
  0
LINE
  5
3EAF
  8
0
 10
31.948699999999981
 20
57.999999999937408
 30
0.0
 11
40.051300000000019
 21
57.999999999937408
 31
0.0
  0
LINE
  5
3EB1
  8
0
 10
35.682500000000012
 20
51.999999999928768
 30
0.0
 11
36.317500000000003
 21
51.999999999928768
 31
0.0
  0
LINE
  5
3EF8
  8
0
 10
30.000000000000341
 20
52.087722414764983
 30
0.0
 11
30.65237774174415
 21
52.087722414760087
 31
0.0
  0
LINE
  5
3EF9
  8
0
 10
41.347622258255853
 20
52.087722414759412
 30
0.0
 11
41.999999999999659
 21
52.08772241476089
 31
0.0
  0
LINE
  5
3EFA
  8
0
 10
36.317500000000003
 20
57.395069030313778
 30
0.0
 11
35.681873136528168
 21
57.395069030313778
 31
0.0
  0
LINE
  5
3F0D
  8
2
 10
32.498728576751951
 20
51.999999999928768
 30
0.0
 11
39.501271423247999
 21
51.999999999928768
 31
0.0
  0
ARC
  5
3FE0
  8
2
 10
40.051300000000019
 20
57.491999999937427
 30
0.0
 40
0.5079999999999988
 50
349.00000000310138
 51
55.13721342881226
  0
ARC
  5
3FE1
  8
2
 10
31.948699999999981
 20
57.491999999937427
 30
0.0
 40
0.5079999999999988
 50
124.8627865711877
 51
190.9999999969001
  0
LINE
  5
3FE2
  8
2
 10
31.450033390819559
 20
57.395069030313778
 30
0.0
 11
32.498728576751951
 21
51.999999999928768
 31
0.0
  0
LINE
  5
3FE3
  8
2
 10
39.501271423248063
 20
51.999999999928768
 30
0.0
 11
40.549966609180437
 21
57.395069030313778
 31
0.0
  0
LINE
  5
4077
  8
2
 10
40.549966609180437
 20
57.395069030313778
 30
0.0
 11
31.450033390803181
 21
57.395069030313799
 31
0.0
  0
CIRCLE
  5
4078
  8
0
 10
36.0
 20
77.999999999937415
 30
0.0
 40
4.5593000000000163
  0
LINE
  5
4079
  8
0
 10
32.219865934684037
 20
80.549078841055874
 30
0.0
 11
30.969877741743861
 21
81.270759860733676
 31
0.0
  0
LINE
  5
407B
  8
0
 10
35.682500000000012
 20
83.991593590126897
 30
0.0
 11
35.682500000000012
 21
82.54823155077122
 31
0.0
  0
LINE
  5
408C
  8
0
 10
36.317499999999939
 20
72.008406409747892
 30
0.0
 11
36.317500000000059
 21
73.451768449103611
 31
0.0
  0
LINE
  5
408D
  8
0
 10
41.030122258256142
 20
74.729240139141083
 30
0.0
 11
39.78013406531602
 21
75.450921158818986
 31
0.0
  0
LINE
  5
408F
  8
0
 10
41.347622258256081
 20
75.279166270544181
 30
0.0
 11
40.097634065315958
 21
76.000847290222083
 31
0.0
  0
LINE
  5
4090
  8
0
 10
41.347622258256081
 20
80.720833729330636
 30
0.0
 11
40.097634065315958
 21
79.999152709652776
 31
0.0
  0
LINE
  5
4093
  8
0
 10
31.902365934684038
 20
79.999152709652805
 30
0.0
 11
30.652377741743869
 21
80.720833729330565
 31
0.0
  0
LINE
  5
4094
  8
0
 10
31.902365934684038
 20
76.000847290222055
 30
0.0
 11
30.652377741743919
 21
75.279166270544181
 31
0.0
  0
LINE
  5
4096
  8
0
 10
41.030122258256078
 20
81.270759860733776
 30
0.0
 11
39.780134065315963
 21
80.549078841055916
 31
0.0
  0
LINE
  5
4097
  8
0
 10
36.317500000000003
 20
82.54823155077122
 30
0.0
 11
36.317500000000003
 21
83.991593590126897
 31
0.0
  0
LINE
  5
409B
  8
0
 10
35.682500000000012
 20
72.00840640974792
 30
0.0
 11
35.682500000000012
 21
73.451768449103611
 31
0.0
  0
LINE
  5
409C
  8
0
 10
30.969877741743922
 20
74.729240139141069
 30
0.0
 11
32.219865934684037
 21
75.450921158818943
 31
0.0
  0
ARC
  5
40C1
  8
0
 10
36.0
 20
77.999999999937415
 30
0.0
 40
5.2192146281627743
 50
206.51237781878481
 51
213.48762218121789
  0
ARC
  5
40C2
  8
0
 10
36.0
 20
77.999999999937415
 30
0.0
 40
5.2192146281627787
 50
266.51237781878513
 51
273.48762218121487
  0
ARC
  5
40C3
  8
0
 10
36.0
 20
77.999999999937415
 30
0.0
 40
5.2192146281627583
 50
326.5123778187866
 51
333.48762218121669
  0
ARC
  5
40C4
  8
0
 10
36.0
 20
77.999999999937415
 30
0.0
 40
5.2192146281627743
 50
26.512377818784032
 51
33.487622181215009
  0
ARC
  5
40C5
  8
0
 10
36.0
 20
77.999999999937415
 30
0.0
 40
5.2192146281627787
 50
86.512377818785055
 51
93.487622181214945
  0
ARC
  5
40C6
  8
0
 10
36.0
 20
77.999999999937415
 30
0.0
 40
5.2192146281627583
 50
146.51237781878501
 51
153.48762218121601
  0
LINE
  5
40CF
  8
0
 10
34.556624327108921
 20
80.49999999997442
 30
0.0
 11
37.44337567296629
 21
80.499999999914976
 31
0.0
  0
LINE
  5
40D1
  8
0
 10
33.113248654060051
 20
77.999999999937415
 30
0.0
 11
34.556624326964602
 21
75.499999999998749
 31
0.0
  0
LINE
  5
40D3
  8
0
 10
34.556624327029908
 20
80.499999999928818
 30
0.0
 11
33.113248654074312
 21
78.000000000021146
 31
0.0
  0
LINE
  5
40D5
  8
0
 10
34.556624327030022
 20
75.499999999944464
 30
0.0
 11
37.443375672890276
 21
75.499999999915019
 31
0.0
  0
LINE
  5
40D7
  8
0
 10
37.443375672969921
 20
75.499999999944521
 30
0.0
 11
38.886751345925582
 21
77.999999999853628
 31
0.0
  0
LINE
  5
40D9
  8
0
 10
38.886751345939949
 20
77.999999999937415
 30
0.0
 11
37.443375673035924
 21
80.499999999875001
 31
0.0
  0
CIRCLE
  5
45C3
  8
0
 10
36.0
 20
77.999999999937415
 30
0.0
 40
6.0
  0
LINE
  5
470E
  8
1
 10
35.999999999989598
 20
85.999999999937415
 30
0.0
 11
35.999999999989598
 21
69.999999999937415
 31
0.0
  0
LINE
  5
470F
  8
1
 10
44.0
 20
77.999999999937415
 30
0.0
 11
28.0
 21
77.999999999937415
 31
0.0
  0
LINE
  5
4710
  8
0
 10
37.999999999989598
 20
30.0
 30
0.0
 11
33.999999999989662
 21
30.0
 31
0.0
  0
LINE
  5
4711
  8
0
 10
32.999999999989647
 20
38.908825841394112
 30
0.0
 11
32.999999999989647
 21
31.0
 31
0.0
  0
LINE
  5
4712
  8
3
 10
33.541499999989533
 20
38.908825841394112
 30
0.0
 11
33.541499999989533
 21
30.4585000000001
 31
0.0
  0
LINE
  5
4713
  8
3
 10
38.458499999989733
 20
38.908825841394112
 30
0.0
 11
38.458499999989733
 21
30.458500000000068
 31
0.0
  0
LINE
  5
4714
  8
0
 10
38.999999999989662
 20
38.908825841394112
 30
0.0
 11
38.999999999989598
 21
31.0
 31
0.0
  0
LINE
  5
4715
  8
0
 10
38.999999999989598
 20
31.0
 30
0.0
 11
37.999999999989598
 21
30.0
 31
0.0
  0
LINE
  5
4716
  8
0
 10
33.999999999989662
 20
30.0
 30
0.0
 11
32.999999999989647
 21
31.0
 31
0.0
  0
LINE
  5
4717
  8
0
 10
32.999999999989647
 20
31.0
 30
0.0
 11
38.999999999989598
 21
30.999999999999972
 31
0.0
  0
LINE
  5
4762
  8
1
 10
35.999999999989598
 20
59.999999999937408
 30
0.0
 11
35.999999999989598
 21
28.0
 31
0.0
  0
LINE
  5
4764
  8
2
 10
33.0
 20
51.062094487630418
 30
0.0
 11
39.0
 21
51.062094487630361
 31
0.0
  0
LINE
  5
4765
  8
2
 10
38.458500000000129
 20
51.062094487630361
 30
0.0
 11
39.000000000000057
 21
51.999999999928747
 31
0.0
  0
LINE
  5
4766
  8
2
 10
33.541499999999992
 20
51.062094487630382
 30
0.0
 11
33.000000000000057
 21
51.999999999928889
 31
0.0
  0
LINE
  5
47AE
  8
2
 10
32.999999999989598
 20
51.999999999928768
 30
0.0
 11
32.999999999989647
 21
38.908825841394112
 31
0.0
  0
LINE
  5
47AF
  8
2
 10
33.541499999989533
 20
51.062094487630382
 30
0.0
 11
33.541499999989533
 21
38.908825841394084
 31
0.0
  0
LINE
  5
47B0
  8
2
 10
38.458499999989733
 20
51.062094487630361
 30
0.0
 11
38.458499999989733
 21
38.908825841394048
 31
0.0
  0
LINE
  5
47B1
  8
2
 10
38.999999999989768
 20
51.999999999928768
 30
0.0
 11
38.999999999989541
 21
38.908825841394112
 31
0.0
  0
LINE
  5
4840
  8
0
 10
35.682500000000012
 20
51.062094487630382
 30
0.0
 11
36.317500000000003
 21
51.062094487630382
 31
0.0
  0
LINE
  5
59AD
  8
0
 10
35.682499999999948
 20
57.908825841306381
 30
0.0
 11
30.199999999932349
 21
57.908825841295943
 31
0.0
  0
ENDSEC
  0
EOF
