  0
SECTION
  2
HEADER
  9
$ACADVER
  1
AC1009
  9
$INSBASE
 10
0.0
 20
0.0
 30
0.0
  9
$EXTMIN
 10
0.0
 20
-1.4802182810368341
 30
0.0
  9
$EXTMAX
 10
42.0
 20
83.000000000017067
 30
0.0
  9
$LIMMIN
 10
0.0
 20
0.0
  9
$LIMMAX
 10
12.0
 20
9.0
  9
$ORTHOMODE
 70
     0
  9
$REGENMODE
 70
     1
  9
$FILLMODE
 70
     1
  9
$QTEXTMODE
 70
     0
  9
$MIRRTEXT
 70
     0
  9
$DRAGMODE
 70
     2
  9
$LTSCALE
 40
0.5
  9
$OSMODE
 70
    37
  9
$ATTMODE
 70
     1
  9
$TEXTSIZE
 40
0.2
  9
$TRACEWID
 40
0.05
  9
$TEXTSTYLE
  7
STANDARD
  9
$CLAYER
  8
0
  9
$CELTYPE
  6
BYLAYER
  9
$CECOLOR
 62
   256
  9
$DIMSCALE
 40
1.0
  9
$DIMASZ
 40
1.0
  9
$DIMEXO
 40
2.54
  9
$DIMDLI
 40
0.38
  9
$DIMRND
 40
0.0
  9
$DIMDLE
 40
0.0
  9
$DIMEXE
 40
2.54
  9
$DIMTP
 40
0.0
  9
$DIMTM
 40
0.0
  9
$DIMTXT
 40
3.2000000000000002
  9
$DIMCEN
 40
0.09
  9
$DIMTSZ
 40
0.0
  9
$DIMTOL
 70
     0
  9
$DIMLIM
 70
     0
  9
$DIMTIH
 70
     0
  9
$DIMTOH
 70
     0
  9
$DIMSE1
 70
     0
  9
$DIMSE2
 70
     0
  9
$DIMTAD
 70
     1
  9
$DIMZIN
 70
     0
  9
$DIMBLK
  1

  9
$DIMASO
 70
     1
  9
$DIMSHO
 70
     0
  9
$DIMPOST
  1

  9
$DIMAPOST
  1

  9
$DIMALT
 70
     0
  9
$DIMALTD
 70
     2
  9
$DIMALTF
 40
25.399999999999999
  9
$DIMLFAC
 40
1.0
  9
$DIMTOFL
 70
     0
  9
$DIMTVP
 40
1.0
  9
$DIMTIX
 70
     0
  9
$DIMSOXD
 70
     0
  9
$DIMSAH
 70
     0
  9
$DIMBLK1
  1

  9
$DIMBLK2
  1

  9
$DIMSTYLE
  2
STANDARD
  9
$DIMCLRD
 70
     0
  9
$DIMCLRE
 70
     0
  9
$DIMCLRT
 70
     0
  9
$DIMTFAC
 40
1.0
  9
$DIMGAP
 40
1.6000000000000001
  9
$LUNITS
 70
     2
  9
$LUPREC
 70
     1
  9
$SKETCHINC
 40
0.1
  9
$FILLETRAD
 40
0.5
  9
$AUNITS
 70
     0
  9
$AUPREC
 70
     1
  9
$MENU
  1
.
  9
$ELEVATION
 40
0.0
  9
$PELEVATION
 40
0.0
  9
$THICKNESS
 40
0.0
  9
$LIMCHECK
 70
     0
  9
$BLIPMODE
 70
     0
  9
$CHAMFERA
 40
0.2
  9
$CHAMFERB
 40
0.2
  9
$SKPOLY
 70
     0
  9
$TDCREATE
 40
2453173.4709223039
  9
$TDUPDATE
 40
2458824.5996138779
  9
$TDINDWG
 40
2.2101475694000001
  9
$TDUSRTIMER
 40
2456598.313253866
  9
$USRTIMER
 70
     1
  9
$ANGBASE
 50
0.0
  9
$ANGDIR
 70
     0
  9
$PDMODE
 70
     0
  9
$PDSIZE
 40
0.0
  9
$PLINEWID
 40
0.0
  9
$COORDS
 70
     1
  9
$SPLFRAME
 70
     0
  9
$SPLINETYPE
 70
     6
  9
$SPLINESEGS
 70
     8
  9
$ATTDIA
 70
     0
  9
$ATTREQ
 70
     1
  9
$HANDLING
 70
     1
  9
$HANDSEED
  5
5B62
  9
$SURFTAB1
 70
     6
  9
$SURFTAB2
 70
     6
  9
$SURFTYPE
 70
     6
  9
$SURFU
 70
     6
  9
$SURFV
 70
     6
  9
$UCSNAME
  2

  9
$UCSORG
 10
0.0
 20
0.0
 30
0.0
  9
$UCSXDIR
 10
1.0
 20
0.0
 30
0.0
  9
$UCSYDIR
 10
0.0
 20
1.0
 30
0.0
  9
$PUCSNAME
  2

  9
$PUCSORG
 10
0.0
 20
0.0
 30
0.0
  9
$PUCSXDIR
 10
1.0
 20
0.0
 30
0.0
  9
$PUCSYDIR
 10
0.0
 20
1.0
 30
0.0
  9
$USERI1
 70
     0
  9
$USERI2
 70
     0
  9
$USERI3
 70
     0
  9
$USERI4
 70
     0
  9
$USERI5
 70
     0
  9
$USERR1
 40
0.0
  9
$USERR2
 40
0.0
  9
$USERR3
 40
0.0
  9
$USERR4
 40
0.0
  9
$USERR5
 40
0.0
  9
$WORLDVIEW
 70
     1
  9
$SHADEDGE
 70
     3
  9
$SHADEDIF
 70
    70
  9
$TILEMODE
 70
     1
  9
$MAXACTVP
 70
    64
  9
$PLIMCHECK
 70
     0
  9
$PEXTMIN
 10
1.0000000000000000E+020
 20
1.0000000000000000E+020
 30
1.0000000000000000E+020
  9
$PEXTMAX
 10
-1.0000000000000000E+020
 20
-1.0000000000000000E+020
 30
-1.0000000000000000E+020
  9
$PLIMMIN
 10
0.0
 20
0.0
  9
$PLIMMAX
 10
12.0
 20
9.0
  9
$UNITMODE
 70
     0
  9
$VISRETAIN
 70
     1
  9
$PLINEGEN
 70
     0
  9
$PSLTSCALE
 70
     1
  0
ENDSEC
  0
SECTION
  2
TABLES
  0
TABLE
  2
VPORT
 70
     1
  0
VPORT
  2
*ACTIVE
 70
     0
 10
0.0
 20
0.0
 11
1.0
 21
1.0
 12
169.35069877437471
 22
29.191776137035578
 13
0.0
 23
0.0
 14
1.0
 24
1.0
 15
0.0
 25
0.0
 16
0.0
 26
0.0
 36
1.0
 17
0.0
 27
0.0
 37
0.0
 40
179.789850118278
 41
2.3366214549938338
 42
50.0
 43
0.0
 44
0.0
 50
0.0
 51
0.0
 71
     0
 72
   100
 73
     1
 74
     1
 75
     0
 76
     0
 77
     0
 78
     0
  0
ENDTAB
  0
TABLE
  2
LTYPE
 70
     4
  0
LTYPE
  2
CONTINUOUS
 70
     0
  3
Solid line
 72
    65
 73
     0
 40
0.0
  0
LTYPE
  2
CENTER
 70
     0
  3
Center ____ _ ____ _ ____ _ ____ _ ____ _ ____
 72
    65
 73
     4
 40
12.0
 49
7.5
 49
-1.5
 49
1.5
 49
-1.5
  0
LTYPE
  2
HIDDEN
 70
     0
  3
Hidden __ __ __ __ __ __ __ __ __ __ __ __ __ _
 72
    65
 73
     2
 40
4.5
 49
3.0
 49
-1.5
  0
LTYPE
  2
PHANTOM2
 70
     0
  3
___ _ _ ___ _ _ ___ _ _ ___ _ _
 72
    65
 73
     6
 40
1.25
 49
0.625
 49
-0.125
 49
0.125
 49
-0.125
 49
0.125
 49
-0.125
  0
ENDTAB
  0
TABLE
  2
LAYER
 70
     5
  0
LAYER
  2
0
 70
     0
 62
     7
  6
CONTINUOUS
  0
LAYER
  2
1
 70
     0
 62
     1
  6
CENTER
  0
LAYER
  2
2
 70
     0
 62
     2
  6
HIDDEN
  0
LAYER
  2
3
 70
     0
 62
     3
  6
CONTINUOUS
  0
LAYER
  2
DEFPOINTS
 70
     0
 62
     7
  6
CONTINUOUS
  0
ENDTAB
  0
TABLE
  2
STYLE
 70
     2
  0
STYLE
  2
STANDARD
 70
     0
 40
0.0
 41
1.0
 50
0.0
 71
     0
 42
0.2
  3
simplex.shx
  4
bigfont.shx
  0
STYLE
  2
STANDARD1
 70
     0
 40
0.0
 41
1.0
 50
0.0
 71
     0
 42
3.0
  3
txt
  4

  0
ENDTAB
  0
TABLE
  2
VIEW
 70
     0
  0
ENDTAB
  0
TABLE
  2
UCS
 70
     0
  0
ENDTAB
  0
TABLE
  2
APPID
 70
     7
  0
APPID
  2
ACAD
 70
     0
  0
APPID
  2
ACAD_EXEMPT_FROM_CAD_STANDARDS
 70
     0
  0
APPID
  2
ACAD_NAV_VCDISPLAY
 70
     0
  0
APPID
  2
ACAD_DSTYLE_DIMJAG
 70
     0
  0
APPID
  2
ACAD_DSTYLE_DIMTALN
 70
     0
  0
APPID
  2
ACAD_DSTYLE_DIMRADIAL_EXTENSION
 70
     0
  0
APPID
  2
ACAD_MLEADERVER
 70
     0
  0
ENDTAB
  0
TABLE
  2
DIMSTYLE
 70
     1
  0
DIMSTYLE
  2
STANDARD
 70
     0
  3

  4

  5

  6

  7

 40
1.0
 41
0.18
 42
0.0625
 43
0.38
 44
0.18
 45
0.0
 46
0.0
 47
0.0
 48
0.0
140
0.18
141
0.09
142
0.0
143
25.399999999999999
144
1.0
145
0.0
146
1.0
147
0.09
 71
     0
 72
     0
 73
     1
 74
     1
 75
     0
 76
     0
 77
     0
 78
     0
170
     0
171
     2
172
     0
173
     0
174
     0
175
     0
176
     0
177
     0
178
     0
  0
ENDTAB
  0
ENDSEC
  0
SECTION
  2
BLOCKS
  0
BLOCK
  8
0
  2
$MODEL_SPACE
 70
     0
 10
0.0
 20
0.0
 30
0.0
  3
$MODEL_SPACE
  1

  0
ENDBLK
  5
9
  8
0
  0
BLOCK
 67
     1
  8
0
  2
$PAPER_SPACE
 70
     0
 10
0.0
 20
0.0
 30
0.0
  3
$PAPER_SPACE
  1

  0
ENDBLK
  5
E
 67
     1
  8
0
  0
ENDSEC
  0
SECTION
  2
ENTITIES
  0
TEXT
  5
2AA2
  8
0
 62
     3
 10
0.0
 20
0.0
 30
0.0
 40
5.0
  1
PEPP10S
  7
STANDARD1
  0
ARC
  5
2E1C
  8
0
 10
40.12700000000001
 20
40.859759696186181
 30
0.0
 40
0.3810000000000077
 50
109.47122063449289
 51
250.52877936550891
  0
ARC
  5
2E1D
  8
0
 10
29.873000000000051
 20
40.859759696186181
 30
0.0
 40
0.3809999999999983
 50
289.47122063448779
 51
70.528779365512193
  0
LINE
  5
2E1E
  8
0
 10
30.0
 20
43.159759696186192
 30
0.0
 11
30.0
 21
41.218969941028938
 31
0.0
  0
LINE
  5
2E1F
  8
0
 10
40.0
 20
41.218969941028938
 30
0.0
 11
40.0
 21
43.159759696186192
 31
0.0
  0
LINE
  5
2E20
  8
0
 10
30.0
 20
40.500549451343431
 30
0.0
 11
30.0
 21
37.45975969622441
 31
0.0
  0
LINE
  5
2E21
  8
0
 10
40.0
 20
37.45975969622441
 30
0.0
 11
40.0
 21
40.500549451343431
 31
0.0
  0
LINE
  5
2E22
  8
0
 10
30.000000000004551
 20
37.45975969622441
 30
0.0
 11
30.075000000042738
 21
37.384759696186173
 31
0.0
  0
LINE
  5
2E23
  8
0
 10
39.924999999957208
 20
37.384759696186173
 30
0.0
 11
39.999999999995453
 21
37.45975969622441
 31
0.0
  0
LINE
  5
2E24
  8
0
 10
39.924999999999962
 20
36.859759696186188
 30
0.0
 11
39.924999999999962
 21
37.384759696186173
 31
0.0
  0
LINE
  5
2E25
  8
0
 10
30.074999999999989
 20
37.384759696186173
 30
0.0
 11
30.074999999999989
 21
36.859759696186188
 31
0.0
  0
ARC
  5
2E26
  8
0
 10
39.899999999999977
 20
43.953509696186181
 30
0.0
 40
0.7937500000000171
 50
90.0
 51
270.0
  0
ARC
  5
2E27
  8
0
 10
30.100000000000019
 20
43.953509696186181
 30
0.0
 40
0.7937500000000171
 50
269.99999999999841
 51
90.0
  0
LINE
  5
2E28
  8
0
 10
30.0
 20
50.130327189725449
 30
0.0
 11
30.0
 21
44.74725969618617
 31
0.0
  0
LINE
  5
2E29
  8
0
 10
30.048679445527121
 20
55.708439141716099
 30
0.0
 11
29.999999999999709
 21
50.130327189725449
 31
0.0
  0
LINE
  5
2E2A
  8
0
 10
40.0
 20
44.74725969618617
 30
0.0
 11
40.0
 21
50.130327189720788
 31
0.0
  0
LINE
  5
2E2B
  8
0
 10
40.000000000000341
 20
50.130327189720788
 30
0.0
 11
39.951320554472893
 21
55.708439141716099
 31
0.0
  0
LINE
  5
2E2C
  8
0
 10
30.20000000001119
 20
55.859759696209949
 30
0.0
 11
30.04867944551734
 21
55.708439141716099
 31
0.0
  0
LINE
  5
2E2D
  8
0
 10
39.951320554482663
 20
55.708439141716099
 30
0.0
 11
39.799999999988813
 21
55.859759696209949
 31
0.0
  0
ARC
  5
2E2E
  8
0
 10
37.730500000000013
 20
55.492000000017008
 30
0.0
 40
0.5079999999999956
 50
46.380441434626938
 51
90.0
  0
ARC
  5
2E2F
  8
0
 10
32.269499999999987
 20
55.492000000017008
 30
0.0
 40
0.5079999999999956
 50
90.0
 51
133.61955856537301
  0
LINE
  5
2E7E
  8
0
 10
39.999999999999972
 20
40.500549451343431
 30
0.0
 11
30.0
 21
40.500549451343431
 31
0.0
  0
LINE
  5
2E81
  8
0
 10
30.0
 20
41.218969941028938
 30
0.0
 11
39.999999999999972
 21
41.218969941028938
 31
0.0
  0
LINE
  5
2E83
  8
0
 10
30.0
 20
43.159759696186192
 30
0.0
 11
40.0
 21
43.159759696186192
 31
0.0
  0
LINE
  5
2E84
  8
0
 10
40.0
 20
37.45975969622441
 30
0.0
 11
30.0
 21
37.45975969622441
 31
0.0
  0
LINE
  5
2E86
  8
0
 10
38.303892224537947
 20
44.74725969618617
 30
0.0
 11
38.303892224538011
 21
50.130327189723232
 31
0.0
  0
LINE
  5
2E87
  8
0
 10
31.69610777546211
 20
44.74725969618617
 30
0.0
 11
31.69610777546211
 21
50.130327189730501
 31
0.0
  0
LINE
  5
2E88
  8
0
 10
31.69610777546211
 20
50.130327189730501
 30
0.0
 11
38.303892224538011
 21
50.130327189723232
 31
0.0
  0
LINE
  5
2E89
  8
0
 10
31.69610777546211
 20
44.74725969618617
 30
0.0
 11
38.303892224537947
 21
44.74725969618617
 31
0.0
  0
LINE
  5
2E8A
  8
0
 10
38.269400363268353
 20
55.70843914172309
 30
0.0
 11
31.730599636731661
 21
55.70843914172309
 31
0.0
  0
LINE
  5
2E8C
  8
0
 10
31.69610777546211
 20
50.130327189730501
 30
0.0
 11
31.730599636731661
 21
55.70843914172309
 31
0.0
  0
LINE
  5
2E8D
  8
0
 10
39.925000000000011
 20
37.384759696186173
 30
0.0
 11
30.074999999999989
 21
37.384759696186173
 31
0.0
  0
LINE
  5
2E8E
  8
0
 10
31.837827074393321
 20
55.859759696200221
 30
0.0
 11
31.730599636731661
 21
55.70843914172309
 31
0.0
  0
LINE
  5
2E90
  8
0
 10
38.269400363268353
 20
55.70843914172309
 30
0.0
 11
38.162172925598327
 21
55.859759696212109
 31
0.0
  0
LINE
  5
2E91
  8
0
 10
39.925000000000011
 20
36.859759696186188
 30
0.0
 11
30.074999999999989
 21
36.859759696186188
 31
0.0
  0
POLYLINE
  5
2E92
  8
0
 66
     1
 10
0.0
 20
0.0
 30
0.0
 70
   128
  0
VERTEX
  5
5B52
  8
0
 10
31.317951569029159
 20
44.74725969618617
 30
0.0
  0
VERTEX
  5
5B53
  8
0
 10
31.504508433652859
 20
44.702336093527833
 30
0.0
  0
VERTEX
  5
5B54
  8
0
 10
31.670032713812141
 20
44.572601892290663
 30
0.0
  0
VERTEX
  5
5B55
  8
0
 10
31.795711146093989
 20
44.37273879824977
 30
0.0
  0
VERTEX
  5
5B56
  8
0
 10
31.8672108006723
 20
44.125779401388968
 30
0.0
  0
VERTEX
  5
5B57
  8
0
 10
31.880628935844928
 20
43.95350969618471
 30
0.0
  0
VERTEX
  5
5B58
  8
0
 10
31.87668856795813
 20
43.859759696186188
 30
0.0
  0
SEQEND
  5
5B59
  8
0
  0
LINE
  5
2E93
  8
0
 10
31.87668856795813
 20
43.859759696186188
 30
0.0
 11
32.325701374011317
 21
43.859759696182877
 31
0.0
  0
ARC
  5
2E94
  8
0
 10
31.598306151480759
 20
44.021448730905369
 30
0.0
 40
0.7451490815336421
 50
347.46776562498133
 51
76.918219316400766
  0
POLYLINE
  5
2E95
  8
0
 66
     1
 10
0.0
 20
0.0
 30
0.0
 70
   128
  0
VERTEX
  5
5B5A
  8
0
 10
38.23303562491742
 20
44.74725969618617
 30
0.0
  0
VERTEX
  5
5B5B
  8
0
 10
38.04647876029378
 20
44.702336093527833
 30
0.0
  0
VERTEX
  5
5B5C
  8
0
 10
37.880954480134498
 20
44.572601892290663
 30
0.0
  0
VERTEX
  5
5B5D
  8
0
 10
37.75527604785259
 20
44.37273879824977
 30
0.0
  0
VERTEX
  5
5B5E
  8
0
 10
37.68377639327435
 20
44.125779401388968
 30
0.0
  0
VERTEX
  5
5B5F
  8
0
 10
37.670358258101722
 20
43.95350969618471
 30
0.0
  0
VERTEX
  5
5B60
  8
0
 10
37.674298625989202
 20
43.859759696177377
 30
0.0
  0
SEQEND
  5
5B61
  8
0
  0
LINE
  5
2E96
  8
0
 10
37.674298625988911
 20
43.859759696180731
 30
0.0
 11
38.123311432041987
 21
43.859759696185101
 31
0.0
  0
ARC
  5
2E97
  8
0
 10
38.850706654572257
 20
44.021448730906172
 30
0.0
 40
0.7451490815327372
 50
103.0817806835759
 51
192.53223437475191
  0
LINE
  5
2E99
  8
0
 10
31.28158683067824
 20
55.70843914172309
 30
0.0
 11
31.388814268348309
 21
55.859759696212109
 31
0.0
  0
LINE
  5
2E9C
  8
0
 10
31.247094969408639
 20
44.74725969618617
 30
0.0
 11
31.247094969408639
 21
50.130327189727318
 31
0.0
  0
LINE
  5
2E9E
  8
0
 10
38.611185731651751
 20
55.859759696212109
 30
0.0
 11
38.718413169321821
 21
55.70843914172309
 31
0.0
  0
LINE
  5
2E9F
  8
0
 10
38.752905030591371
 20
50.130327189728177
 30
0.0
 11
38.718413169321821
 21
55.70843914172309
 31
0.0
  0
LINE
  5
2EA0
  8
0
 10
38.752905030591371
 20
44.74725969618617
 30
0.0
 11
38.752905030591371
 21
50.130327189728177
 31
0.0
  0
LINE
  5
2EA2
  8
0
 10
30.0
 20
44.74725969618617
 30
0.0
 11
31.317951569029159
 21
44.74725969618617
 31
0.0
  0
LINE
  5
2EA3
  8
0
 10
31.28158683067824
 20
55.70843914172309
 30
0.0
 11
30.048679445529221
 21
55.708439141721328
 31
0.0
  0
LINE
  5
2EA4
  8
0
 10
38.682048430970887
 20
44.74725969618617
 30
0.0
 11
40.0
 21
44.74725969618617
 31
0.0
  0
LINE
  5
2EA5
  8
0
 10
39.951320554470783
 20
55.708439141721328
 30
0.0
 11
38.718413169321821
 21
55.70843914172309
 31
0.0
  0
LINE
  5
2EA6
  8
0
 10
39.799999999982681
 20
55.859759696216138
 30
0.0
 11
30.20000000001335
 21
55.85975969621154
 31
0.0
  0
LINE
  5
2EA8
  8
0
 10
37.730500000000013
 20
56.000000000017081
 30
0.0
 11
32.269499999999987
 21
56.000000000017053
 31
0.0
  0
LINE
  5
2EDC
  8
0
 10
30.00000000000006
 20
50.130327189718798
 30
0.0
 11
31.247094969408639
 21
50.130327189727318
 31
0.0
  0
LINE
  5
2EDD
  8
0
 10
40.0
 20
50.130327189722379
 30
0.0
 11
38.752905030591371
 21
50.130327189728177
 31
0.0
  0
LINE
  5
2EEF
  8
2
 10
38.229166609194948
 20
55.395069030383858
 30
0.0
 11
31.770833390805048
 21
55.395069030383858
 31
0.0
  0
LINE
  5
2EF0
  8
2
 10
32.430767958475258
 20
52.000000000008413
 30
0.0
 11
37.569232041524742
 21
52.000000000008413
 31
0.0
  0
ARC
  5
2FF5
  8
2
 10
37.730500000000013
 20
55.492000000017008
 30
0.0
 40
0.5079999999999921
 50
349.00000000200413
 51
46.380441434626938
  0
ARC
  5
2FF6
  8
2
 10
32.269499999999987
 20
55.492000000017008
 30
0.0
 40
0.5079999999999921
 50
133.61955856537301
 51
190.99999999799749
  0
LINE
  5
2FF7
  8
2
 10
31.770833390807361
 20
55.395069030383858
 30
0.0
 11
32.430767958475258
 21
52.000000000008413
 31
0.0
  0
LINE
  5
2FF8
  8
2
 10
37.569232041524742
 20
52.000000000008413
 30
0.0
 11
38.229166609192653
 21
55.395069030383858
 31
0.0
  0
CIRCLE
  5
30D1
  8
0
 10
35.0
 20
76.000000000017081
 30
0.0
 40
3.2385000000000028
  0
LINE
  5
30D6
  8
0
 10
32.94557288052107
 20
78.503439925549458
 30
0.0
 11
31.69610777546206
 21
79.752905030608417
 31
0.0
  0
LINE
  5
30D8
  8
0
 10
38.30389222453789
 20
79.752905030608446
 30
0.0
 11
37.054427119478959
 21
78.503439925549429
 31
0.0
  0
LINE
  5
30DD
  8
0
 10
38.752905030591393
 20
72.696107775479192
 30
0.0
 11
37.503439925532398
 21
73.945572880538208
 31
0.0
  0
LINE
  5
30DF
  8
0
 10
37.503439925532348
 20
78.054427119496012
 30
0.0
 11
38.752905030591371
 21
79.303892224555
 31
0.0
  0
LINE
  5
30E2
  8
0
 10
31.247094969408661
 20
79.303892224555
 30
0.0
 11
32.496560074467588
 21
78.054427119495983
 31
0.0
  0
LINE
  5
30E3
  8
0
 10
32.496560074467652
 20
73.945572880538123
 30
0.0
 11
31.247094969408689
 21
72.696107775479135
 31
0.0
  0
LINE
  5
30E5
  8
0
 10
31.69610777546211
 20
72.247094969425717
 30
0.0
 11
32.945572880521127
 21
73.496560074484677
 31
0.0
  0
LINE
  5
30E7
  8
0
 10
38.303892224537947
 20
72.247094969425746
 30
0.0
 11
37.054427119478959
 21
73.496560074484734
 31
0.0
  0
ARC
  5
3102
  8
0
 10
35.0
 20
76.000000000017081
 30
0.0
 40
4.11180586147829
 50
40.571401777371122
 51
49.428598222628871
  0
ARC
  5
3103
  8
0
 10
35.0
 20
76.000000000017081
 30
0.0
 40
4.1118058614782722
 50
130.57140177737111
 51
139.42859822262889
  0
ARC
  5
3104
  8
0
 10
35.0
 20
76.000000000017081
 30
0.0
 40
4.1118058614786719
 50
220.57140177737111
 51
229.42859822262889
  0
ARC
  5
3105
  8
0
 10
35.0
 20
76.000000000017081
 30
0.0
 40
4.1118058614789277
 50
310.5714017773729
 51
319.42859822263119
  0
LINE
  5
310B
  8
0
 10
34.133974596207111
 20
77.500000000008384
 30
0.0
 11
33.267949192434493
 21
76.000000000017081
 31
0.0
  0
LINE
  5
310D
  8
0
 10
35.866025403772568
 20
77.50000000001998
 30
0.0
 11
34.1339745962172
 21
77.500000000014182
 31
0.0
  0
LINE
  5
310F
  8
0
 10
35.866025403782771
 20
77.500000000014097
 30
0.0
 11
36.732050807565493
 21
76.000000000028763
 31
0.0
  0
LINE
  5
3111
  8
0
 10
35.866025403792797
 20
74.500000000025722
 30
0.0
 11
36.732050807565457
 21
76.000000000017025
 31
0.0
  0
LINE
  5
3113
  8
0
 10
34.13397459622729
 20
74.500000000014126
 30
0.0
 11
35.866025403782828
 21
74.50000000001998
 31
0.0
  0
LINE
  5
3115
  8
0
 10
33.267949192434457
 20
76.000000000005485
 30
0.0
 11
34.133974596217257
 21
74.50000000001998
 31
0.0
  0
CIRCLE
  5
3492
  8
0
 10
35.0
 20
76.000000000017081
 30
0.0
 40
5.0
  0
LINE
  5
3525
  8
0
 10
38.269400363268353
 20
55.70843914172309
 30
0.0
 11
38.303892224538011
 21
50.130327189723232
 31
0.0
  0
LINE
  5
3526
  8
0
 10
31.28158683067824
 20
55.70843914172309
 30
0.0
 11
31.247094969408639
 21
50.130327189727318
 31
0.0
  0
LINE
  5
3591
  8
1
 10
35.0
 20
28.0
 30
0.0
 11
35.0
 21
58.00000000001706
 31
0.0
  0
LINE
  5
3592
  8
0
 10
37.0
 20
36.85975969618616
 30
0.0
 11
37.0
 21
30.800000000000011
 31
0.0
  0
LINE
  5
3593
  8
0
 10
36.199999999999989
 20
30.0
 30
0.0
 11
33.79999999999999
 21
30.0
 31
0.0
  0
LINE
  5
3594
  8
0
 10
37.0
 20
30.799999999999979
 30
0.0
 11
36.199999999999989
 21
30.0
 31
0.0
  0
LINE
  5
3595
  8
0
 10
33.000000000000028
 20
30.799999999999962
 30
0.0
 11
37.0
 21
30.80000000000004
 31
0.0
  0
LINE
  5
3596
  8
3
 10
36.620999999998588
 20
36.859759696186188
 30
0.0
 11
36.620999999998588
 21
30.4209999999986
 31
0.0
  0
LINE
  5
3597
  8
3
 10
33.379000000001362
 20
36.859759696186188
 30
0.0
 11
33.379000000001383
 21
30.4209999999986
 31
0.0
  0
LINE
  5
3598
  8
0
 10
33.0
 20
30.799999999999979
 30
0.0
 11
33.79999999999999
 21
30.0
 31
0.0
  0
LINE
  5
3599
  8
0
 10
32.999999999999972
 20
36.859759696186188
 30
0.0
 11
33.0
 21
30.800000000000011
 31
0.0
  0
LINE
  5
359A
  8
1
 10
42.0
 20
76.000000000017081
 30
0.0
 11
28.0
 21
76.000000000017081
 31
0.0
  0
LINE
  5
359E
  8
1
 10
35.0
 20
69.000000000017081
 30
0.0
 11
35.0
 21
83.000000000017067
 31
0.0
  0
LINE
  5
35E6
  8
2
 10
37.0
 20
51.343552743937401
 30
0.0
 11
33.0
 21
51.343552743937437
 31
0.0
  0
LINE
  5
35E7
  8
2
 10
36.620999999998652
 20
51.343552743937401
 30
0.0
 11
37.000000000000028
 21
52.000000000008413
 31
0.0
  0
LINE
  5
35E8
  8
2
 10
33.379000000001412
 20
51.343552743937437
 30
0.0
 11
33.000000000000028
 21
52.000000000008413
 31
0.0
  0
LINE
  5
35E9
  8
2
 10
37.0
 20
52.000000000008413
 30
0.0
 11
36.999999999999972
 21
36.859759696186188
 31
0.0
  0
LINE
  5
35EA
  8
2
 10
36.620999999998531
 20
51.343552743937437
 30
0.0
 11
36.62099999999856
 21
36.859759696186188
 31
0.0
  0
LINE
  5
35EB
  8
2
 10
33.379000000001298
 20
51.343552743937437
 30
0.0
 11
33.379000000001362
 21
36.859759696186188
 31
0.0
  0
LINE
  5
35EC
  8
2
 10
32.999999999999858
 20
52.000000000008377
 30
0.0
 11
33.0
 21
36.859759696186188
 31
0.0
  0
ENDSEC
  0
EOF
