  0
SECTION
  2
HEADER
  9
$ACADVER
  1
AC1009
  9
$INSBASE
 10
0.0
 20
0.0
 30
0.0
  9
$EXTMIN
 10
0.0
 20
-1.4802182810368341
 30
0.0
  9
$EXTMAX
 10
38.477000000000032
 20
76.238500000016984
 30
0.0
  9
$LIMMIN
 10
0.0
 20
0.0
  9
$LIMMAX
 10
12.0
 20
9.0
  9
$ORTHOMODE
 70
     1
  9
$REGENMODE
 70
     1
  9
$FILLMODE
 70
     1
  9
$QTEXTMODE
 70
     0
  9
$MIRRTEXT
 70
     0
  9
$DRAGMODE
 70
     2
  9
$LTSCALE
 40
0.5
  9
$OSMODE
 70
    37
  9
$ATTMODE
 70
     1
  9
$TEXTSIZE
 40
0.2
  9
$TRACEWID
 40
0.05
  9
$TEXTSTYLE
  7
STANDARD
  9
$CLAYER
  8
0
  9
$CELTYPE
  6
BYLAYER
  9
$CECOLOR
 62
   256
  9
$DIMSCALE
 40
1.0
  9
$DIMASZ
 40
1.0
  9
$DIMEXO
 40
2.54
  9
$DIMDLI
 40
0.38
  9
$DIMRND
 40
0.0
  9
$DIMDLE
 40
0.0
  9
$DIMEXE
 40
2.54
  9
$DIMTP
 40
0.0
  9
$DIMTM
 40
0.0
  9
$DIMTXT
 40
3.2000000000000002
  9
$DIMCEN
 40
0.09
  9
$DIMTSZ
 40
0.0
  9
$DIMTOL
 70
     0
  9
$DIMLIM
 70
     0
  9
$DIMTIH
 70
     0
  9
$DIMTOH
 70
     0
  9
$DIMSE1
 70
     0
  9
$DIMSE2
 70
     0
  9
$DIMTAD
 70
     1
  9
$DIMZIN
 70
     0
  9
$DIMBLK
  1

  9
$DIMASO
 70
     1
  9
$DIMSHO
 70
     0
  9
$DIMPOST
  1

  9
$DIMAPOST
  1

  9
$DIMALT
 70
     0
  9
$DIMALTD
 70
     2
  9
$DIMALTF
 40
25.399999999999999
  9
$DIMLFAC
 40
1.0
  9
$DIMTOFL
 70
     0
  9
$DIMTVP
 40
1.0
  9
$DIMTIX
 70
     0
  9
$DIMSOXD
 70
     0
  9
$DIMSAH
 70
     0
  9
$DIMBLK1
  1

  9
$DIMBLK2
  1

  9
$DIMSTYLE
  2
STANDARD
  9
$DIMCLRD
 70
     0
  9
$DIMCLRE
 70
     0
  9
$DIMCLRT
 70
     0
  9
$DIMTFAC
 40
1.0
  9
$DIMGAP
 40
1.6000000000000001
  9
$LUNITS
 70
     2
  9
$LUPREC
 70
     1
  9
$SKETCHINC
 40
0.1
  9
$FILLETRAD
 40
0.5
  9
$AUNITS
 70
     0
  9
$AUPREC
 70
     1
  9
$MENU
  1
.
  9
$ELEVATION
 40
0.0
  9
$PELEVATION
 40
0.0
  9
$THICKNESS
 40
0.0
  9
$LIMCHECK
 70
     0
  9
$BLIPMODE
 70
     0
  9
$CHAMFERA
 40
0.2
  9
$CHAMFERB
 40
0.2
  9
$SKPOLY
 70
     0
  9
$TDCREATE
 40
2453173.4709223039
  9
$TDUPDATE
 40
2457711.4316847799
  9
$TDINDWG
 40
2.2111562730999998
  9
$TDUSRTIMER
 40
2456598.314262569
  9
$USRTIMER
 70
     1
  9
$ANGBASE
 50
0.0
  9
$ANGDIR
 70
     0
  9
$PDMODE
 70
     0
  9
$PDSIZE
 40
0.0
  9
$PLINEWID
 40
0.0
  9
$COORDS
 70
     1
  9
$SPLFRAME
 70
     0
  9
$SPLINETYPE
 70
     6
  9
$SPLINESEGS
 70
     8
  9
$ATTDIA
 70
     0
  9
$ATTREQ
 70
     1
  9
$HANDLING
 70
     1
  9
$HANDSEED
  5
5A9A
  9
$SURFTAB1
 70
     6
  9
$SURFTAB2
 70
     6
  9
$SURFTYPE
 70
     6
  9
$SURFU
 70
     6
  9
$SURFV
 70
     6
  9
$UCSNAME
  2

  9
$UCSORG
 10
0.0
 20
0.0
 30
0.0
  9
$UCSXDIR
 10
1.0
 20
0.0
 30
0.0
  9
$UCSYDIR
 10
0.0
 20
1.0
 30
0.0
  9
$PUCSNAME
  2

  9
$PUCSORG
 10
0.0
 20
0.0
 30
0.0
  9
$PUCSXDIR
 10
1.0
 20
0.0
 30
0.0
  9
$PUCSYDIR
 10
0.0
 20
1.0
 30
0.0
  9
$USERI1
 70
     0
  9
$USERI2
 70
     0
  9
$USERI3
 70
     0
  9
$USERI4
 70
     0
  9
$USERI5
 70
     0
  9
$USERR1
 40
0.0
  9
$USERR2
 40
0.0
  9
$USERR3
 40
0.0
  9
$USERR4
 40
0.0
  9
$USERR5
 40
0.0
  9
$WORLDVIEW
 70
     1
  9
$SHADEDGE
 70
     3
  9
$SHADEDIF
 70
    70
  9
$TILEMODE
 70
     1
  9
$MAXACTVP
 70
    64
  9
$PLIMCHECK
 70
     0
  9
$PEXTMIN
 10
1.0000000000000000E+020
 20
1.0000000000000000E+020
 30
1.0000000000000000E+020
  9
$PEXTMAX
 10
-1.0000000000000000E+020
 20
-1.0000000000000000E+020
 30
-1.0000000000000000E+020
  9
$PLIMMIN
 10
0.0
 20
0.0
  9
$PLIMMAX
 10
12.0
 20
9.0
  9
$UNITMODE
 70
     0
  9
$VISRETAIN
 70
     1
  9
$PLINEGEN
 70
     0
  9
$PSLTSCALE
 70
     1
  0
ENDSEC
  0
SECTION
  2
TABLES
  0
TABLE
  2
VPORT
 70
     1
  0
VPORT
  2
*ACTIVE
 70
     0
 10
0.0
 20
0.0
 11
1.0
 21
1.0
 12
90.818576776105473
 22
50.000000000000007
 13
0.0
 23
0.0
 14
1.0
 24
1.0
 15
0.0
 25
0.0
 16
0.0
 26
0.0
 36
1.0
 17
0.0
 27
0.0
 37
0.0
 40
100.0727983815848
 41
1.816239316239316
 42
50.0
 43
0.0
 44
0.0
 50
0.0
 51
0.0
 71
     0
 72
   100
 73
     1
 74
     1
 75
     0
 76
     0
 77
     0
 78
     0
  0
ENDTAB
  0
TABLE
  2
LTYPE
 70
     3
  0
LTYPE
  2
CONTINUOUS
 70
     0
  3
Solid line
 72
    65
 73
     0
 40
0.0
  0
LTYPE
  2
CENTER
 70
     0
  3
Center ____ _ ____ _ ____ _ ____ _ ____ _ ____
 72
    65
 73
     4
 40
12.0
 49
7.5
 49
-1.5
 49
1.5
 49
-1.5
  0
LTYPE
  2
PHANTOM2
 70
     0
  3
___ _ _ ___ _ _ ___ _ _ ___ _ _
 72
    65
 73
     6
 40
1.25
 49
0.625
 49
-0.125
 49
0.125
 49
-0.125
 49
0.125
 49
-0.125
  0
ENDTAB
  0
TABLE
  2
LAYER
 70
     4
  0
LAYER
  2
0
 70
     0
 62
     7
  6
CONTINUOUS
  0
LAYER
  2
1
 70
     0
 62
     1
  6
CENTER
  0
LAYER
  2
3
 70
     0
 62
     3
  6
CONTINUOUS
  0
LAYER
  2
DEFPOINTS
 70
     0
 62
     7
  6
CONTINUOUS
  0
ENDTAB
  0
TABLE
  2
STYLE
 70
     2
  0
STYLE
  2
STANDARD
 70
     0
 40
0.0
 41
1.0
 50
0.0
 71
     0
 42
0.2
  3
simplex.shx
  4
bigfont.shx
  0
STYLE
  2
STANDARD1
 70
     0
 40
0.0
 41
1.0
 50
0.0
 71
     0
 42
3.0
  3
txt
  4

  0
ENDTAB
  0
TABLE
  2
VIEW
 70
     0
  0
ENDTAB
  0
TABLE
  2
UCS
 70
     0
  0
ENDTAB
  0
TABLE
  2
APPID
 70
     7
  0
APPID
  2
ACAD
 70
     0
  0
APPID
  2
ACAD_EXEMPT_FROM_CAD_STANDARDS
 70
     0
  0
APPID
  2
ACAD_NAV_VCDISPLAY
 70
     0
  0
APPID
  2
ACAD_DSTYLE_DIMJAG
 70
     0
  0
APPID
  2
ACAD_DSTYLE_DIMTALN
 70
     0
  0
APPID
  2
ACAD_DSTYLE_DIMRADIAL_EXTENSION
 70
     0
  0
APPID
  2
ACAD_MLEADERVER
 70
     0
  0
ENDTAB
  0
TABLE
  2
DIMSTYLE
 70
     1
  0
DIMSTYLE
  2
STANDARD
 70
     0
  3

  4

  5

  6

  7

 40
1.0
 41
0.18
 42
0.0625
 43
0.38
 44
0.18
 45
0.0
 46
0.0
 47
0.0
 48
0.0
140
0.18
141
0.09
142
0.0
143
25.399999999999999
144
1.0
145
0.0
146
1.0
147
0.09
 71
     0
 72
     0
 73
     1
 74
     1
 75
     0
 76
     0
 77
     0
 78
     0
170
     0
171
     2
172
     0
173
     0
174
     0
175
     0
176
     0
177
     0
178
     0
  0
ENDTAB
  0
ENDSEC
  0
SECTION
  2
BLOCKS
  0
BLOCK
  8
0
  2
$MODEL_SPACE
 70
     0
 10
0.0
 20
0.0
 30
0.0
  3
$MODEL_SPACE
  1

  0
ENDBLK
  5
9
  8
0
  0
BLOCK
 67
     1
  8
0
  2
$PAPER_SPACE
 70
     0
 10
0.0
 20
0.0
 30
0.0
  3
$PAPER_SPACE
  1

  0
ENDBLK
  5
E
 67
     1
  8
0
  0
ENDSEC
  0
SECTION
  2
ENTITIES
  0
TEXT
  5
2ABC
  8
0
 62
     3
 10
0.0
 20
0.0
 30
0.0
 40
5.0
  1
PEPP10-TB
  7
STANDARD1
  0
CIRCLE
  5
3795
  8
0
 10
33.238500000000023
 20
71.000000000017053
 30
0.0
 40
3.2385000000000028
  0
LINE
  5
37A2
  8
0
 10
32.372474596207127
 20
72.500000000008413
 30
0.0
 11
31.506449192434498
 21
71.000000000017053
 31
0.0
  0
LINE
  5
37A3
  8
0
 10
34.104525403772591
 20
72.500000000020009
 30
0.0
 11
32.372474596217216
 21
72.500000000014211
 31
0.0
  0
LINE
  5
37A4
  8
0
 10
34.104525403782787
 20
72.500000000014097
 30
0.0
 11
34.970550807565502
 21
71.000000000028763
 31
0.0
  0
LINE
  5
37A5
  8
0
 10
34.10452540379282
 20
69.500000000025693
 30
0.0
 11
34.970550807565481
 21
71.000000000017053
 31
0.0
  0
LINE
  5
37A6
  8
0
 10
32.372474596227313
 20
69.500000000014083
 30
0.0
 11
34.104525403782851
 21
69.500000000020009
 31
0.0
  0
LINE
  5
37A7
  8
0
 10
31.50644919243447
 20
71.000000000005457
 30
0.0
 11
32.372474596217273
 21
69.500000000020009
 31
0.0
  0
LINE
  5
37AB
  8
1
 10
33.238500000000023
 20
27.999999999999972
 30
0.0
 11
33.238500000000023
 21
58.00000000001706
 31
0.0
  0
LINE
  5
37AC
  8
1
 10
33.238500000000023
 20
65.761500000017008
 30
0.0
 11
33.238500000000023
 21
76.238500000016984
 31
0.0
  0
LINE
  5
37AD
  8
0
 10
35.238500000000023
 20
52.000000000008377
 30
0.0
 11
35.238500000000023
 21
30.799999999999979
 31
0.0
  0
LINE
  5
37AE
  8
0
 10
34.438500000000012
 20
29.999999999999972
 30
0.0
 11
32.038499999999999
 21
29.999999999999972
 31
0.0
  0
LINE
  5
37AF
  8
0
 10
35.238500000000023
 20
30.799999999999962
 30
0.0
 11
34.438500000000012
 21
29.999999999999972
 31
0.0
  0
LINE
  5
37B0
  8
0
 10
31.238500000000041
 20
30.79999999999993
 30
0.0
 11
35.238500000000023
 21
30.800000000000011
 31
0.0
  0
LINE
  5
37B1
  8
3
 10
34.859499999998633
 20
51.343552743937401
 30
0.0
 11
34.859499999998597
 21
30.420999999998571
 31
0.0
  0
LINE
  5
37B2
  8
3
 10
31.617500000001311
 20
51.343552743937401
 30
0.0
 11
31.617500000001399
 21
30.420999999998571
 31
0.0
  0
LINE
  5
37B3
  8
0
 10
31.23850000000002
 20
30.799999999999962
 30
0.0
 11
32.038499999999999
 21
29.999999999999972
 31
0.0
  0
LINE
  5
37B4
  8
0
 10
31.238499999999899
 20
52.000000000008377
 30
0.0
 11
31.23850000000002
 21
30.799999999999979
 31
0.0
  0
LINE
  5
37B5
  8
1
 10
38.477000000000032
 20
71.000000000017053
 30
0.0
 11
28.0
 21
71.000000000017053
 31
0.0
  0
LINE
  5
37B6
  8
0
 10
35.238500000000023
 20
51.34355274393738
 30
0.0
 11
31.23850000000002
 21
51.343552743937401
 31
0.0
  0
LINE
  5
37B7
  8
3
 10
34.859499999998661
 20
51.34355274393738
 30
0.0
 11
35.238500000000052
 21
52.000000000008377
 31
0.0
  0
LINE
  5
37B8
  8
3
 10
31.617500000001431
 20
51.343552743937401
 30
0.0
 11
31.238500000000041
 21
52.000000000008377
 31
0.0
  0
ARC
  5
37BE
  8
0
 10
35.969000000000001
 20
55.492000000017008
 30
0.0
 40
0.5079999999999956
 50
349.00000000200492
 51
90.0
  0
ARC
  5
37BF
  8
0
 10
30.50800000000001
 20
55.492000000017008
 30
0.0
 40
0.5079999999999956
 50
90.0
 51
190.9999999979967
  0
LINE
  5
37C0
  8
0
 10
30.009333390807338
 20
55.39506903038383
 30
0.0
 11
30.669267958475309
 21
52.000000000008377
 31
0.0
  0
LINE
  5
37C1
  8
0
 10
35.80773204152473
 20
52.000000000008377
 30
0.0
 11
36.467666609192662
 21
55.39506903038383
 31
0.0
  0
LINE
  5
37C3
  8
0
 10
30.50800000000001
 20
56.000000000017053
 30
0.0
 11
35.969000000000001
 21
56.000000000017053
 31
0.0
  0
LINE
  5
37C4
  8
0
 10
30.669267958475309
 20
52.000000000008377
 30
0.0
 11
35.80773204152473
 21
52.000000000008377
 31
0.0
  0
LINE
  5
37C6
  8
0
 10
36.46766660919144
 20
55.39506903038383
 30
0.0
 11
30.009333390805072
 21
55.395069030383858
 31
0.0
  0
ENDSEC
  0
EOF
