  0
SECTION
  2
HEADER
  9
$ACADVER
  1
AC1009
  9
$INSBASE
 10
0.0
 20
0.0
 30
0.0
  9
$EXTMIN
 10
0.0
 20
-2.960436562073669
 30
0.0
  9
$EXTMAX
 10
83.055934515688946
 20
127.5
 30
0.0
  9
$LIMMIN
 10
0.0
 20
0.0
  9
$LIMMAX
 10
375.0
 20
270.0
  9
$ORTHOMODE
 70
     1
  9
$REGENMODE
 70
     1
  9
$FILLMODE
 70
     1
  9
$QTEXTMODE
 70
     0
  9
$MIRRTEXT
 70
     0
  9
$DRAGMODE
 70
     2
  9
$LTSCALE
 40
5.0
  9
$OSMODE
 70
    37
  9
$ATTMODE
 70
     1
  9
$TEXTSIZE
 40
0.2
  9
$TRACEWID
 40
0.05
  9
$TEXTSTYLE
  7
STANDARD
  9
$CLAYER
  8
0
  9
$CELTYPE
  6
BYLAYER
  9
$CECOLOR
 62
   256
  9
$DIMSCALE
 40
1.0
  9
$DIMASZ
 40
3.0
  9
$DIMEXO
 40
1.0
  9
$DIMDLI
 40
6.0
  9
$DIMRND
 40
0.0
  9
$DIMDLE
 40
0.0
  9
$DIMEXE
 40
1.0
  9
$DIMTP
 40
495.0
  9
$DIMTM
 40
0.0
  9
$DIMTXT
 40
3.0
  9
$DIMCEN
 40
0.0
  9
$DIMTSZ
 40
0.0
  9
$DIMTOL
 70
     0
  9
$DIMLIM
 70
     0
  9
$DIMTIH
 70
     0
  9
$DIMTOH
 70
     0
  9
$DIMSE1
 70
     0
  9
$DIMSE2
 70
     0
  9
$DIMTAD
 70
     1
  9
$DIMZIN
 70
     8
  9
$DIMBLK
  1

  9
$DIMASO
 70
     0
  9
$DIMSHO
 70
     0
  9
$DIMPOST
  1

  9
$DIMAPOST
  1

  9
$DIMALT
 70
     0
  9
$DIMALTD
 70
     2
  9
$DIMALTF
 40
25.399999999999999
  9
$DIMLFAC
 40
1.0
  9
$DIMTOFL
 70
     1
  9
$DIMTVP
 40
0.0
  9
$DIMTIX
 70
     1
  9
$DIMSOXD
 70
     0
  9
$DIMSAH
 70
     0
  9
$DIMBLK1
  1

  9
$DIMBLK2
  1

  9
$DIMSTYLE
  2
STANDARD
  9
$DIMCLRD
 70
     4
  9
$DIMCLRE
 70
     4
  9
$DIMCLRT
 70
     4
  9
$DIMTFAC
 40
1.0
  9
$DIMGAP
 40
1.0
  9
$LUNITS
 70
     2
  9
$LUPREC
 70
     1
  9
$SKETCHINC
 40
0.1
  9
$FILLETRAD
 40
2.0
  9
$AUNITS
 70
     0
  9
$AUPREC
 70
     1
  9
$MENU
  1
C:\R13\WIN\SUPPORT\ACAD-I
  9
$ELEVATION
 40
0.0
  9
$PELEVATION
 40
0.0
  9
$THICKNESS
 40
0.0
  9
$LIMCHECK
 70
     0
  9
$BLIPMODE
 70
     0
  9
$CHAMFERA
 40
0.0
  9
$CHAMFERB
 40
0.0
  9
$SKPOLY
 70
     0
  9
$TDCREATE
 40
2451963.5438110419
  9
$TDUPDATE
 40
2458040.665411389
  9
$TDINDWG
 40
0.6757965162
  9
$TDUSRTIMER
 40
2456598.540949746
  9
$USRTIMER
 70
     1
  9
$ANGBASE
 50
0.0
  9
$ANGDIR
 70
     0
  9
$PDMODE
 70
     0
  9
$PDSIZE
 40
0.0
  9
$PLINEWID
 40
0.0
  9
$COORDS
 70
     1
  9
$SPLFRAME
 70
     0
  9
$SPLINETYPE
 70
     6
  9
$SPLINESEGS
 70
     8
  9
$ATTDIA
 70
     0
  9
$ATTREQ
 70
     1
  9
$HANDLING
 70
     1
  9
$HANDSEED
  5
121B0
  9
$SURFTAB1
 70
     6
  9
$SURFTAB2
 70
     6
  9
$SURFTYPE
 70
     6
  9
$SURFU
 70
     6
  9
$SURFV
 70
     6
  9
$UCSNAME
  2

  9
$UCSORG
 10
0.0
 20
0.0
 30
0.0
  9
$UCSXDIR
 10
1.0
 20
0.0
 30
0.0
  9
$UCSYDIR
 10
0.0
 20
1.0
 30
0.0
  9
$PUCSNAME
  2

  9
$PUCSORG
 10
0.0
 20
0.0
 30
0.0
  9
$PUCSXDIR
 10
1.0
 20
0.0
 30
0.0
  9
$PUCSYDIR
 10
0.0
 20
1.0
 30
0.0
  9
$USERI1
 70
     4
  9
$USERI2
 70
     1
  9
$USERI3
 70
     0
  9
$USERI4
 70
     0
  9
$USERI5
 70
     0
  9
$USERR1
 40
1.0
  9
$USERR2
 40
3.0
  9
$USERR3
 40
3.0
  9
$USERR4
 40
3.0
  9
$USERR5
 40
10.0
  9
$WORLDVIEW
 70
     1
  9
$SHADEDGE
 70
     3
  9
$SHADEDIF
 70
    70
  9
$TILEMODE
 70
     1
  9
$MAXACTVP
 70
    16
  9
$PLIMCHECK
 70
     0
  9
$PEXTMIN
 10
1.0000000000000000E+020
 20
1.0000000000000000E+020
 30
1.0000000000000000E+020
  9
$PEXTMAX
 10
-1.0000000000000000E+020
 20
-1.0000000000000000E+020
 30
-1.0000000000000000E+020
  9
$PLIMMIN
 10
0.0
 20
0.0
  9
$PLIMMAX
 10
12.0
 20
9.0
  9
$UNITMODE
 70
     0
  9
$VISRETAIN
 70
     0
  9
$PLINEGEN
 70
     0
  9
$PSLTSCALE
 70
     0
  0
ENDSEC
  0
SECTION
  2
TABLES
  0
TABLE
  2
VPORT
 70
     1
  0
VPORT
  2
*ACTIVE
 70
     0
 10
0.0
 20
0.0
 11
1.0
 21
1.0
 12
181.64210898217519
 22
100.0
 13
0.0
 23
0.0
 14
10.0
 24
10.0
 15
10.0
 25
10.0
 16
0.0
 26
0.0
 36
1.0
 17
0.0
 27
0.0
 37
0.0
 40
200.2025043804303
 41
1.816239316239316
 42
50.0
 43
0.0
 44
0.0
 50
0.0
 51
0.0
 71
     0
 72
   100
 73
     1
 74
     0
 75
     0
 76
     0
 77
     0
 78
     0
  0
ENDTAB
  0
TABLE
  2
LTYPE
 70
     3
  0
LTYPE
  2
CONTINUOUS
 70
     0
  3
Solid Line
 72
    65
 73
     0
 40
0.0
  0
LTYPE
  2
CENTER
 70
     0
  3
____ _ ____ _ ____ _ ____ _ ____ _ ____ _ ____
 72
    65
 73
     4
 40
2.0
 49
1.25
 49
-0.25
 49
0.25
 49
-0.25
  0
LTYPE
  2
PHANTOM2
 70
     0
  3
___ _ _ ___ _ _ ___ _ _ ___ _ _
 72
    65
 73
     6
 40
1.25
 49
0.625
 49
-0.125
 49
0.125
 49
-0.125
 49
0.125
 49
-0.125
  0
ENDTAB
  0
TABLE
  2
LAYER
 70
     3
  0
LAYER
  2
0
 70
     0
 62
     7
  6
CONTINUOUS
  0
LAYER
  2
1
 70
     0
 62
     1
  6
CENTER
  0
LAYER
  2
DEFPOINTS
 70
     0
 62
     7
  6
CONTINUOUS
  0
ENDTAB
  0
TABLE
  2
STYLE
 70
     2
  0
STYLE
  2
STANDARD
 70
     0
 40
0.0
 41
1.0
 50
0.0
 71
     0
 42
0.2
  3
SIMPLEX
  4
BIGFONT
  0
STYLE
  2
STANDARD1
 70
     0
 40
0.0
 41
1.0
 50
0.0
 71
     0
 42
3.0
  3
txt
  4

  0
ENDTAB
  0
TABLE
  2
VIEW
 70
     0
  0
ENDTAB
  0
TABLE
  2
UCS
 70
     0
  0
ENDTAB
  0
TABLE
  2
APPID
 70
    33
  0
APPID
  2
ACAD
 70
     0
  0
APPID
  2
GENIUS_GENOREF_13
 70
     0
  0
APPID
  2
GENIUS_GENOENT_13
 70
     0
  0
APPID
  2
GENIUS_GENBH_13
 70
     0
  0
APPID
  2
GENIUS_GENOBJ_13
 70
     0
  0
APPID
  2
GENIUS_GENODEF_13
 70
     0
  0
APPID
  2
GENIUS_GENOLIS_13
 70
     0
  0
APPID
  2
GENIUS_GENOBJ-NBEHI-BHF_13
 70
     0
  0
APPID
  2
GENIUS_GENOBJ-NBEHI-BHB_13
 70
     0
  0
APPID
  2
GENIUS_GENOBJ-F-PART_13
 70
     0
  0
APPID
  2
GENIUS_GEFSTDP_13
 70
     0
  0
APPID
  2
GENIUS_GENOBJ-N-RSSYM_13
 70
     0
  0
APPID
  2
GENIUS_GENSYMENT_13
 70
     0
  0
APPID
  2
GENIUS_GENOBJ-N-TIT_13
 70
     0
  0
APPID
  2
GENIUS_GENTITLE_13
 70
     0
  0
APPID
  2
GENIUS_GENZVEED_13
 70
     0
  0
APPID
  2
GENIUS_GENOBJ-N-LEADER_13
 70
     0
  0
APPID
  2
GENIUS_GENOBJ-N-FIL_13
 70
     0
  0
APPID
  2
GENIUS_GENOBJ-N-SEC_13
 70
     0
  0
APPID
  2
GENIUS_GENOBJ-N-CRS_13
 70
     0
  0
APPID
  2
GENIUS_GENOBJ-N-ZOO_13
 70
     0
  0
APPID
  2
GENIUS_GENZOO_13
 70
     0
  0
APPID
  2
GENIUS_GENOBJ-F-TOL_13
 70
     0
  0
APPID
  2
GENIUS_GENFIL_13
 70
     0
  0
APPID
  2
GENIUS_GENOBJ-N-CHA_13
 70
     0
  0
APPID
  2
_CALL_MAC$
 70
     0
  0
APPID
  2
ACAD_NAV_VCDISPLAY
 70
     0
  0
APPID
  2
ACAD_EXEMPT_FROM_CAD_STANDARDS
 70
     0
  0
APPID
  2
ACAD_MLEADERVER
 70
     0
  0
APPID
  2
ACAD_DSTYLE_DIMJAG
 70
     0
  0
APPID
  2
ACAD_DSTYLE_DIMTALN
 70
     0
  0
APPID
  2
ACAECLAYERSTANDARD
 70
     0
  0
APPID
  2
ACCMTRANSPARENCY
 70
     0
  0
ENDTAB
  0
TABLE
  2
DIMSTYLE
 70
     1
  0
DIMSTYLE
  2
STANDARD
 70
     0
  3

  4

  5

  6

  7

 40
1.0
 41
0.18
 42
0.0625
 43
0.38
 44
0.18
 45
0.0
 46
0.0
 47
0.0
 48
0.0
140
0.18
141
0.09
142
0.0
143
25.399999999999999
144
1.0
145
0.0
146
1.0
147
0.09
 71
     0
 72
     0
 73
     1
 74
     1
 75
     0
 76
     0
 77
     0
 78
     0
170
     0
171
     2
172
     0
173
     0
174
     0
175
     0
176
     0
177
     0
178
     0
  0
ENDTAB
  0
ENDSEC
  0
SECTION
  2
BLOCKS
  0
BLOCK
  8
0
  2
$MODEL_SPACE
 70
     0
 10
0.0
 20
0.0
 30
0.0
  3
$MODEL_SPACE
  1

  0
ENDBLK
  5
CF6E
  8
0
  0
BLOCK
 67
     1
  8
0
  2
$PAPER_SPACE
 70
     0
 10
0.0
 20
0.0
 30
0.0
  3
$PAPER_SPACE
  1

  0
ENDBLK
  5
CF6C
 67
     1
  8
0
  0
ENDSEC
  0
SECTION
  2
ENTITIES
  0
TEXT
  5
100F9
  8
0
 62
     3
 10
0.0
 20
0.0
 30
0.0
 40
10.0
  1
PEC-T45-GR
  7
STANDARD1
  0
LINE
  5
10109
  8
1
 10
50.0
 20
127.5
 30
0.0
 11
50.0
 21
72.5
 31
0.0
  0
CIRCLE
  5
10585
  8
0
 10
50.0
 20
100.0
 30
0.0
 40
22.5
  0
LINE
  5
1085E
  8
1
 10
77.5
 20
100.0
 30
0.0
 11
22.5
 21
100.0
 31
0.0
  0
LINE
  5
10861
  8
1
 10
50.0
 20
51.0
 30
0.0
 11
50.0
 21
25.0
 31
0.0
  0
LINE
  5
120A5
  8
0
 10
72.5
 20
40.999999999999879
 30
0.0
 11
72.5
 21
44.874999999999893
 31
0.0
  0
LINE
  5
120A6
  8
0
 10
27.500000000000028
 20
44.874999999999893
 30
0.0
 11
27.500000000000028
 21
40.999999999999879
 31
0.0
  0
ARC
  5
120A7
  8
0
 10
71.375
 20
44.874999999999893
 30
0.0
 40
1.125000000000014
 50
0.0
 51
90.0
  0
ARC
  5
120A8
  8
0
 10
28.625
 20
44.874999999999893
 30
0.0
 40
1.125000000000014
 50
90.0
 51
180.0
  0
LINE
  5
120A9
  8
0
 10
28.500000000000028
 20
37.699999999999932
 30
0.0
 11
31.000000000000028
 21
35.94948115447562
 31
0.0
  0
LINE
  5
120AA
  8
0
 10
69.0
 20
35.94948115447562
 30
0.0
 11
71.5
 21
37.699999999999932
 31
0.0
  0
LINE
  5
120AB
  8
0
 10
28.500000000000028
 20
40.449999999999932
 30
0.0
 11
31.000000000000028
 21
38.69948115447562
 31
0.0
  0
LINE
  5
120AC
  8
0
 10
69.0
 20
38.69948115447562
 30
0.0
 11
71.5
 21
40.449999999999932
 31
0.0
  0
LINE
  5
120AD
  8
0
 10
28.500000000000028
 20
34.949999999999932
 30
0.0
 11
31.000000000000028
 21
33.19948115447562
 31
0.0
  0
LINE
  5
120AE
  8
0
 10
69.0
 20
33.19948115447562
 30
0.0
 11
71.5
 21
34.949999999999932
 31
0.0
  0
LINE
  5
120AF
  8
0
 10
28.500000000000028
 20
32.199999999999932
 30
0.0
 11
31.000000000000028
 21
30.44948115447562
 31
0.0
  0
LINE
  5
120B0
  8
0
 10
69.0
 20
30.44948115447562
 30
0.0
 11
71.5
 21
32.199999999999932
 31
0.0
  0
LINE
  5
120B1
  8
0
 10
69.0
 20
40.449999999999932
 30
0.0
 11
69.0
 21
40.999999999999879
 31
0.0
  0
LINE
  5
120B2
  8
0
 10
31.000000000000028
 20
40.999999999999879
 30
0.0
 11
31.000000000000028
 21
40.449999999999932
 31
0.0
  0
LINE
  5
120B3
  8
0
 10
69.0
 20
32.199999999999932
 30
0.0
 11
69.0
 21
33.19948115447562
 31
0.0
  0
LINE
  5
120B4
  8
0
 10
31.000000000000028
 20
33.19948115447562
 30
0.0
 11
31.000000000000028
 21
32.199999999999932
 31
0.0
  0
LINE
  5
120B5
  8
0
 10
69.0
 20
34.949999999999932
 30
0.0
 11
69.0
 21
35.94948115447562
 31
0.0
  0
LINE
  5
120B6
  8
0
 10
31.000000000000028
 20
35.94948115447562
 30
0.0
 11
31.000000000000028
 21
34.949999999999932
 31
0.0
  0
LINE
  5
120B7
  8
0
 10
69.0
 20
37.699999999999932
 30
0.0
 11
69.0
 21
38.69948115447562
 31
0.0
  0
LINE
  5
120B8
  8
0
 10
31.000000000000028
 20
38.69948115447562
 30
0.0
 11
31.000000000000028
 21
37.699999999999932
 31
0.0
  0
LINE
  5
120B9
  8
0
 10
69.0
 20
29.99999999999989
 30
0.0
 11
69.0
 21
30.44948115447562
 31
0.0
  0
LINE
  5
120BA
  8
0
 10
31.000000000000028
 20
30.44948115447562
 30
0.0
 11
31.000000000000028
 21
29.99999999999989
 31
0.0
  0
LINE
  5
120BB
  8
0
 10
72.5
 20
40.999999999999879
 30
0.0
 11
27.500000000000089
 21
40.999999999999879
 31
0.0
  0
LINE
  5
120BC
  8
0
 10
71.375
 20
46.0
 30
0.0
 11
28.625
 21
46.0
 31
0.0
  0
LINE
  5
120BD
  8
0
 10
71.5
 20
37.699999999999932
 30
0.0
 11
28.500000000000028
 21
37.699999999999932
 31
0.0
  0
LINE
  5
120BE
  8
0
 10
69.0
 20
35.94948115447562
 30
0.0
 11
31.000000000000028
 21
35.94948115447562
 31
0.0
  0
LINE
  5
120BF
  8
0
 10
69.0
 20
38.69948115447562
 30
0.0
 11
31.000000000000028
 21
38.69948115447562
 31
0.0
  0
LINE
  5
120C0
  8
0
 10
71.5
 20
40.449999999999932
 30
0.0
 11
28.500000000000028
 21
40.449999999999932
 31
0.0
  0
LINE
  5
120C1
  8
0
 10
69.0
 20
33.19948115447562
 30
0.0
 11
31.000000000000028
 21
33.19948115447562
 31
0.0
  0
LINE
  5
120C2
  8
0
 10
71.5
 20
34.949999999999932
 30
0.0
 11
28.500000000000028
 21
34.949999999999932
 31
0.0
  0
LINE
  5
120C3
  8
0
 10
71.5
 20
32.199999999999932
 30
0.0
 11
28.500000000000028
 21
32.199999999999932
 31
0.0
  0
LINE
  5
120C4
  8
0
 10
69.0
 20
30.44948115447562
 30
0.0
 11
31.000000000000028
 21
30.44948115447562
 31
0.0
  0
LINE
  5
120C5
  8
0
 10
69.0
 20
29.99999999999989
 30
0.0
 11
31.000000000000028
 21
29.99999999999989
 31
0.0
  0
ENDSEC
  0
EOF
