  0
SECTION
  2
HEADER
  9
$ACADVER
  1
AC1009
  9
$INSBASE
 10
0.0
 20
0.0
 30
0.0
  9
$EXTMIN
 10
0.0
 20
-2.960436562073669
 30
0.0
  9
$EXTMAX
 10
210.0
 20
150.0
 30
0.0
  9
$LIMMIN
 10
0.0
 20
0.0
  9
$LIMMAX
 10
375.0
 20
270.0
  9
$ORTHOMODE
 70
     1
  9
$REGENMODE
 70
     1
  9
$FILLMODE
 70
     1
  9
$QTEXTMODE
 70
     0
  9
$MIRRTEXT
 70
     0
  9
$DRAGMODE
 70
     2
  9
$LTSCALE
 40
6.0
  9
$OSMODE
 70
    37
  9
$ATTMODE
 70
     1
  9
$TEXTSIZE
 40
0.2
  9
$TRACEWID
 40
0.05
  9
$TEXTSTYLE
  7
STANDARD
  9
$CLAYER
  8
0
  9
$CELTYPE
  6
BYLAYER
  9
$CECOLOR
 62
   256
  9
$DIMSCALE
 40
1.0
  9
$DIMASZ
 40
3.0
  9
$DIMEXO
 40
1.0
  9
$DIMDLI
 40
6.0
  9
$DIMRND
 40
0.0
  9
$DIMDLE
 40
0.0
  9
$DIMEXE
 40
1.0
  9
$DIMTP
 40
495.0
  9
$DIMTM
 40
0.0
  9
$DIMTXT
 40
3.0
  9
$DIMCEN
 40
0.0
  9
$DIMTSZ
 40
0.0
  9
$DIMTOL
 70
     0
  9
$DIMLIM
 70
     0
  9
$DIMTIH
 70
     0
  9
$DIMTOH
 70
     0
  9
$DIMSE1
 70
     0
  9
$DIMSE2
 70
     0
  9
$DIMTAD
 70
     1
  9
$DIMZIN
 70
     8
  9
$DIMBLK
  1

  9
$DIMASO
 70
     0
  9
$DIMSHO
 70
     0
  9
$DIMPOST
  1

  9
$DIMAPOST
  1

  9
$DIMALT
 70
     0
  9
$DIMALTD
 70
     2
  9
$DIMALTF
 40
25.399999999999999
  9
$DIMLFAC
 40
1.0
  9
$DIMTOFL
 70
     1
  9
$DIMTVP
 40
0.0
  9
$DIMTIX
 70
     1
  9
$DIMSOXD
 70
     0
  9
$DIMSAH
 70
     0
  9
$DIMBLK1
  1

  9
$DIMBLK2
  1

  9
$DIMSTYLE
  2
STANDARD
  9
$DIMCLRD
 70
     4
  9
$DIMCLRE
 70
     4
  9
$DIMCLRT
 70
     4
  9
$DIMTFAC
 40
1.0
  9
$DIMGAP
 40
1.0
  9
$LUNITS
 70
     2
  9
$LUPREC
 70
     1
  9
$SKETCHINC
 40
0.1
  9
$FILLETRAD
 40
2.0
  9
$AUNITS
 70
     0
  9
$AUPREC
 70
     1
  9
$MENU
  1
C:\R13\WIN\SUPPORT\ACAD-I
  9
$ELEVATION
 40
0.0
  9
$PELEVATION
 40
0.0
  9
$THICKNESS
 40
0.0
  9
$LIMCHECK
 70
     0
  9
$BLIPMODE
 70
     0
  9
$CHAMFERA
 40
0.0
  9
$CHAMFERB
 40
0.0
  9
$SKPOLY
 70
     0
  9
$TDCREATE
 40
2451963.5438110419
  9
$TDUPDATE
 40
2458043.421828195
  9
$TDINDWG
 40
0.6172931366
  9
$TDUSRTIMER
 40
2456598.482446366
  9
$USRTIMER
 70
     1
  9
$ANGBASE
 50
0.0
  9
$ANGDIR
 70
     0
  9
$PDMODE
 70
     0
  9
$PDSIZE
 40
0.0
  9
$PLINEWID
 40
0.0
  9
$COORDS
 70
     1
  9
$SPLFRAME
 70
     0
  9
$SPLINETYPE
 70
     6
  9
$SPLINESEGS
 70
     8
  9
$ATTDIA
 70
     0
  9
$ATTREQ
 70
     1
  9
$HANDLING
 70
     1
  9
$HANDSEED
  5
13AFC
  9
$SURFTAB1
 70
     6
  9
$SURFTAB2
 70
     6
  9
$SURFTYPE
 70
     6
  9
$SURFU
 70
     6
  9
$SURFV
 70
     6
  9
$UCSNAME
  2

  9
$UCSORG
 10
0.0
 20
0.0
 30
0.0
  9
$UCSXDIR
 10
1.0
 20
0.0
 30
0.0
  9
$UCSYDIR
 10
0.0
 20
1.0
 30
0.0
  9
$PUCSNAME
  2

  9
$PUCSORG
 10
0.0
 20
0.0
 30
0.0
  9
$PUCSXDIR
 10
1.0
 20
0.0
 30
0.0
  9
$PUCSYDIR
 10
0.0
 20
1.0
 30
0.0
  9
$USERI1
 70
     4
  9
$USERI2
 70
     1
  9
$USERI3
 70
     0
  9
$USERI4
 70
     0
  9
$USERI5
 70
     0
  9
$USERR1
 40
1.0
  9
$USERR2
 40
3.0
  9
$USERR3
 40
3.0
  9
$USERR4
 40
3.0
  9
$USERR5
 40
10.0
  9
$WORLDVIEW
 70
     1
  9
$SHADEDGE
 70
     3
  9
$SHADEDIF
 70
    70
  9
$TILEMODE
 70
     1
  9
$MAXACTVP
 70
    16
  9
$PLIMCHECK
 70
     0
  9
$PEXTMIN
 10
1.0000000000000000E+020
 20
1.0000000000000000E+020
 30
1.0000000000000000E+020
  9
$PEXTMAX
 10
-1.0000000000000000E+020
 20
-1.0000000000000000E+020
 30
-1.0000000000000000E+020
  9
$PLIMMIN
 10
0.0
 20
0.0
  9
$PLIMMAX
 10
12.0
 20
9.0
  9
$UNITMODE
 70
     0
  9
$VISRETAIN
 70
     0
  9
$PLINEGEN
 70
     0
  9
$PSLTSCALE
 70
     0
  0
ENDSEC
  0
SECTION
  2
TABLES
  0
TABLE
  2
VPORT
 70
     1
  0
VPORT
  2
*ACTIVE
 70
     0
 10
0.0
 20
0.0
 11
1.0
 21
1.0
 12
181.62628061970489
 22
100.0
 13
0.0
 23
0.0
 14
10.0
 24
10.0
 15
10.0
 25
10.0
 16
0.0
 26
0.0
 36
1.0
 17
0.0
 27
0.0
 37
0.0
 40
200.0261689255027
 41
1.816239316239316
 42
50.0
 43
0.0
 44
0.0
 50
0.0
 51
0.0
 71
     0
 72
   100
 73
     1
 74
     0
 75
     0
 76
     0
 77
     0
 78
     0
  0
ENDTAB
  0
TABLE
  2
LTYPE
 70
     3
  0
LTYPE
  2
CONTINUOUS
 70
     0
  3
Solid Line
 72
    65
 73
     0
 40
0.0
  0
LTYPE
  2
CENTER
 70
     0
  3
____ _ ____ _ ____ _ ____ _ ____ _ ____ _ ____
 72
    65
 73
     4
 40
2.0
 49
1.25
 49
-0.25
 49
0.25
 49
-0.25
  0
LTYPE
  2
PHANTOM2
 70
     0
  3
___ _ _ ___ _ _ ___ _ _ ___ _ _
 72
    65
 73
     6
 40
1.25
 49
0.625
 49
-0.125
 49
0.125
 49
-0.125
 49
0.125
 49
-0.125
  0
ENDTAB
  0
TABLE
  2
LAYER
 70
     3
  0
LAYER
  2
0
 70
     0
 62
     7
  6
CONTINUOUS
  0
LAYER
  2
1
 70
     0
 62
     1
  6
CENTER
  0
LAYER
  2
DEFPOINTS
 70
     0
 62
     7
  6
CONTINUOUS
  0
ENDTAB
  0
TABLE
  2
STYLE
 70
     2
  0
STYLE
  2
STANDARD
 70
     0
 40
0.0
 41
1.0
 50
0.0
 71
     0
 42
0.2
  3
SIMPLEX
  4
BIGFONT
  0
STYLE
  2
STANDARD1
 70
     0
 40
0.0
 41
1.0
 50
0.0
 71
     0
 42
3.0
  3
txt
  4

  0
ENDTAB
  0
TABLE
  2
VIEW
 70
     0
  0
ENDTAB
  0
TABLE
  2
UCS
 70
     0
  0
ENDTAB
  0
TABLE
  2
APPID
 70
    33
  0
APPID
  2
ACAD
 70
     0
  0
APPID
  2
GENIUS_GENOREF_13
 70
     0
  0
APPID
  2
GENIUS_GENOENT_13
 70
     0
  0
APPID
  2
GENIUS_GENBH_13
 70
     0
  0
APPID
  2
GENIUS_GENOBJ_13
 70
     0
  0
APPID
  2
GENIUS_GENODEF_13
 70
     0
  0
APPID
  2
GENIUS_GENOLIS_13
 70
     0
  0
APPID
  2
GENIUS_GENOBJ-NBEHI-BHF_13
 70
     0
  0
APPID
  2
GENIUS_GENOBJ-NBEHI-BHB_13
 70
     0
  0
APPID
  2
GENIUS_GENOBJ-F-PART_13
 70
     0
  0
APPID
  2
GENIUS_GEFSTDP_13
 70
     0
  0
APPID
  2
GENIUS_GENOBJ-N-RSSYM_13
 70
     0
  0
APPID
  2
GENIUS_GENSYMENT_13
 70
     0
  0
APPID
  2
GENIUS_GENOBJ-N-TIT_13
 70
     0
  0
APPID
  2
GENIUS_GENTITLE_13
 70
     0
  0
APPID
  2
GENIUS_GENZVEED_13
 70
     0
  0
APPID
  2
GENIUS_GENOBJ-N-LEADER_13
 70
     0
  0
APPID
  2
GENIUS_GENOBJ-N-FIL_13
 70
     0
  0
APPID
  2
GENIUS_GENOBJ-N-SEC_13
 70
     0
  0
APPID
  2
GENIUS_GENOBJ-N-CRS_13
 70
     0
  0
APPID
  2
GENIUS_GENOBJ-N-ZOO_13
 70
     0
  0
APPID
  2
GENIUS_GENZOO_13
 70
     0
  0
APPID
  2
GENIUS_GENOBJ-F-TOL_13
 70
     0
  0
APPID
  2
GENIUS_GENFIL_13
 70
     0
  0
APPID
  2
GENIUS_GENOBJ-N-CHA_13
 70
     0
  0
APPID
  2
_CALL_MAC$
 70
     0
  0
APPID
  2
ACAD_NAV_VCDISPLAY
 70
     0
  0
APPID
  2
ACAD_EXEMPT_FROM_CAD_STANDARDS
 70
     0
  0
APPID
  2
ACAD_MLEADERVER
 70
     0
  0
APPID
  2
ACAD_DSTYLE_DIMJAG
 70
     0
  0
APPID
  2
ACAD_DSTYLE_DIMTALN
 70
     0
  0
APPID
  2
ACAECLAYERSTANDARD
 70
     0
  0
APPID
  2
ACCMTRANSPARENCY
 70
     0
  0
ENDTAB
  0
TABLE
  2
DIMSTYLE
 70
     1
  0
DIMSTYLE
  2
STANDARD
 70
     0
  3

  4

  5

  6

  7

 40
1.0
 41
0.18
 42
0.0625
 43
0.38
 44
0.18
 45
0.0
 46
0.0
 47
0.0
 48
0.0
140
0.18
141
0.09
142
0.0
143
25.399999999999999
144
1.0
145
0.0
146
1.0
147
0.09
 71
     0
 72
     0
 73
     1
 74
     1
 75
     0
 76
     0
 77
     0
 78
     0
170
     0
171
     2
172
     0
173
     0
174
     0
175
     0
176
     0
177
     0
178
     0
  0
ENDTAB
  0
ENDSEC
  0
SECTION
  2
BLOCKS
  0
BLOCK
  8
0
  2
$MODEL_SPACE
 70
     0
 10
0.0
 20
0.0
 30
0.0
  3
$MODEL_SPACE
  1

  0
ENDBLK
  5
CF6E
  8
0
  0
BLOCK
 67
     1
  8
0
  2
$PAPER_SPACE
 70
     0
 10
0.0
 20
0.0
 30
0.0
  3
$PAPER_SPACE
  1

  0
ENDBLK
  5
CF6C
 67
     1
  8
0
  0
ENDSEC
  0
SECTION
  2
ENTITIES
  0
TEXT
  5
126D7
  8
0
 62
     3
 10
0.0
 20
0.0
 30
0.0
 40
10.0
  1
PEC-R90X50-GR
  7
STANDARD1
  0
LINE
  5
126DE
  8
1
 10
160.0
 20
150.0
 30
0.0
 11
160.0
 21
90.0
 31
0.0
  0
LINE
  5
126DF
  8
1
 10
49.999999999999893
 20
72.0
 30
0.0
 11
50.0
 21
35.0
 31
0.0
  0
LINE
  5
12CB0
  8
0
 10
205.0
 20
145.0
 30
0.0
 11
115.0
 21
145.0
 31
0.0
  0
LINE
  5
12CB3
  8
0
 10
205.0
 20
95.0
 30
0.0
 11
205.0
 21
145.0
 31
0.0
  0
LINE
  5
12CB5
  8
0
 10
115.0
 20
145.0
 30
0.0
 11
115.0
 21
95.0
 31
0.0
  0
LINE
  5
12CB8
  8
0
 10
115.0
 20
95.0
 30
0.0
 11
205.0
 21
95.0
 31
0.0
  0
LINE
  5
12FEC
  8
1
 10
110.0
 20
120.0
 30
0.0
 11
210.0
 21
120.0
 31
0.0
  0
LINE
  5
12FEE
  8
1
 10
159.99999999999989
 20
72.0
 30
0.0
 11
160.0
 21
35.0
 31
0.0
  0
ARC
  5
13998
  8
0
 10
117.2499999999999
 20
64.75
 30
0.0
 40
2.25
 50
90.0
 51
180.0
  0
LINE
  5
13999
  8
0
 10
202.74999999999989
 20
67.0
 30
0.0
 11
117.2499999999999
 21
67.0
 31
0.0
  0
ARC
  5
1399A
  8
0
 10
202.74999999999989
 20
64.75
 30
0.0
 40
2.25
 50
0.0
 51
90.0
  0
LINE
  5
1399B
  8
0
 10
204.99999999999989
 20
62.0
 30
0.0
 11
204.99999999999989
 21
64.75
 31
0.0
  0
LINE
  5
1399C
  8
0
 10
114.9999999999999
 20
62.0
 30
0.0
 11
204.99999999999989
 21
62.0
 31
0.0
  0
LINE
  5
1399D
  8
0
 10
114.9999999999999
 20
64.75
 30
0.0
 11
114.9999999999999
 21
62.0
 31
0.0
  0
LINE
  5
1399E
  8
0
 10
119.9999999999999
 20
54.308089297201612
 30
0.0
 11
116.9999999999999
 21
55.400000000000091
 31
0.0
  0
LINE
  5
1399F
  8
0
 10
202.99999999999989
 20
55.400000000000091
 30
0.0
 11
116.9999999999999
 21
55.400000000000091
 31
0.0
  0
LINE
  5
139A0
  8
0
 10
202.99999999999989
 20
55.400000000000091
 30
0.0
 11
199.99999999999989
 21
54.308089297201143
 31
0.0
  0
LINE
  5
139A1
  8
0
 10
199.99999999999989
 20
54.308089297201143
 30
0.0
 11
199.99999999999989
 21
53.299377385370917
 31
0.0
  0
LINE
  5
139A2
  8
0
 10
199.99999999999989
 20
53.299377385370917
 30
0.0
 11
119.9999999999999
 21
53.299377385370917
 31
0.0
  0
LINE
  5
139A3
  8
0
 10
119.9999999999999
 20
53.299377385370917
 30
0.0
 11
119.9999999999999
 21
54.308089297201612
 31
0.0
  0
LINE
  5
139A4
  8
0
 10
119.9999999999999
 20
48.808089297201597
 30
0.0
 11
116.9999999999999
 21
49.900000000000091
 31
0.0
  0
LINE
  5
139A5
  8
0
 10
202.99999999999989
 20
49.900000000000091
 30
0.0
 11
116.9999999999999
 21
49.900000000000091
 31
0.0
  0
LINE
  5
139A6
  8
0
 10
199.99999999999989
 20
48.808089297201597
 30
0.0
 11
199.99999999999989
 21
47.799377385370917
 31
0.0
  0
LINE
  5
139A7
  8
0
 10
199.99999999999989
 20
47.799377385370917
 30
0.0
 11
119.9999999999999
 21
47.799377385370917
 31
0.0
  0
LINE
  5
139A8
  8
0
 10
119.9999999999999
 20
47.799377385370917
 30
0.0
 11
119.9999999999999
 21
48.808089297201597
 31
0.0
  0
LINE
  5
139A9
  8
0
 10
202.99999999999989
 20
49.900000000000091
 30
0.0
 11
199.99999999999989
 21
48.808089297201597
 31
0.0
  0
LINE
  5
139AA
  8
0
 10
199.99999999999989
 20
43.308089297201597
 30
0.0
 11
199.99999999999989
 21
42.29937738537091
 31
0.0
  0
LINE
  5
139AB
  8
0
 10
199.99999999999989
 20
42.29937738537091
 30
0.0
 11
119.9999999999999
 21
42.29937738537091
 31
0.0
  0
LINE
  5
139AC
  8
0
 10
119.9999999999999
 20
42.29937738537091
 30
0.0
 11
119.9999999999999
 21
43.308089297201597
 31
0.0
  0
LINE
  5
139AD
  8
0
 10
202.99999999999989
 20
44.400000000000091
 30
0.0
 11
199.99999999999989
 21
43.308089297201597
 31
0.0
  0
LINE
  5
139AE
  8
0
 10
202.99999999999989
 20
44.400000000000091
 30
0.0
 11
116.9999999999999
 21
44.400000000000091
 31
0.0
  0
LINE
  5
139AF
  8
0
 10
119.9999999999999
 20
43.308089297201597
 30
0.0
 11
116.9999999999999
 21
44.400000000000091
 31
0.0
  0
LINE
  5
139B0
  8
0
 10
199.99999999999989
 20
59.808089297201597
 30
0.0
 11
199.99999999999989
 21
58.79937738537091
 31
0.0
  0
LINE
  5
139B1
  8
0
 10
199.99999999999989
 20
58.79937738537091
 30
0.0
 11
119.9999999999999
 21
58.79937738537091
 31
0.0
  0
LINE
  5
139B2
  8
0
 10
119.9999999999999
 20
58.79937738537091
 30
0.0
 11
119.9999999999999
 21
59.808089297201597
 31
0.0
  0
LINE
  5
139B3
  8
0
 10
119.9999999999999
 20
59.808089297201597
 30
0.0
 11
116.9999999999999
 21
60.900000000000091
 31
0.0
  0
LINE
  5
139B4
  8
0
 10
202.99999999999989
 20
60.900000000000091
 30
0.0
 11
116.9999999999999
 21
60.900000000000091
 31
0.0
  0
LINE
  5
139B5
  8
0
 10
202.99999999999989
 20
60.900000000000091
 30
0.0
 11
199.99999999999989
 21
59.808089297201597
 31
0.0
  0
LINE
  5
139B6
  8
0
 10
119.9999999999999
 20
55.400000000000091
 30
0.0
 11
119.9999999999999
 21
58.79937738537091
 31
0.0
  0
LINE
  5
139B7
  8
0
 10
199.99999999999989
 20
58.79937738537091
 30
0.0
 11
199.99999999999989
 21
55.400000000000091
 31
0.0
  0
LINE
  5
139B8
  8
0
 10
199.99999999999989
 20
53.299377385370917
 30
0.0
 11
199.99999999999989
 21
49.900000000000091
 31
0.0
  0
LINE
  5
139B9
  8
0
 10
119.9999999999999
 20
49.900000000000091
 30
0.0
 11
119.9999999999999
 21
53.299377385370917
 31
0.0
  0
LINE
  5
139BA
  8
0
 10
119.9999999999999
 20
44.400000000000091
 30
0.0
 11
119.9999999999999
 21
47.799377385370917
 31
0.0
  0
LINE
  5
139BB
  8
0
 10
199.99999999999989
 20
47.799377385370917
 30
0.0
 11
199.99999999999989
 21
44.400000000000091
 31
0.0
  0
LINE
  5
139BC
  8
0
 10
199.99999999999989
 20
40.0
 30
0.0
 11
119.9999999999999
 21
40.0
 31
0.0
  0
LINE
  5
139BD
  8
0
 10
119.9999999999999
 20
40.0
 30
0.0
 11
119.9999999999999
 21
42.29937738537091
 31
0.0
  0
LINE
  5
139BE
  8
0
 10
199.99999999999989
 20
42.29937738537091
 30
0.0
 11
199.99999999999989
 21
40.0
 31
0.0
  0
LINE
  5
139BF
  8
0
 10
199.99999999999989
 20
62.0
 30
0.0
 11
199.99999999999989
 21
60.900000000000091
 31
0.0
  0
LINE
  5
139C0
  8
0
 10
119.9999999999999
 20
60.900000000000091
 30
0.0
 11
119.9999999999999
 21
62.0
 31
0.0
  0
LINE
  5
139F2
  8
0
 10
72.75
 20
67.0
 30
0.0
 11
27.25
 21
67.0
 31
0.0
  0
ARC
  5
139F3
  8
0
 10
72.75
 20
64.75
 30
0.0
 40
2.2500000000000142
 50
0.0
 51
90.0
  0
ARC
  5
139F4
  8
0
 10
27.25
 20
64.75
 30
0.0
 40
2.25
 50
90.0
 51
180.0
  0
LINE
  5
139F5
  8
0
 10
75.0
 20
64.75
 30
0.0
 11
75.0
 21
62.0
 31
0.0
  0
LINE
  5
139F6
  8
0
 10
75.0
 20
62.0
 30
0.0
 11
25.0
 21
62.0
 31
0.0
  0
LINE
  5
139F7
  8
0
 10
25.0
 20
64.75
 30
0.0
 11
25.0
 21
62.0
 31
0.0
  0
LINE
  5
139F8
  8
0
 10
71.440589906257856
 20
54.308089297201612
 30
0.0
 11
73.0
 21
55.400000000000091
 31
0.0
  0
LINE
  5
139F9
  8
0
 10
71.440589906257856
 20
54.308089297201612
 30
0.0
 11
28.559410093742262
 21
54.308089297201143
 31
0.0
  0
LINE
  5
139FA
  8
0
 10
27.0
 20
55.400000000000091
 30
0.0
 11
28.559410093742262
 21
54.308089297201143
 31
0.0
  0
LINE
  5
139FB
  8
0
 10
73.0
 20
55.400000000000091
 30
0.0
 11
27.0
 21
55.400000000000091
 31
0.0
  0
LINE
  5
139FC
  8
0
 10
71.440589906257856
 20
43.308089297201597
 30
0.0
 11
73.0
 21
44.400000000000091
 31
0.0
  0
LINE
  5
139FD
  8
0
 10
71.440589906257856
 20
43.308089297201597
 30
0.0
 11
28.559410093742262
 21
43.308089297201597
 31
0.0
  0
LINE
  5
139FE
  8
0
 10
27.0
 20
44.400000000000091
 30
0.0
 11
28.559410093742262
 21
43.308089297201597
 31
0.0
  0
LINE
  5
139FF
  8
0
 10
73.0
 20
44.400000000000091
 30
0.0
 11
27.0
 21
44.400000000000091
 31
0.0
  0
LINE
  5
13A00
  8
0
 10
71.440589906257856
 20
48.808089297201597
 30
0.0
 11
73.0
 21
49.900000000000091
 31
0.0
  0
LINE
  5
13A01
  8
0
 10
71.440589906257856
 20
48.808089297201597
 30
0.0
 11
28.559410093742262
 21
48.808089297201597
 31
0.0
  0
LINE
  5
13A02
  8
0
 10
73.0
 20
49.900000000000091
 30
0.0
 11
27.0
 21
49.900000000000091
 31
0.0
  0
LINE
  5
13A03
  8
0
 10
27.0
 20
49.900000000000091
 30
0.0
 11
28.559410093742262
 21
48.808089297201597
 31
0.0
  0
LINE
  5
13A04
  8
0
 10
71.440589906257856
 20
59.808089297201597
 30
0.0
 11
73.0
 21
60.900000000000091
 31
0.0
  0
LINE
  5
13A05
  8
0
 10
71.440589906257856
 20
59.808089297201597
 30
0.0
 11
28.559410093742262
 21
59.808089297201597
 31
0.0
  0
LINE
  5
13A06
  8
0
 10
73.0
 20
60.900000000000091
 30
0.0
 11
27.0
 21
60.900000000000091
 31
0.0
  0
LINE
  5
13A07
  8
0
 10
27.0
 20
60.900000000000091
 30
0.0
 11
28.559410093742262
 21
59.808089297201597
 31
0.0
  0
LINE
  5
13A08
  8
0
 10
70.0
 20
40.0
 30
0.0
 11
70.0
 21
42.29937738537091
 31
0.0
  0
LINE
  5
13A09
  8
0
 10
70.0
 20
40.0
 30
0.0
 11
30.0
 21
40.0
 31
0.0
  0
LINE
  5
13A0A
  8
0
 10
30.0
 20
42.29937738537091
 30
0.0
 11
30.0
 21
40.0
 31
0.0
  0
LINE
  5
13A0B
  8
0
 10
70.0
 20
42.29937738537091
 30
0.0
 11
71.440589906257856
 21
43.308089297201597
 31
0.0
  0
LINE
  5
13A0C
  8
0
 10
28.559410093742262
 20
43.308089297201597
 30
0.0
 11
30.0
 21
42.29937738537091
 31
0.0
  0
LINE
  5
13A0D
  8
0
 10
70.0
 20
55.400000000000091
 30
0.0
 11
70.0
 21
58.79937738537091
 31
0.0
  0
LINE
  5
13A0E
  8
0
 10
30.0
 20
58.79937738537091
 30
0.0
 11
30.0
 21
55.400000000000091
 31
0.0
  0
LINE
  5
13A0F
  8
0
 10
70.0
 20
58.79937738537091
 30
0.0
 11
71.440589906257856
 21
59.808089297201597
 31
0.0
  0
LINE
  5
13A10
  8
0
 10
28.559410093742262
 20
59.808089297201597
 30
0.0
 11
30.0
 21
58.79937738537091
 31
0.0
  0
LINE
  5
13A11
  8
0
 10
70.0
 20
49.900000000000091
 30
0.0
 11
70.0
 21
53.299377385370917
 31
0.0
  0
LINE
  5
13A12
  8
0
 10
30.0
 20
53.299377385370917
 30
0.0
 11
30.0
 21
49.900000000000091
 31
0.0
  0
LINE
  5
13A13
  8
0
 10
70.0
 20
53.299377385370917
 30
0.0
 11
71.440589906257856
 21
54.308089297201612
 31
0.0
  0
LINE
  5
13A14
  8
0
 10
28.559410093742262
 20
54.308089297201143
 30
0.0
 11
30.0
 21
53.299377385370917
 31
0.0
  0
LINE
  5
13A15
  8
0
 10
70.0
 20
44.400000000000091
 30
0.0
 11
70.0
 21
47.799377385370917
 31
0.0
  0
LINE
  5
13A16
  8
0
 10
30.0
 20
47.799377385370917
 30
0.0
 11
30.0
 21
44.400000000000091
 31
0.0
  0
LINE
  5
13A17
  8
0
 10
70.0
 20
47.799377385370917
 30
0.0
 11
71.440589906257856
 21
48.808089297201597
 31
0.0
  0
LINE
  5
13A18
  8
0
 10
28.559410093742262
 20
48.808089297201597
 30
0.0
 11
30.0
 21
47.799377385370917
 31
0.0
  0
LINE
  5
13A19
  8
0
 10
70.0
 20
60.900000000000091
 30
0.0
 11
70.0
 21
62.0
 31
0.0
  0
LINE
  5
13A1A
  8
0
 10
30.0
 20
62.0
 30
0.0
 11
30.0
 21
60.900000000000091
 31
0.0
  0
ENDSEC
  0
EOF
