  0
SECTION
  2
HEADER
  9
$ACADVER
  1
AC1009
  9
$INSBASE
 10
0.0
 20
0.0
 30
0.0
  9
$EXTMIN
 10
0.0
 20
-2.960436562073669
 30
0.0
  9
$EXTMAX
 10
130.49999999999989
 20
105.4999999999999
 30
0.0
  9
$LIMMIN
 10
0.0
 20
0.0
  9
$LIMMAX
 10
375.0
 20
270.0
  9
$ORTHOMODE
 70
     1
  9
$REGENMODE
 70
     1
  9
$FILLMODE
 70
     1
  9
$QTEXTMODE
 70
     0
  9
$MIRRTEXT
 70
     0
  9
$DRAGMODE
 70
     2
  9
$LTSCALE
 40
5.0
  9
$OSMODE
 70
    37
  9
$ATTMODE
 70
     1
  9
$TEXTSIZE
 40
0.2
  9
$TRACEWID
 40
0.05
  9
$TEXTSTYLE
  7
STANDARD
  9
$CLAYER
  8
0
  9
$CELTYPE
  6
BYLAYER
  9
$CECOLOR
 62
   256
  9
$DIMSCALE
 40
1.0
  9
$DIMASZ
 40
3.0
  9
$DIMEXO
 40
1.0
  9
$DIMDLI
 40
6.0
  9
$DIMRND
 40
0.0
  9
$DIMDLE
 40
0.0
  9
$DIMEXE
 40
1.0
  9
$DIMTP
 40
495.0
  9
$DIMTM
 40
0.0
  9
$DIMTXT
 40
3.0
  9
$DIMCEN
 40
0.0
  9
$DIMTSZ
 40
0.0
  9
$DIMTOL
 70
     0
  9
$DIMLIM
 70
     0
  9
$DIMTIH
 70
     0
  9
$DIMTOH
 70
     0
  9
$DIMSE1
 70
     0
  9
$DIMSE2
 70
     0
  9
$DIMTAD
 70
     1
  9
$DIMZIN
 70
     8
  9
$DIMBLK
  1

  9
$DIMASO
 70
     0
  9
$DIMSHO
 70
     0
  9
$DIMPOST
  1

  9
$DIMAPOST
  1

  9
$DIMALT
 70
     0
  9
$DIMALTD
 70
     2
  9
$DIMALTF
 40
25.399999999999999
  9
$DIMLFAC
 40
1.0
  9
$DIMTOFL
 70
     1
  9
$DIMTVP
 40
0.0
  9
$DIMTIX
 70
     1
  9
$DIMSOXD
 70
     0
  9
$DIMSAH
 70
     0
  9
$DIMBLK1
  1

  9
$DIMBLK2
  1

  9
$DIMSTYLE
  2
STANDARD
  9
$DIMCLRD
 70
     4
  9
$DIMCLRE
 70
     4
  9
$DIMCLRT
 70
     4
  9
$DIMTFAC
 40
1.0
  9
$DIMGAP
 40
1.0
  9
$LUNITS
 70
     2
  9
$LUPREC
 70
     1
  9
$SKETCHINC
 40
0.1
  9
$FILLETRAD
 40
2.0
  9
$AUNITS
 70
     0
  9
$AUPREC
 70
     1
  9
$MENU
  1
C:\R13\WIN\SUPPORT\ACAD-I
  9
$ELEVATION
 40
0.0
  9
$PELEVATION
 40
0.0
  9
$THICKNESS
 40
0.0
  9
$LIMCHECK
 70
     0
  9
$BLIPMODE
 70
     0
  9
$CHAMFERA
 40
0.0
  9
$CHAMFERB
 40
0.0
  9
$SKPOLY
 70
     0
  9
$TDCREATE
 40
2451963.5438110419
  9
$TDUPDATE
 40
2458043.4150035419
  9
$TDINDWG
 40
0.6282263889
  9
$TDUSRTIMER
 40
2456598.493379618
  9
$USRTIMER
 70
     1
  9
$ANGBASE
 50
0.0
  9
$ANGDIR
 70
     0
  9
$PDMODE
 70
     0
  9
$PDSIZE
 40
0.0
  9
$PLINEWID
 40
0.0
  9
$COORDS
 70
     1
  9
$SPLFRAME
 70
     0
  9
$SPLINETYPE
 70
     6
  9
$SPLINESEGS
 70
     8
  9
$ATTDIA
 70
     0
  9
$ATTREQ
 70
     1
  9
$HANDLING
 70
     1
  9
$HANDSEED
  5
13CC0
  9
$SURFTAB1
 70
     6
  9
$SURFTAB2
 70
     6
  9
$SURFTYPE
 70
     6
  9
$SURFU
 70
     6
  9
$SURFV
 70
     6
  9
$UCSNAME
  2

  9
$UCSORG
 10
0.0
 20
0.0
 30
0.0
  9
$UCSXDIR
 10
1.0
 20
0.0
 30
0.0
  9
$UCSYDIR
 10
0.0
 20
1.0
 30
0.0
  9
$PUCSNAME
  2

  9
$PUCSORG
 10
0.0
 20
0.0
 30
0.0
  9
$PUCSXDIR
 10
1.0
 20
0.0
 30
0.0
  9
$PUCSYDIR
 10
0.0
 20
1.0
 30
0.0
  9
$USERI1
 70
     4
  9
$USERI2
 70
     1
  9
$USERI3
 70
     0
  9
$USERI4
 70
     0
  9
$USERI5
 70
     0
  9
$USERR1
 40
1.0
  9
$USERR2
 40
3.0
  9
$USERR3
 40
3.0
  9
$USERR4
 40
3.0
  9
$USERR5
 40
10.0
  9
$WORLDVIEW
 70
     1
  9
$SHADEDGE
 70
     3
  9
$SHADEDIF
 70
    70
  9
$TILEMODE
 70
     1
  9
$MAXACTVP
 70
    16
  9
$PLIMCHECK
 70
     0
  9
$PEXTMIN
 10
1.0000000000000000E+020
 20
1.0000000000000000E+020
 30
1.0000000000000000E+020
  9
$PEXTMAX
 10
-1.0000000000000000E+020
 20
-1.0000000000000000E+020
 30
-1.0000000000000000E+020
  9
$PLIMMIN
 10
0.0
 20
0.0
  9
$PLIMMAX
 10
12.0
 20
9.0
  9
$UNITMODE
 70
     0
  9
$VISRETAIN
 70
     0
  9
$PLINEGEN
 70
     0
  9
$PSLTSCALE
 70
     0
  0
ENDSEC
  0
SECTION
  2
TABLES
  0
TABLE
  2
VPORT
 70
     1
  0
VPORT
  2
*ACTIVE
 70
     0
 10
0.0
 20
0.0
 11
1.0
 21
1.0
 12
181.62393162393161
 22
100.0
 13
0.0
 23
0.0
 14
10.0
 24
10.0
 15
10.0
 25
10.0
 16
0.0
 26
0.0
 36
1.0
 17
0.0
 27
0.0
 37
0.0
 40
200.0
 41
1.816239316239316
 42
50.0
 43
0.0
 44
0.0
 50
0.0
 51
0.0
 71
     0
 72
   100
 73
     1
 74
     0
 75
     0
 76
     0
 77
     0
 78
     0
  0
ENDTAB
  0
TABLE
  2
LTYPE
 70
     3
  0
LTYPE
  2
CONTINUOUS
 70
     0
  3
Solid Line
 72
    65
 73
     0
 40
0.0
  0
LTYPE
  2
CENTER
 70
     0
  3
____ _ ____ _ ____ _ ____ _ ____ _ ____ _ ____
 72
    65
 73
     4
 40
2.0
 49
1.25
 49
-0.25
 49
0.25
 49
-0.25
  0
LTYPE
  2
PHANTOM2
 70
     0
  3
___ _ _ ___ _ _ ___ _ _ ___ _ _
 72
    65
 73
     6
 40
1.25
 49
0.625
 49
-0.125
 49
0.125
 49
-0.125
 49
0.125
 49
-0.125
  0
ENDTAB
  0
TABLE
  2
LAYER
 70
     3
  0
LAYER
  2
0
 70
     0
 62
     7
  6
CONTINUOUS
  0
LAYER
  2
1
 70
     0
 62
     1
  6
CENTER
  0
LAYER
  2
DEFPOINTS
 70
     0
 62
     7
  6
CONTINUOUS
  0
ENDTAB
  0
TABLE
  2
STYLE
 70
     2
  0
STYLE
  2
STANDARD
 70
     0
 40
0.0
 41
1.0
 50
0.0
 71
     0
 42
0.2
  3
SIMPLEX
  4
BIGFONT
  0
STYLE
  2
STANDARD1
 70
     0
 40
0.0
 41
1.0
 50
0.0
 71
     0
 42
3.0
  3
txt
  4

  0
ENDTAB
  0
TABLE
  2
VIEW
 70
     0
  0
ENDTAB
  0
TABLE
  2
UCS
 70
     0
  0
ENDTAB
  0
TABLE
  2
APPID
 70
    33
  0
APPID
  2
ACAD
 70
     0
  0
APPID
  2
GENIUS_GENOREF_13
 70
     0
  0
APPID
  2
GENIUS_GENOENT_13
 70
     0
  0
APPID
  2
GENIUS_GENBH_13
 70
     0
  0
APPID
  2
GENIUS_GENOBJ_13
 70
     0
  0
APPID
  2
GENIUS_GENODEF_13
 70
     0
  0
APPID
  2
GENIUS_GENOLIS_13
 70
     0
  0
APPID
  2
GENIUS_GENOBJ-NBEHI-BHF_13
 70
     0
  0
APPID
  2
GENIUS_GENOBJ-NBEHI-BHB_13
 70
     0
  0
APPID
  2
GENIUS_GENOBJ-F-PART_13
 70
     0
  0
APPID
  2
GENIUS_GEFSTDP_13
 70
     0
  0
APPID
  2
GENIUS_GENOBJ-N-RSSYM_13
 70
     0
  0
APPID
  2
GENIUS_GENSYMENT_13
 70
     0
  0
APPID
  2
GENIUS_GENOBJ-N-TIT_13
 70
     0
  0
APPID
  2
GENIUS_GENTITLE_13
 70
     0
  0
APPID
  2
GENIUS_GENZVEED_13
 70
     0
  0
APPID
  2
GENIUS_GENOBJ-N-LEADER_13
 70
     0
  0
APPID
  2
GENIUS_GENOBJ-N-FIL_13
 70
     0
  0
APPID
  2
GENIUS_GENOBJ-N-SEC_13
 70
     0
  0
APPID
  2
GENIUS_GENOBJ-N-CRS_13
 70
     0
  0
APPID
  2
GENIUS_GENOBJ-N-ZOO_13
 70
     0
  0
APPID
  2
GENIUS_GENZOO_13
 70
     0
  0
APPID
  2
GENIUS_GENOBJ-F-TOL_13
 70
     0
  0
APPID
  2
GENIUS_GENFIL_13
 70
     0
  0
APPID
  2
GENIUS_GENOBJ-N-CHA_13
 70
     0
  0
APPID
  2
_CALL_MAC$
 70
     0
  0
APPID
  2
ACAD_NAV_VCDISPLAY
 70
     0
  0
APPID
  2
ACAD_EXEMPT_FROM_CAD_STANDARDS
 70
     0
  0
APPID
  2
ACAD_MLEADERVER
 70
     0
  0
APPID
  2
ACAD_DSTYLE_DIMJAG
 70
     0
  0
APPID
  2
ACAD_DSTYLE_DIMTALN
 70
     0
  0
APPID
  2
ACAECLAYERSTANDARD
 70
     0
  0
APPID
  2
ACCMTRANSPARENCY
 70
     0
  0
ENDTAB
  0
TABLE
  2
DIMSTYLE
 70
     1
  0
DIMSTYLE
  2
STANDARD
 70
     0
  3

  4

  5

  6

  7

 40
1.0
 41
0.18
 42
0.0625
 43
0.38
 44
0.18
 45
0.0
 46
0.0
 47
0.0
 48
0.0
140
0.18
141
0.09
142
0.0
143
25.399999999999999
144
1.0
145
0.0
146
1.0
147
0.09
 71
     0
 72
     0
 73
     1
 74
     1
 75
     0
 76
     0
 77
     0
 78
     0
170
     0
171
     2
172
     0
173
     0
174
     0
175
     0
176
     0
177
     0
178
     0
  0
ENDTAB
  0
ENDSEC
  0
SECTION
  2
BLOCKS
  0
BLOCK
  8
0
  2
$MODEL_SPACE
 70
     0
 10
0.0
 20
0.0
 30
0.0
  3
$MODEL_SPACE
  1

  0
ENDBLK
  5
CF6E
  8
0
  0
BLOCK
 67
     1
  8
0
  2
$PAPER_SPACE
 70
     0
 10
0.0
 20
0.0
 30
0.0
  3
$PAPER_SPACE
  1

  0
ENDBLK
  5
CF6C
 67
     1
  8
0
  0
ENDSEC
  0
SECTION
  2
ENTITIES
  0
LINE
  5
104F4
  8
1
 10
104.9999999999999
 20
105.4999999999999
 30
0.0
 11
104.9999999999999
 21
64.500000000000114
 31
0.0
  0
LINE
  5
104F5
  8
1
 10
40.0
 20
49.5
 30
0.0
 11
40.0
 21
27.0
 31
0.0
  0
TEXT
  5
106DB
  8
0
 62
     3
 10
0.0
 20
0.0
 30
0.0
 40
10.0
  1
PEC-R45X35-BK
  7
STANDARD1
  0
LINE
  5
1093B
  8
0
 10
82.5
 20
102.5
 30
0.0
 11
82.5
 21
67.5
 31
0.0
  0
LINE
  5
10941
  8
0
 10
127.4999999999999
 20
67.5
 30
0.0
 11
127.4999999999999
 21
102.5
 31
0.0
  0
LINE
  5
10943
  8
0
 10
127.4999999999999
 20
102.5
 30
0.0
 11
82.5
 21
102.5
 31
0.0
  0
LINE
  5
10945
  8
0
 10
82.5
 20
67.5
 30
0.0
 11
127.4999999999999
 21
67.5
 31
0.0
  0
LINE
  5
10BE0
  8
1
 10
104.9999999999999
 20
49.5
 30
0.0
 11
104.9999999999999
 21
27.0
 31
0.0
  0
LINE
  5
10BE1
  8
1
 10
79.5
 20
85.0
 30
0.0
 11
130.49999999999989
 21
85.0
 31
0.0
  0
ARC
  5
13BA7
  8
0
 10
83.625
 20
45.375
 30
0.0
 40
1.125000000000014
 50
90.0
 51
180.0
  0
LINE
  5
13BA8
  8
0
 10
126.3749999999999
 20
46.5
 30
0.0
 11
83.625
 21
46.5
 31
0.0
  0
ARC
  5
13BA9
  8
0
 10
126.3749999999999
 20
45.375
 30
0.0
 40
1.125000000000014
 50
0.0
 51
90.0
  0
LINE
  5
13BAA
  8
0
 10
127.4999999999999
 20
41.5
 30
0.0
 11
127.4999999999999
 21
45.375
 31
0.0
  0
LINE
  5
13BAB
  8
0
 10
82.5
 20
41.5
 30
0.0
 11
127.4999999999999
 21
41.5
 31
0.0
  0
LINE
  5
13BAC
  8
0
 10
82.5
 20
45.375
 30
0.0
 11
82.5
 21
41.5
 31
0.0
  0
LINE
  5
13BAD
  8
0
 10
86.5
 20
36.958089297201468
 30
0.0
 11
83.499999999999986
 21
38.050000000000068
 31
0.0
  0
LINE
  5
13BAE
  8
0
 10
126.4999999999999
 20
38.050000000000068
 30
0.0
 11
83.499999999999986
 21
38.050000000000068
 31
0.0
  0
LINE
  5
13BAF
  8
0
 10
126.4999999999999
 20
38.050000000000068
 30
0.0
 11
123.4999999999999
 21
36.958089297201468
 31
0.0
  0
LINE
  5
13BB0
  8
0
 10
123.4999999999999
 20
36.958089297201468
 30
0.0
 11
123.4999999999999
 21
35.949377385370887
 31
0.0
  0
LINE
  5
13BB1
  8
0
 10
123.4999999999999
 20
35.949377385370887
 30
0.0
 11
86.5
 21
35.949377385370887
 31
0.0
  0
LINE
  5
13BB2
  8
0
 10
86.5
 20
35.949377385370887
 30
0.0
 11
86.5
 21
36.958089297201468
 31
0.0
  0
LINE
  5
13BB3
  8
0
 10
86.5
 20
34.083089297201468
 30
0.0
 11
83.499999999999986
 21
35.175000000000068
 31
0.0
  0
LINE
  5
13BB4
  8
0
 10
126.4999999999999
 20
35.175000000000068
 30
0.0
 11
83.499999999999986
 21
35.175000000000068
 31
0.0
  0
LINE
  5
13BB5
  8
0
 10
123.4999999999999
 20
34.083089297201468
 30
0.0
 11
123.4999999999999
 21
33.074377385370887
 31
0.0
  0
LINE
  5
13BB6
  8
0
 10
123.4999999999999
 20
33.074377385370887
 30
0.0
 11
86.5
 21
33.074377385370887
 31
0.0
  0
LINE
  5
13BB7
  8
0
 10
86.5
 20
33.074377385370887
 30
0.0
 11
86.5
 21
34.083089297201468
 31
0.0
  0
LINE
  5
13BB8
  8
0
 10
126.4999999999999
 20
35.175000000000068
 30
0.0
 11
123.4999999999999
 21
34.083089297201468
 31
0.0
  0
LINE
  5
13BB9
  8
0
 10
123.4999999999999
 20
31.208089297201472
 30
0.0
 11
123.4999999999999
 21
30.199377385370902
 31
0.0
  0
LINE
  5
13BBA
  8
0
 10
123.4999999999999
 20
30.199377385370902
 30
0.0
 11
86.5
 21
30.199377385370902
 31
0.0
  0
LINE
  5
13BBB
  8
0
 10
86.5
 20
30.199377385370902
 30
0.0
 11
86.5
 21
31.208089297201472
 31
0.0
  0
LINE
  5
13BBC
  8
0
 10
126.4999999999999
 20
32.300000000000068
 30
0.0
 11
123.4999999999999
 21
31.208089297201472
 31
0.0
  0
LINE
  5
13BBD
  8
0
 10
126.4999999999999
 20
32.300000000000068
 30
0.0
 11
83.499999999999986
 21
32.300000000000068
 31
0.0
  0
LINE
  5
13BBE
  8
0
 10
86.5
 20
31.208089297201472
 30
0.0
 11
83.499999999999986
 21
32.300000000000068
 31
0.0
  0
LINE
  5
13BBF
  8
0
 10
123.4999999999999
 20
39.833089297201468
 30
0.0
 11
123.4999999999999
 21
38.824377385370902
 31
0.0
  0
LINE
  5
13BC0
  8
0
 10
123.4999999999999
 20
38.824377385370902
 30
0.0
 11
86.5
 21
38.824377385370902
 31
0.0
  0
LINE
  5
13BC1
  8
0
 10
86.5
 20
38.824377385370902
 30
0.0
 11
86.5
 21
39.833089297201468
 31
0.0
  0
LINE
  5
13BC2
  8
0
 10
86.5
 20
39.833089297201468
 30
0.0
 11
83.499999999999986
 21
40.925000000000068
 31
0.0
  0
LINE
  5
13BC3
  8
0
 10
126.4999999999999
 20
40.925000000000068
 30
0.0
 11
83.499999999999986
 21
40.925000000000068
 31
0.0
  0
LINE
  5
13BC4
  8
0
 10
126.4999999999999
 20
40.925000000000068
 30
0.0
 11
123.4999999999999
 21
39.833089297201468
 31
0.0
  0
LINE
  5
13BC5
  8
0
 10
86.5
 20
38.050000000000068
 30
0.0
 11
86.5
 21
38.824377385370902
 31
0.0
  0
LINE
  5
13BC6
  8
0
 10
123.4999999999999
 20
38.824377385370902
 30
0.0
 11
123.4999999999999
 21
38.050000000000068
 31
0.0
  0
LINE
  5
13BC7
  8
0
 10
123.4999999999999
 20
35.949377385370887
 30
0.0
 11
123.4999999999999
 21
35.175000000000068
 31
0.0
  0
LINE
  5
13BC8
  8
0
 10
86.5
 20
35.175000000000068
 30
0.0
 11
86.5
 21
35.949377385370887
 31
0.0
  0
LINE
  5
13BC9
  8
0
 10
86.5
 20
32.300000000000068
 30
0.0
 11
86.5
 21
33.074377385370887
 31
0.0
  0
LINE
  5
13BCA
  8
0
 10
123.4999999999999
 20
33.074377385370887
 30
0.0
 11
123.4999999999999
 21
32.300000000000068
 31
0.0
  0
LINE
  5
13BCB
  8
0
 10
123.4999999999999
 20
30.0
 30
0.0
 11
86.5
 21
30.0
 31
0.0
  0
LINE
  5
13BCC
  8
0
 10
86.5
 20
30.0
 30
0.0
 11
86.5
 21
30.199377385370902
 31
0.0
  0
LINE
  5
13BCD
  8
0
 10
123.4999999999999
 20
30.199377385370902
 30
0.0
 11
123.4999999999999
 21
30.0
 31
0.0
  0
LINE
  5
13BCE
  8
0
 10
123.4999999999999
 20
41.5
 30
0.0
 11
123.4999999999999
 21
40.925000000000068
 31
0.0
  0
LINE
  5
13BCF
  8
0
 10
86.5
 20
40.925000000000068
 30
0.0
 11
86.5
 21
41.5
 31
0.0
  0
LINE
  5
13BFC
  8
0
 10
56.375
 20
46.5
 30
0.0
 11
23.625
 21
46.5
 31
0.0
  0
ARC
  5
13BFD
  8
0
 10
56.375
 20
45.375
 30
0.0
 40
1.125000000000014
 50
0.0
 51
90.0
  0
ARC
  5
13BFE
  8
0
 10
23.625
 20
45.375
 30
0.0
 40
1.125000000000014
 50
90.0
 51
180.0
  0
LINE
  5
13BFF
  8
0
 10
57.5
 20
45.375
 30
0.0
 11
57.5
 21
41.5
 31
0.0
  0
LINE
  5
13C00
  8
0
 10
57.5
 20
41.5
 30
0.0
 11
22.5
 21
41.5
 31
0.0
  0
LINE
  5
13C01
  8
0
 10
22.5
 20
45.375
 30
0.0
 11
22.5
 21
41.5
 31
0.0
  0
LINE
  5
13C02
  8
0
 10
54.940589906257799
 20
36.958089297201468
 30
0.0
 11
56.5
 21
38.050000000000068
 31
0.0
  0
LINE
  5
13C03
  8
0
 10
54.940589906257799
 20
36.958089297201468
 30
0.0
 11
25.059410093742201
 21
36.958089297201468
 31
0.0
  0
LINE
  5
13C04
  8
0
 10
23.5
 20
38.050000000000068
 30
0.0
 11
25.059410093742201
 21
36.958089297201468
 31
0.0
  0
LINE
  5
13C05
  8
0
 10
56.5
 20
38.050000000000068
 30
0.0
 11
23.5
 21
38.050000000000068
 31
0.0
  0
LINE
  5
13C06
  8
0
 10
54.940589906257799
 20
31.208089297201472
 30
0.0
 11
56.5
 21
32.300000000000068
 31
0.0
  0
LINE
  5
13C07
  8
0
 10
54.940589906257799
 20
31.208089297201472
 30
0.0
 11
25.059410093742201
 21
31.208089297201472
 31
0.0
  0
LINE
  5
13C08
  8
0
 10
23.5
 20
32.300000000000068
 30
0.0
 11
25.059410093742201
 21
31.208089297201472
 31
0.0
  0
LINE
  5
13C09
  8
0
 10
56.5
 20
32.300000000000068
 30
0.0
 11
23.5
 21
32.300000000000068
 31
0.0
  0
LINE
  5
13C0A
  8
0
 10
54.940589906257799
 20
34.083089297201468
 30
0.0
 11
56.5
 21
35.175000000000068
 31
0.0
  0
LINE
  5
13C0B
  8
0
 10
54.940589906257799
 20
34.083089297201468
 30
0.0
 11
25.059410093742201
 21
34.083089297201468
 31
0.0
  0
LINE
  5
13C0C
  8
0
 10
56.5
 20
35.175000000000068
 30
0.0
 11
23.5
 21
35.175000000000068
 31
0.0
  0
LINE
  5
13C0D
  8
0
 10
23.5
 20
35.175000000000068
 30
0.0
 11
25.059410093742201
 21
34.083089297201468
 31
0.0
  0
LINE
  5
13C0E
  8
0
 10
54.940589906257799
 20
39.833089297201468
 30
0.0
 11
56.5
 21
40.925000000000068
 31
0.0
  0
LINE
  5
13C0F
  8
0
 10
54.940589906257799
 20
39.833089297201468
 30
0.0
 11
25.059410093742201
 21
39.833089297201468
 31
0.0
  0
LINE
  5
13C10
  8
0
 10
56.5
 20
40.925000000000068
 30
0.0
 11
23.5
 21
40.925000000000068
 31
0.0
  0
LINE
  5
13C11
  8
0
 10
23.5
 20
40.925000000000068
 30
0.0
 11
25.059410093742201
 21
39.833089297201468
 31
0.0
  0
LINE
  5
13C12
  8
0
 10
53.5
 20
30.0
 30
0.0
 11
53.5
 21
30.199377385370902
 31
0.0
  0
LINE
  5
13C13
  8
0
 10
53.5
 20
30.0
 30
0.0
 11
26.5
 21
30.0
 31
0.0
  0
LINE
  5
13C14
  8
0
 10
26.5
 20
30.199377385370902
 30
0.0
 11
26.5
 21
30.0
 31
0.0
  0
LINE
  5
13C15
  8
0
 10
53.5
 20
30.199377385370902
 30
0.0
 11
54.940589906257799
 21
31.208089297201472
 31
0.0
  0
LINE
  5
13C16
  8
0
 10
25.059410093742201
 20
31.208089297201472
 30
0.0
 11
26.5
 21
30.199377385370902
 31
0.0
  0
LINE
  5
13C17
  8
0
 10
53.5
 20
38.050000000000068
 30
0.0
 11
53.5
 21
38.824377385370902
 31
0.0
  0
LINE
  5
13C18
  8
0
 10
26.5
 20
38.824377385370902
 30
0.0
 11
26.5
 21
38.050000000000068
 31
0.0
  0
LINE
  5
13C19
  8
0
 10
53.5
 20
38.824377385370902
 30
0.0
 11
54.940589906257799
 21
39.833089297201468
 31
0.0
  0
LINE
  5
13C1A
  8
0
 10
25.059410093742201
 20
39.833089297201468
 30
0.0
 11
26.5
 21
38.824377385370902
 31
0.0
  0
LINE
  5
13C1B
  8
0
 10
53.5
 20
35.175000000000068
 30
0.0
 11
53.5
 21
35.949377385370887
 31
0.0
  0
LINE
  5
13C1C
  8
0
 10
26.5
 20
35.949377385370887
 30
0.0
 11
26.5
 21
35.175000000000068
 31
0.0
  0
LINE
  5
13C1D
  8
0
 10
53.5
 20
35.949377385370887
 30
0.0
 11
54.940589906257799
 21
36.958089297201468
 31
0.0
  0
LINE
  5
13C1E
  8
0
 10
25.059410093742201
 20
36.958089297201468
 30
0.0
 11
26.5
 21
35.949377385370887
 31
0.0
  0
LINE
  5
13C1F
  8
0
 10
53.5
 20
32.300000000000068
 30
0.0
 11
53.5
 21
33.074377385370887
 31
0.0
  0
LINE
  5
13C20
  8
0
 10
26.5
 20
33.074377385370887
 30
0.0
 11
26.5
 21
32.300000000000068
 31
0.0
  0
LINE
  5
13C21
  8
0
 10
53.5
 20
33.074377385370887
 30
0.0
 11
54.940589906257799
 21
34.083089297201468
 31
0.0
  0
LINE
  5
13C22
  8
0
 10
25.059410093742201
 20
34.083089297201468
 30
0.0
 11
26.5
 21
33.074377385370887
 31
0.0
  0
LINE
  5
13C23
  8
0
 10
53.5
 20
40.925000000000068
 30
0.0
 11
53.5
 21
41.5
 31
0.0
  0
LINE
  5
13C24
  8
0
 10
26.5
 20
41.5
 30
0.0
 11
26.5
 21
40.925000000000068
 31
0.0
  0
ENDSEC
  0
EOF
