  0
SECTION
  2
HEADER
  9
$ACADVER
  1
AC1009
  9
$INSBASE
 10
0.0
 20
0.0
 30
0.0
  9
$EXTMIN
 10
0.0
 20
-2.960436562073669
 30
0.0
  9
$EXTMAX
 10
1126.9999999999991
 20
538.50000000000023
 30
0.0
  9
$LIMMIN
 10
0.0
 20
0.0
  9
$LIMMAX
 10
750.0
 20
540.0
  9
$ORTHOMODE
 70
     0
  9
$REGENMODE
 70
     1
  9
$FILLMODE
 70
     1
  9
$QTEXTMODE
 70
     0
  9
$MIRRTEXT
 70
     0
  9
$DRAGMODE
 70
     2
  9
$LTSCALE
 40
20.0
  9
$OSMODE
 70
    37
  9
$ATTMODE
 70
     1
  9
$TEXTSIZE
 40
2.0
  9
$TRACEWID
 40
0.05
  9
$TEXTSTYLE
  7
K50
  9
$CLAYER
  8
0
  9
$CELTYPE
  6
BYLAYER
  9
$CECOLOR
 62
   256
  9
$DIMSCALE
 40
2.0
  9
$DIMASZ
 40
3.0
  9
$DIMEXO
 40
2.0
  9
$DIMDLI
 40
0.38
  9
$DIMRND
 40
0.0
  9
$DIMDLE
 40
0.0
  9
$DIMEXE
 40
2.0
  9
$DIMTP
 40
0.0
  9
$DIMTM
 40
0.0
  9
$DIMTXT
 40
3.2000000000000002
  9
$DIMCEN
 40
0.0
  9
$DIMTSZ
 40
0.0
  9
$DIMTOL
 70
     0
  9
$DIMLIM
 70
     0
  9
$DIMTIH
 70
     0
  9
$DIMTOH
 70
     0
  9
$DIMSE1
 70
     0
  9
$DIMSE2
 70
     0
  9
$DIMTAD
 70
     1
  9
$DIMZIN
 70
     8
  9
$DIMBLK
  1

  9
$DIMASO
 70
     0
  9
$DIMSHO
 70
     0
  9
$DIMPOST
  1

  9
$DIMAPOST
  1

  9
$DIMALT
 70
     0
  9
$DIMALTD
 70
     2
  9
$DIMALTF
 40
25.399999999999999
  9
$DIMLFAC
 40
1.0
  9
$DIMTOFL
 70
     1
  9
$DIMTVP
 40
1.6000000000000001
  9
$DIMTIX
 70
     0
  9
$DIMSOXD
 70
     0
  9
$DIMSAH
 70
     0
  9
$DIMBLK1
  1

  9
$DIMBLK2
  1

  9
$DIMSTYLE
  2
STANDARD
  9
$DIMCLRD
 70
     0
  9
$DIMCLRE
 70
     0
  9
$DIMCLRT
 70
     0
  9
$DIMTFAC
 40
1.0
  9
$DIMGAP
 40
0.5
  9
$LUNITS
 70
     2
  9
$LUPREC
 70
     1
  9
$SKETCHINC
 40
0.1
  9
$FILLETRAD
 40
0.6
  9
$AUNITS
 70
     0
  9
$AUPREC
 70
     1
  9
$MENU
  1
E:\r13\win\SUPPORT\ACAD
  9
$ELEVATION
 40
0.0
  9
$PELEVATION
 40
0.0
  9
$THICKNESS
 40
0.0
  9
$LIMCHECK
 70
     0
  9
$BLIPMODE
 70
     0
  9
$CHAMFERA
 40
0.0
  9
$CHAMFERB
 40
0.0
  9
$SKPOLY
 70
     0
  9
$TDCREATE
 40
2449839.7920023152
  9
$TDUPDATE
 40
2457534.4792526159
  9
$TDINDWG
 40
0.3594707407
  9
$TDUSRTIMER
 40
0.3594707407
  9
$USRTIMER
 70
     1
  9
$ANGBASE
 50
0.0
  9
$ANGDIR
 70
     0
  9
$PDMODE
 70
     0
  9
$PDSIZE
 40
0.0
  9
$PLINEWID
 40
0.0
  9
$COORDS
 70
     1
  9
$SPLFRAME
 70
     0
  9
$SPLINETYPE
 70
     6
  9
$SPLINESEGS
 70
     8
  9
$ATTDIA
 70
     0
  9
$ATTREQ
 70
     1
  9
$HANDLING
 70
     1
  9
$HANDSEED
  5
5274
  9
$SURFTAB1
 70
     6
  9
$SURFTAB2
 70
     6
  9
$SURFTYPE
 70
     6
  9
$SURFU
 70
     6
  9
$SURFV
 70
     6
  9
$UCSNAME
  2

  9
$UCSORG
 10
0.0
 20
0.0
 30
0.0
  9
$UCSXDIR
 10
1.0
 20
0.0
 30
0.0
  9
$UCSYDIR
 10
0.0
 20
1.0
 30
0.0
  9
$PUCSNAME
  2

  9
$PUCSORG
 10
0.0
 20
0.0
 30
0.0
  9
$PUCSXDIR
 10
1.0
 20
0.0
 30
0.0
  9
$PUCSYDIR
 10
0.0
 20
1.0
 30
0.0
  9
$USERI1
 70
     0
  9
$USERI2
 70
     1
  9
$USERI3
 70
     0
  9
$USERI4
 70
     0
  9
$USERI5
 70
     0
  9
$USERR1
 40
0.0
  9
$USERR2
 40
0.0
  9
$USERR3
 40
0.0
  9
$USERR4
 40
0.0
  9
$USERR5
 40
0.0
  9
$WORLDVIEW
 70
     1
  9
$SHADEDGE
 70
     3
  9
$SHADEDIF
 70
    70
  9
$TILEMODE
 70
     1
  9
$MAXACTVP
 70
    16
  9
$PLIMCHECK
 70
     0
  9
$PEXTMIN
 10
1.0000000000000000E+020
 20
1.0000000000000000E+020
 30
1.0000000000000000E+020
  9
$PEXTMAX
 10
-1.0000000000000000E+020
 20
-1.0000000000000000E+020
 30
-1.0000000000000000E+020
  9
$PLIMMIN
 10
0.0
 20
0.0
  9
$PLIMMAX
 10
12.0
 20
9.0
  9
$UNITMODE
 70
     0
  9
$VISRETAIN
 70
     0
  9
$PLINEGEN
 70
     0
  9
$PSLTSCALE
 70
     0
  0
ENDSEC
  0
SECTION
  2
TABLES
  0
TABLE
  2
VPORT
 70
     1
  0
VPORT
  2
*ACTIVE
 70
     0
 10
0.0
 20
0.0
 11
1.0
 21
1.0
 12
681.08974358974353
 22
375.0
 13
0.0
 23
0.0
 14
20.0
 24
20.0
 15
20.0
 25
20.0
 16
0.0
 26
0.0
 36
1.0
 17
0.0
 27
0.0
 37
0.0
 40
750.0
 41
1.816239316239316
 42
50.0
 43
0.0
 44
0.0
 50
0.0
 51
0.0
 71
     0
 72
   500
 73
     1
 74
     0
 75
     0
 76
     0
 77
     0
 78
     2
  0
ENDTAB
  0
TABLE
  2
LTYPE
 70
     4
  0
LTYPE
  2
CONTINUOUS
 70
     0
  3
Solid Line
 72
    65
 73
     0
 40
0.0
  0
LTYPE
  2
CENTER
 70
     0
  3
____ _ ____ _ ____ _ ____ _ ____ _ ____ _ ____
 72
    65
 73
     4
 40
2.0
 49
1.25
 49
-0.25
 49
0.25
 49
-0.25
  0
LTYPE
  2
PHANTOM2
 70
     0
  3
___ _ _ ___ _ _ ___ _ _ ___ _ _
 72
    65
 73
     6
 40
1.25
 49
0.625
 49
-0.125
 49
0.125
 49
-0.125
 49
0.125
 49
-0.125
  0
LTYPE
  2
HIDDEN
 70
     0
  3
_ _ _ _ _ _ _ _ _ _ _ _ _ _ _ _ _ _ _ _ _ _ _
 72
    65
 73
     2
 40
0.375
 49
0.25
 49
-0.125
  0
ENDTAB
  0
TABLE
  2
LAYER
 70
     5
  0
LAYER
  2
0
 70
     0
 62
     7
  6
CONTINUOUS
  0
LAYER
  2
1
 70
     0
 62
     1
  6
CENTER
  0
LAYER
  2
3
 70
     0
 62
     3
  6
CONTINUOUS
  0
LAYER
  2
2
 70
     0
 62
     2
  6
HIDDEN
  0
LAYER
  2
DEFPOINTS
 70
     0
 62
     7
  6
CONTINUOUS
  0
ENDTAB
  0
TABLE
  2
STYLE
 70
     5
  0
STYLE
  2
STANDARD
 70
     0
 40
0.0
 41
1.0
 50
0.0
 71
     0
 42
0.2
  3
romans.shx
  4

  0
STYLE
  2
06500
 70
     0
 40
0.0
 41
1.0
 50
0.0
 71
     0
 42
1.0
  3
romans.shx
  4

  0
STYLE
  2
K50
 70
     0
 40
0.0
 41
1.0
 50
0.0
 71
     0
 42
2.0
  3
romans.shx
  4

  0
STYLE
  2
STANDARD1
 70
     0
 40
0.0
 41
1.0
 50
0.0
 71
     0
 42
3.0
  3
txt
  4

  0
STYLE
  2
07500
 70
     0
 40
0.0
 41
1.0
 50
0.0
 71
     0
 42
3.0000000000000502
  3
romans.shx
  4

  0
ENDTAB
  0
TABLE
  2
VIEW
 70
     2
  0
VIEW
  2
ALL
 70
     0
 40
540.0
 10
441.98319327731087
 20
270.0
 41
0.0
 11
0.0
 21
0.0
 31
1.0
 12
0.0
 22
0.0
 32
0.0
 42
0.0
 43
0.0
 44
0.0
 50
0.0
 71
     0
  0
VIEW
  2
OLE1
 70
     0
 40
53.619996672657841
 10
2811.6932335517472
 20
351.24366431490478
 41
64.825201105533779
 11
0.0
 21
0.0
 31
1.0
 12
0.0
 22
0.0
 32
0.0
 42
50.0
 43
0.0
 44
0.0
 50
0.0
 71
     0
  0
ENDTAB
  0
TABLE
  2
UCS
 70
     0
  0
ENDTAB
  0
TABLE
  2
APPID
 70
    11
  0
APPID
  2
ACAD
 70
     0
  0
APPID
  2
ACAD_MLEADERVER
 70
     0
  0
APPID
  2
ACAD_EXEMPT_FROM_CAD_STANDARDS
 70
     0
  0
APPID
  2
ACAD_NAV_VCDISPLAY
 70
     0
  0
APPID
  2
ACAD_DSTYLE_DIMJAG
 70
     0
  0
APPID
  2
ACAD_DSTYLE_DIMTALN
 70
     0
  0
APPID
  2
GENIUS_GENODEF_13
 70
     0
  0
APPID
  2
GENIUS_GENOBJ-N-FIL_13
 70
     0
  0
APPID
  2
GENIUS_GENOREF_13
 70
     0
  0
APPID
  2
ACAD_PSEXT
 70
     0
  0
APPID
  2
ACAD_DSTYLE_DIMRADIAL_EXTENSION
 70
     0
  0
ENDTAB
  0
TABLE
  2
DIMSTYLE
 70
     1
  0
DIMSTYLE
  2
STANDARD
 70
     0
  3

  4

  5

  6

  7

 40
1.0
 41
0.18
 42
0.0625
 43
0.38
 44
0.18
 45
0.0
 46
0.0
 47
0.0
 48
0.0
140
0.18
141
0.09
142
0.0
143
25.399999999999999
144
1.0
145
0.0
146
1.0
147
0.09
 71
     0
 72
     0
 73
     1
 74
     1
 75
     0
 76
     0
 77
     0
 78
     0
170
     0
171
     2
172
     0
173
     0
174
     0
175
     0
176
     0
177
     0
178
     0
  0
ENDTAB
  0
ENDSEC
  0
SECTION
  2
BLOCKS
  0
BLOCK
  8
0
  2
$MODEL_SPACE
 70
     0
 10
0.0
 20
0.0
 30
0.0
  3
$MODEL_SPACE
  1

  0
ENDBLK
  5
1C6
  8
0
  0
BLOCK
 67
     1
  8
0
  2
$PAPER_SPACE
 70
     0
 10
0.0
 20
0.0
 30
0.0
  3
$PAPER_SPACE
  1

  0
ENDBLK
  5
1C4
 67
     1
  8
0
  0
ENDSEC
  0
SECTION
  2
ENTITIES
  0
TEXT
  5
297
  8
0
 62
     3
 10
0.0
 20
0.0
 30
0.0
 40
10.0
  1
PDHF200L-1/30
  7
STANDARD1
  0
LINE
  5
352F
  8
2
 10
100.0000000000001
 20
438.50000000000011
 30
0.0
 11
136.00000000000031
 21
438.50000000000011
 31
0.0
  0
LINE
  5
3530
  8
2
 10
136.00000000000031
 20
418.50000000000011
 30
0.0
 11
100.0000000000001
 21
418.50000000000011
 31
0.0
  0
LINE
  5
3544
  8
1
 10
268.5000000000004
 20
505.50000000000011
 30
0.0
 11
162.60000000000019
 21
505.50000000000011
 31
0.0
  0
LINE
  5
3546
  8
1
 10
90.000000000000327
 20
428.50000000000011
 30
0.0
 11
187.00000000000011
 21
428.50000000000011
 31
0.0
  0
LINE
  5
3547
  8
0
 10
177.00000000000011
 20
511.89000081629922
 30
0.0
 11
178.50000000000011
 21
512.10081206835309
 31
0.0
  0
LINE
  5
3548
  8
0
 10
178.50000000000011
 20
498.89918793164708
 30
0.0
 11
177.00000000000011
 21
499.10999918370101
 31
0.0
  0
LINE
  5
3549
  8
0
 10
178.50000000000011
 20
514.62
 30
0.0
 11
178.50000000000011
 21
496.38000000000022
 31
0.0
  0
LINE
  5
354A
  8
0
 10
178.50000000000011
 20
514.62
 30
0.0
 11
178.9800000000001
 21
515.10000000000002
 31
0.0
  0
LINE
  5
354B
  8
0
 10
178.9800000000001
 20
495.9000000000002
 30
0.0
 11
178.50000000000011
 21
496.38000000000022
 31
0.0
  0
LINE
  5
354C
  8
0
 10
178.9800000000001
 20
515.10000000000002
 30
0.0
 11
178.9800000000001
 21
495.9000000000002
 31
0.0
  0
LINE
  5
354D
  8
0
 10
199.1430780618353
 20
495.9000000000002
 30
0.0
 11
178.9800000000001
 21
495.9000000000002
 31
0.0
  0
LINE
  5
354E
  8
0
 10
178.9800000000001
 20
515.10000000000002
 30
0.0
 11
199.1430780618353
 21
515.10000000000002
 31
0.0
  0
ARC
  5
354F
  8
0
 10
246.5000000000008
 20
505.50000000000051
 30
0.0
 40
11.999999999999501
 50
270.0
 51
90.0
  0
LINE
  5
3550
  8
0
 10
199.1430780618353
 20
515.10000000000002
 30
0.0
 11
199.1430780618353
 21
495.9000000000002
 31
0.0
  0
ARC
  5
3551
  8
0
 10
203.30000000000101
 20
498.30000000000069
 30
0.0
 40
4.800000000000721
 50
209.99999999999301
 51
270.0
  0
ARC
  5
3552
  8
0
 10
203.30000000000101
 20
512.69999999999936
 30
0.0
 40
4.8000000000006997
 50
90.0
 51
150.00000000000699
  0
LINE
  5
3553
  8
0
 10
203.3000000000003
 20
517.50000000000011
 30
0.0
 11
203.3000000000003
 21
493.50000000000011
 31
0.0
  0
LINE
  5
3554
  8
0
 10
246.50000000000011
 20
517.50000000000011
 30
0.0
 11
246.50000000000011
 21
493.50000000000011
 31
0.0
  0
LINE
  5
3555
  8
0
 10
246.50000000000011
 20
493.50000000000011
 30
0.0
 11
203.3000000000003
 21
493.50000000000011
 31
0.0
  0
LINE
  5
3556
  8
0
 10
203.3000000000003
 20
517.50000000000011
 30
0.0
 11
246.50000000000011
 21
517.50000000000011
 31
0.0
  0
LINE
  5
355F
  8
0
 10
177.00000000000011
 20
496.4249999999999
 30
0.0
 11
177.00000000000011
 21
514.57500000000005
 31
0.0
  0
LINE
  5
3562
  8
0
 10
177.00000000000011
 20
496.42500000000001
 30
0.0
 11
176.0750000000001
 21
495.5
 31
0.0
  0
LINE
  5
3563
  8
0
 10
176.0750000000001
 20
515.50000000000011
 30
0.0
 11
177.00000000000011
 21
514.57500000000005
 31
0.0
  0
LINE
  5
3568
  8
0
 10
176.0750000000001
 20
495.5
 30
0.0
 11
175.09773868779459
 21
495.5
 31
0.0
  0
LINE
  5
3569
  8
0
 10
173.2428462339426
 20
515.50000000000011
 30
0.0
 11
176.0750000000001
 21
515.50000000000011
 31
0.0
  0
LINE
  5
356A
  8
0
 10
176.0750000000001
 20
515.50000000000011
 30
0.0
 11
176.07500000000039
 21
495.5
 31
0.0
  0
LINE
  5
356B
  8
0
 10
100.0000000000001
 20
448.50000000000011
 30
0.0
 11
100.3000000000003
 21
448.50000000000011
 31
0.0
  0
LINE
  5
356C
  8
0
 10
100.3000000000003
 20
408.5
 30
0.0
 11
100.0000000000001
 21
408.5
 31
0.0
  0
LINE
  5
356D
  8
0
 10
100.0000000000001
 20
408.5
 30
0.0
 11
100.0000000000001
 21
448.50000000000011
 31
0.0
  0
LINE
  5
356E
  8
0
 10
100.3000000000003
 20
451.50000000000011
 30
0.0
 11
101.8000000000003
 21
453.00000000000011
 31
0.0
  0
LINE
  5
356F
  8
0
 10
101.8000000000003
 20
404.0
 30
0.0
 11
100.3000000000003
 21
405.50000000000011
 31
0.0
  0
LINE
  5
3570
  8
0
 10
100.3000000000003
 20
405.50000000000011
 30
0.0
 11
100.3000000000003
 21
451.50000000000011
 31
0.0
  0
LINE
  5
3571
  8
0
 10
101.8000000000003
 20
453.00000000000011
 30
0.0
 11
132.4999999999992
 21
453.00000000000011
 31
0.0
  0
LINE
  5
3572
  8
0
 10
132.4999999999992
 20
404.0
 30
0.0
 11
101.8000000000003
 21
404.0
 31
0.0
  0
LINE
  5
3573
  8
0
 10
101.8000000000003
 20
404.0
 30
0.0
 11
101.8000000000003
 21
453.00000000000011
 31
0.0
  0
ARC
  5
3574
  8
0
 10
132.49999999999889
 20
455.50000000000142
 30
0.0
 40
2.5000000000012639
 50
270.0
 51
0.0
  0
ARC
  5
3575
  8
0
 10
132.49999999999889
 20
401.49999999999869
 30
0.0
 40
2.5000000000012572
 50
0.0
 51
90.0
  0
LINE
  5
3577
  8
0
 10
136.50000000000011
 20
467.0
 30
0.0
 11
139.00000000000011
 21
467.0
 31
0.0
  0
LINE
  5
3578
  8
0
 10
139.00000000000011
 20
390.00000000000011
 30
0.0
 11
136.50000000000011
 21
390.00000000000011
 31
0.0
  0
LINE
  5
3579
  8
0
 10
135.00000000000011
 20
465.50000000000011
 30
0.0
 11
136.50000000000011
 21
467.0
 31
0.0
  0
LINE
  5
357A
  8
0
 10
136.50000000000011
 20
390.00000000000011
 30
0.0
 11
135.00000000000011
 21
391.50000000000011
 31
0.0
  0
LINE
  5
357B
  8
0
 10
135.00000000000011
 20
391.50000000000011
 30
0.0
 11
135.00000000000011
 21
465.50000000000011
 31
0.0
  0
LINE
  5
357C
  8
0
 10
136.50000000000011
 20
390.00000000000011
 30
0.0
 11
136.50000000000011
 21
467.0
 31
0.0
  0
ARC
  5
3584
  8
0
 10
-614.38190077178649
 20
424.63397563478338
 30
0.0
 40
792.00000000043156
 50
353.546813217438
 51
357.736229537724
  0
LINE
  5
3585
  8
0
 10
177.00000000000011
 20
393.35000000000002
 30
0.0
 11
177.00000000000011
 21
463.6500000000002
 31
0.0
  0
ARC
  5
3588
  8
0
 10
168.26193469185441
 20
518.89380021274303
 30
0.0
 40
4.9999999999884341
 50
29.817564435936831
 51
75.663689696808376
  0
ARC
  5
3589
  8
0
 10
168.26193469185441
 20
338.1061997872572
 30
0.0
 40
4.9999999999884341
 50
284.33631030319151
 51
330.18243556406321
  0
LINE
  5
358A
  8
0
 10
172.60000000000019
 20
335.62000000000211
 30
0.0
 11
172.60000000000019
 21
521.37999999999818
 31
0.0
  0
LINE
  5
358B
  8
0
 10
139.00000000000011
 20
332.4599999999993
 30
0.0
 11
139.00000000000011
 21
524.54000000000121
 31
0.0
  0
ARC
  5
358C
  8
0
 10
142.95999999999921
 20
524.54000000000087
 30
0.0
 40
3.959999999999062
 50
90.0
 51
180.0
  0
ARC
  5
358D
  8
0
 10
142.95999999999921
 20
332.4599999999993
 30
0.0
 40
3.95999999999907
 50
180.0
 51
270.0
  0
ARC
  5
358E
  8
0
 10
138.73088268723319
 20
428.58946718807448
 30
0.0
 40
100.0000000000399
 50
72.079855180862864
 51
87.576171382243047
  0
ARC
  5
358F
  8
0
 10
138.73088268723319
 20
428.41053281192569
 30
0.0
 40
100.0000000000398
 50
272.4238286177569
 51
287.92014481913708
  0
LINE
  5
35D6
  8
1
 10
445.50000000000028
 20
505.50000000000011
 30
0.0
 11
411.50000000000028
 21
505.50000000000011
 31
0.0
  0
LINE
  5
35DA
  8
1
 10
538.50000000000011
 20
428.50000000000011
 30
0.0
 11
318.5000000000004
 21
428.50000000000011
 31
0.0
  0
LINE
  5
35DB
  8
1
 10
428.50000000000028
 20
538.50000000000023
 30
0.0
 11
428.50000000000028
 21
318.50000000000023
 31
0.0
  0
CIRCLE
  5
35DC
  8
0
 10
428.50000000000028
 20
505.50000000000011
 30
0.0
 40
12.0
  0
CIRCLE
  5
35E2
  8
0
 10
428.50000000000028
 20
428.50000000000011
 30
0.0
 40
100.0
  0
CIRCLE
  5
35E5
  8
0
 10
428.50000000000028
 20
428.50000000000011
 30
0.0
 40
92.879999999998006
  0
POLYLINE
  5
35E7
  8
0
 66
     1
 10
0.0
 20
0.0
 30
0.0
  0
VERTEX
  5
517E
  8
0
 10
505.74016295573028
 20
452.948052114387
 30
0.0
  0
VERTEX
  5
517F
  8
0
 10
507.78876007399629
 20
450.83800223700712
 30
0.0
  0
VERTEX
  5
5180
  8
0
 10
509.4586068829513
 20
448.41551085115282
 30
0.0
  0
VERTEX
  5
5181
  8
0
 10
510.69629484496318
 20
445.74462821567988
 30
0.0
  0
VERTEX
  5
5182
  8
0
 10
511.4722736544332
 20
442.90445589725613
 30
0.0
  0
VERTEX
  5
5183
  8
0
 10
511.75753051454632
 20
439.97838993505928
 30
0.0
  0
VERTEX
  5
5184
  8
0
 10
511.55248474711232
 20
437.04608644612313
 30
0.0
  0
VERTEX
  5
5185
  8
0
 10
510.85657503824427
 20
434.19169290664979
 30
0.0
  0
VERTEX
  5
5186
  8
0
 10
509.6967351053932
 20
431.49371060514437
 30
0.0
  0
VERTEX
  5
5187
  8
0
 10
508.09672124091333
 20
429.02646024340368
 30
0.0
  0
VERTEX
  5
5188
  8
0
 10
506.10982865273309
 20
426.8606526717719
 30
0.0
  0
VERTEX
  5
5189
  8
0
 10
503.78001271716141
 20
425.05655863468257
 30
0.0
  0
VERTEX
  5
518A
  8
0
 10
501.18314649287618
 20
423.66633069597231
 30
0.0
  0
VERTEX
  5
518B
  8
0
 10
498.38118468793328
 20
422.73283006346861
 30
0.0
  0
VERTEX
  5
518C
  8
0
 10
495.4628350532272
 20
422.28039168476658
 30
0.0
  0
VERTEX
  5
518D
  8
0
 10
492.50543786048149
 20
422.3291188433833
 30
0.0
  0
VERTEX
  5
518E
  8
0
 10
489.59704483038928
 20
422.87199583174709
 30
0.0
  0
VERTEX
  5
518F
  8
0
 10
486.82348684493229
 20
423.90012658033231
 30
0.0
  0
VERTEX
  5
5190
  8
0
 10
484.25976355328851
 20
425.37847546580781
 30
0.0
  0
VERTEX
  5
5191
  8
0
 10
482.56740817943239
 20
426.7200945511637
 30
0.0
  0
VERTEX
  5
5192
  8
0
 10
481.05194788561317
 20
428.25983704426977
 30
0.0
  0
SEQEND
  5
5193
  8
0
  0
LINE
  5
35E8
  8
0
 10
481.05194788561317
 20
428.25983704426977
 30
0.0
 11
423.21174417383082
 21
494.8157036399449
 31
0.0
  0
LINE
  5
35E9
  8
0
 10
439.19307254753733
 20
510.78062890313788
 30
0.0
 11
505.74016295573028
 21
452.948052114387
 31
0.0
  0
LINE
  5
3658
  8
2
 10
438.50000000000028
 20
100.0
 30
0.0
 11
438.50000000000028
 21
136.0
 31
0.0
  0
LINE
  5
3659
  8
2
 10
418.50000000000028
 20
136.0
 30
0.0
 11
418.50000000000028
 21
100.0
 31
0.0
  0
LINE
  5
366C
  8
1
 10
428.50000000000028
 20
90.0
 30
0.0
 11
428.50000000000051
 21
268.50000000000023
 31
0.0
  0
LINE
  5
366D
  8
0
 10
434.89000081629939
 20
177.0
 30
0.0
 11
435.10081206835298
 21
178.5
 31
0.0
  0
LINE
  5
366E
  8
0
 10
421.89918793164748
 20
178.5
 30
0.0
 11
422.10999918370118
 21
177.0
 31
0.0
  0
LINE
  5
366F
  8
0
 10
437.62000000000018
 20
178.5
 30
0.0
 11
438.10000000000019
 21
178.97999999999999
 31
0.0
  0
LINE
  5
3670
  8
0
 10
418.89999999999998
 20
178.97999999999999
 30
0.0
 11
419.38
 21
178.5
 31
0.0
  0
LINE
  5
3671
  8
0
 10
437.62000000000018
 20
178.5
 30
0.0
 11
419.38
 21
178.5
 31
0.0
  0
LINE
  5
3672
  8
0
 10
418.89999999999998
 20
199.14307806183521
 30
0.0
 11
418.89999999999998
 21
178.97999999999999
 31
0.0
  0
LINE
  5
3673
  8
0
 10
438.10000000000019
 20
178.97999999999999
 30
0.0
 11
438.10000000000019
 21
199.14307806183521
 31
0.0
  0
LINE
  5
3674
  8
0
 10
438.10000000000019
 20
178.97999999999999
 30
0.0
 11
418.89999999999998
 21
178.97999999999999
 31
0.0
  0
ARC
  5
3675
  8
0
 10
428.49999999999937
 20
246.50000000000071
 30
0.0
 40
11.999999999999501
 50
0.0
 51
180.0
  0
ARC
  5
3676
  8
0
 10
421.30000000000092
 20
203.30000000000089
 30
0.0
 40
4.8000000000007601
 50
180.0
 51
240.0000000000002
  0
ARC
  5
3677
  8
0
 10
435.69999999999919
 20
203.30000000000089
 30
0.0
 40
4.8000000000007539
 50
299.99999999999977
 51
0.0
  0
LINE
  5
3678
  8
0
 10
438.10000000000019
 20
199.14307806183521
 30
0.0
 11
418.89999999999998
 21
199.14307806183521
 31
0.0
  0
LINE
  5
3679
  8
0
 10
416.50000000000028
 20
246.5
 30
0.0
 11
416.50000000000028
 21
203.30000000000021
 31
0.0
  0
LINE
  5
367A
  8
0
 10
440.50000000000028
 20
203.30000000000021
 30
0.0
 11
440.50000000000028
 21
246.5
 31
0.0
  0
LINE
  5
367B
  8
0
 10
440.50000000000028
 20
203.30000000000021
 30
0.0
 11
416.50000000000028
 21
203.30000000000021
 31
0.0
  0
LINE
  5
367C
  8
0
 10
440.50000000000028
 20
246.5
 30
0.0
 11
416.50000000000028
 21
246.5
 31
0.0
  0
LINE
  5
367D
  8
0
 10
408.50000000000028
 20
100.0
 30
0.0
 11
448.50000000000028
 21
100.0
 31
0.0
  0
LINE
  5
367E
  8
0
 10
448.50000000000028
 20
100.0
 30
0.0
 11
448.50000000000028
 21
100.3000000000002
 31
0.0
  0
LINE
  5
367F
  8
0
 10
408.50000000000028
 20
100.3000000000002
 30
0.0
 11
408.50000000000028
 21
100.0
 31
0.0
  0
LINE
  5
3680
  8
0
 10
405.50000000000028
 20
100.3000000000002
 30
0.0
 11
451.50000000000028
 21
100.3000000000002
 31
0.0
  0
LINE
  5
3681
  8
0
 10
451.50000000000028
 20
100.3000000000002
 30
0.0
 11
453.00000000000028
 21
101.8000000000002
 31
0.0
  0
LINE
  5
3682
  8
0
 10
404.00000000000028
 20
101.8000000000002
 30
0.0
 11
405.50000000000028
 21
100.3000000000002
 31
0.0
  0
LINE
  5
3683
  8
0
 10
404.00000000000028
 20
101.8000000000002
 30
0.0
 11
453.00000000000028
 21
101.8000000000002
 31
0.0
  0
LINE
  5
3684
  8
0
 10
453.00000000000028
 20
101.8000000000002
 30
0.0
 11
453.00000000000028
 21
132.49999999999909
 31
0.0
  0
LINE
  5
3685
  8
0
 10
404.00000000000028
 20
132.49999999999909
 30
0.0
 11
404.00000000000028
 21
101.8000000000002
 31
0.0
  0
ARC
  5
3687
  8
0
 10
455.50000000000131
 20
132.49999999999881
 30
0.0
 40
2.5000000000012639
 50
90.0
 51
180.0
  0
ARC
  5
3688
  8
0
 10
401.49999999999892
 20
132.49999999999881
 30
0.0
 40
2.5000000000012572
 50
0.0
 51
90.0
  0
LINE
  5
3689
  8
0
 10
391.5000000000004
 20
135.0
 30
0.0
 11
465.50000000000028
 21
135.0
 31
0.0
  0
LINE
  5
368A
  8
0
 10
465.50000000000028
 20
135.0
 30
0.0
 11
467.00000000000028
 21
136.5
 31
0.0
  0
LINE
  5
368B
  8
0
 10
390.00000000000028
 20
136.5
 30
0.0
 11
391.5000000000004
 21
135.0
 31
0.0
  0
LINE
  5
368C
  8
0
 10
390.00000000000028
 20
136.5
 30
0.0
 11
467.00000000000028
 21
136.5
 31
0.0
  0
LINE
  5
368D
  8
0
 10
467.00000000000028
 20
136.5
 30
0.0
 11
467.00000000000028
 21
139.0
 31
0.0
  0
LINE
  5
368E
  8
0
 10
390.00000000000028
 20
139.0
 30
0.0
 11
390.00000000000028
 21
136.5
 31
0.0
  0
LINE
  5
368F
  8
0
 10
393.35000000000031
 20
177.0
 30
0.0
 11
463.64999999999992
 21
177.0
 31
0.0
  0
LINE
  5
3690
  8
0
 10
481.051947885613
 20
176.1202354786642
 30
0.0
 11
480.84267506394309
 21
176.13313029171809
 31
0.0
  0
ARC
  5
3691
  8
0
 10
432.36611259707632
 20
-614.38108905822355
 30
0.0
 40
791.99918351337192
 50
83.546812960129216
 51
84.544297262351535
  0
ARC
  5
3692
  8
0
 10
432.36602436500499
 20
-614.38190077622437
 30
0.0
 40
792.00000000487455
 50
86.490852346093206
 51
87.736229537697994
  0
ARC
  5
3693
  8
0
 10
424.63397563478372
 20
-614.3819007717866
 30
0.0
 40
792.00000000043156
 50
92.263770462275943
 51
96.45318678256227
  0
LINE
  5
3694
  8
0
 10
507.66634594723013
 20
174.0303400466951
 30
0.0
 11
481.051947885613
 21
176.1202354786642
 31
0.0
  0
LINE
  5
3695
  8
0
 10
335.62000000000211
 20
172.60000000000011
 30
0.0
 11
521.3799999999984
 21
172.60000000000011
 31
0.0
  0
ARC
  5
3696
  8
0
 10
518.89380021274314
 20
168.26193469185429
 30
0.0
 40
4.9999999999884341
 50
14.336310303192279
 51
60.182435564061777
  0
ARC
  5
3697
  8
0
 10
338.10619978725703
 20
168.26193469185429
 30
0.0
 40
4.9999999999884341
 50
119.81756443593819
 51
165.66368969680769
  0
LINE
  5
3698
  8
0
 10
332.45999999999901
 20
139.0
 30
0.0
 11
524.53999999954976
 21
139.0
 31
0.0
  0
ARC
  5
3699
  8
0
 10
524.54000000000087
 20
142.9599999999991
 30
0.0
 40
3.959999999999062
 50
270.0
 51
0.0
  0
ARC
  5
369A
  8
0
 10
332.45999999999952
 20
142.9599999999991
 30
0.0
 40
3.95999999999907
 50
180.0
 51
270.0
  0
ARC
  5
369D
  8
0
 10
428.58946718807448
 20
138.73088268723311
 30
0.0
 40
100.0000000000399
 50
2.4238286177569002
 51
17.920144819136262
  0
ARC
  5
369E
  8
0
 10
428.41053281192569
 20
138.73088268723311
 30
0.0
 40
100.0000000000398
 50
162.07985518084999
 51
177.5761713822431
  0
LINE
  5
3AC3
  8
2
 10
418.50000000000011
 20
136.0
 30
0.0
 11
438.50000000000011
 21
136.0
 31
0.0
  0
LINE
  5
3AC4
  8
2
 10
136.00000000000031
 20
418.50000000000011
 30
0.0
 11
136.00000000000031
 21
438.50000000000011
 31
0.0
  0
ARC
  5
3D56
  8
0
 10
808.01614716074914
 20
475.80151519016471
 30
0.0
 40
4.8000000000007743
 50
165.00000000000551
 51
224.99999999999119
  0
ARC
  5
3D57
  8
0
 10
818.19848480983376
 20
485.9838528392512
 30
0.0
 40
4.800000000000705
 50
45.000000000009592
 51
104.9999999999944
  0
LINE
  5
3D58
  8
0
 10
804.62203461105139
 20
472.40740264046968
 30
0.0
 11
835.16904755831013
 21
441.8603896932101
 31
0.0
  0
LINE
  5
3D59
  8
0
 10
852.1396103067882
 20
458.83095244168652
 30
0.0
 11
821.59259735952946
 21
489.37796538894702
 31
0.0
  0
ARC
  5
3D5A
  8
0
 10
843.65432893254831
 20
450.34567106744828
 30
0.0
 40
11.99999999999987
 50
225.00000000000961
 51
44.999999999991182
  0
LINE
  5
3D5B
  8
0
 10
802.69870416622518
 20
504.8777460325565
 30
0.0
 11
802.0198816562862
 21
504.8777460325565
 31
0.0
  0
LINE
  5
3D5C
  8
0
 10
789.12225396744282
 20
491.98011834371312
 30
0.0
 11
789.12225396744282
 21
491.30129583377408
 31
0.0
  0
LINE
  5
3D5D
  8
0
 10
789.12225396744282
 20
491.30129583377408
 30
0.0
 11
803.37970319456065
 21
477.04384660665721
 31
0.0
  0
LINE
  5
3D5E
  8
0
 10
816.95615339334211
 20
490.62029680543782
 30
0.0
 11
802.69870416622518
 21
504.8777460325565
 31
0.0
  0
LINE
  5
3D5F
  8
0
 10
800.23854678673445
 20
503.0964111630048
 30
0.0
 11
798.44454162904833
 21
504.44829101548493
 31
0.0
  0
LINE
  5
3D60
  8
0
 10
789.55170898451354
 20
495.55545837095201
 30
0.0
 11
790.90358883699446
 21
493.76145321326402
 31
0.0
  0
LINE
  5
3D68
  8
0
 10
803.37970319456065
 20
477.0438466066563
 30
0.0
 11
816.95615339334427
 21
490.6202968054402
 31
0.0
  0
LINE
  5
3D6A
  8
0
 10
789.12225396744282
 20
491.30129583377408
 30
0.0
 11
802.69870416622553
 21
504.8777460325565
 31
0.0
  0
LINE
  5
3D6C
  8
0
 10
789.12225396744282
 20
491.98011834371312
 30
0.0
 11
802.0198816562862
 21
504.8777460325565
 31
0.0
  0
POLYLINE
  5
3D76
  8
0
 66
     1
 10
0.0
 20
0.0
 30
0.0
 70
   128
  0
VERTEX
  5
5194
  8
0
 10
797.56410862837231
 20
505.9444769657095
 30
0.0
  0
VERTEX
  5
5195
  8
0
 10
797.59862861510385
 20
505.50339555446419
 30
0.0
  0
VERTEX
  5
5196
  8
0
 10
797.66744895100055
 20
505.06399613046608
 30
0.0
  0
VERTEX
  5
5197
  8
0
 10
797.79256345031536
 20
504.64320586948008
 30
0.0
  0
VERTEX
  5
5198
  8
0
 10
798.0022586582146
 20
504.30203839246059
 30
0.0
  0
VERTEX
  5
5199
  8
0
 10
798.26151841678995
 20
504.13207933660499
 30
0.0
  0
VERTEX
  5
519A
  8
0
 10
798.40167612244488
 20
504.101139761735
 30
0.0
  0
SEQEND
  5
519B
  8
0
  0
ARC
  5
3D77
  8
0
 10
788.49999999999909
 20
505.50000000000011
 30
0.0
 40
9.0750000000001751
 50
2.8073660676680312
 51
267.19263393234507
  0
POLYLINE
  5
3D78
  8
0
 66
     1
 10
0.0
 20
0.0
 30
0.0
 70
   128
  0
VERTEX
  5
519C
  8
0
 10
789.89886023826341
 20
495.59832387755529
 30
0.0
  0
VERTEX
  5
519D
  8
0
 10
789.84238554150954
 20
495.8014289636759
 30
0.0
  0
VERTEX
  5
519E
  8
0
 10
789.63159437441755
 20
496.05412665876258
 30
0.0
  0
VERTEX
  5
519F
  8
0
 10
789.354851441096
 20
496.20823766638853
 30
0.0
  0
VERTEX
  5
51A0
  8
0
 10
788.79735869161789
 20
496.35914117336068
 30
0.0
  0
VERTEX
  5
51A1
  8
0
 10
788.05552303428885
 20
496.4358913716261
 30
0.0
  0
SEQEND
  5
51A2
  8
0
  0
ARC
  5
3D79
  8
0
 10
788.49999999999909
 20
505.50000000000011
 30
0.0
 40
10.00000000000005
 50
351.95874900660669
 51
278.0412509933937
  0
ARC
  5
3D7D
  8
0
 10
788.49999999999909
 20
505.50000000000011
 30
0.0
 40
6.3900008162992306
 50
341.55951376728581
 51
288.44048623271391
  0
ARC
  5
3D80
  8
0
 10
788.49999999999909
 20
505.50000000000011
 30
0.0
 40
6.0000000000000124
 50
343.43689014885831
 51
286.56310985114192
  0
ARC
  5
3D82
  8
0
 10
788.50000000059583
 20
505.4999999998883
 30
0.0
 40
9.9999999993938467
 50
346.78833061688772
 51
351.95874900676461
  0
LINE
  5
3D85
  8
0
 10
790.78549153364759
 20
495.76467625347613
 30
0.0
 11
798.23532374652495
 21
503.21450846636151
 31
0.0
  0
ARC
  5
3D86
  8
0
 10
788.49999999999011
 20
505.50000000004741
 30
0.0
 40
10.000000000048271
 50
278.04125099340661
 51
283.21166938293891
  0
ARC
  5
3D88
  8
0
 10
786.98477118317089
 20
509.43959492375342
 30
0.0
 40
1.142857142857169
 50
45.000000000008441
 51
134.9999999999915
  0
LINE
  5
3D89
  8
0
 10
786.17664914752925
 20
510.24771695939501
 30
0.0
 11
783.75228304060431
 21
507.82335085247013
 31
0.0
  0
ARC
  5
3D8A
  8
0
 10
784.56040507624596
 20
507.01522881682848
 30
0.0
 40
1.1428571428573699
 50
134.9999999999915
 51
225.00000000000961
  0
LINE
  5
3D8B
  8
0
 10
783.75228304060431
 20
506.20710678118593
 30
0.0
 11
792.49010255097994
 21
497.46928727081081
 31
0.0
  0
LINE
  5
3D8C
  8
0
 10
796.53071272918669
 20
501.50989744902171
 30
0.0
 11
787.79289321881254
 21
510.24771695939501
 31
0.0
  0
LINE
  5
3D8F
  8
0
 10
795.71551744911824
 20
513.80278916638713
 30
0.0
 11
865.74016295572983
 21
452.94805211438609
 31
0.0
  0
ARC
  5
3D90
  8
0
 10
788.50000000000102
 20
505.50000000000108
 30
0.0
 40
10.999999999999879
 50
49.007811255011511
 51
220.99218874485879
  0
LINE
  5
3D91
  8
0
 10
841.05194788561323
 20
428.25983704426937
 30
0.0
 11
780.19721083359593
 21
498.28448255090302
 31
0.0
  0
ARC
  5
3D92
  8
0
 10
854.26093065034911
 20
439.73906934965009
 30
0.0
 40
17.500000000000021
 50
220.99218874485879
 51
49.007811255150123
  0
CIRCLE
  5
3D94
  8
0
 10
788.50000000000011
 20
428.50000000000011
 30
0.0
 40
92.879999999997551
  0
CIRCLE
  5
3D97
  8
0
 10
788.50000000000011
 20
428.50000000000011
 30
0.0
 40
99.999999999999844
  0
LINE
  5
3D9D
  8
0
 10
804.62203461105139
 20
472.40740264046968
 30
0.0
 11
821.59259735953094
 21
489.37796538894571
 31
0.0
  0
LINE
  5
3D9F
  8
0
 10
835.16904755831013
 20
441.8603896932101
 30
0.0
 11
852.13961030678695
 21
458.83095244168749
 31
0.0
  0
ARC
  5
3DD4
  8
0
 10
843.65432893254876
 20
168.49999999999909
 30
0.0
 40
11.99999999999967
 50
34.106145949221258
 51
90.0
  0
LINE
  5
3DD5
  8
0
 10
843.65432893254876
 20
180.5
 30
0.0
 11
813.10731598529185
 21
180.5
 31
0.0
  0
ARC
  5
3DD6
  8
0
 10
813.17417274001275
 20
171.6225011366441
 30
0.0
 40
8.8777506100668511
 50
90.431488363937675
 51
142.7187800090926
  0
LINE
  5
3DD7
  8
0
 10
807.15808489730773
 20
178.0999999999994
 30
0.0
 11
795.91047906683491
 21
178.0999999999994
 31
0.0
  0
ARC
  5
3DD8
  8
0
 10
692.45999999999924
 20
142.96000000000001
 30
0.0
 40
3.9599999999994391
 50
180.00000000001299
 51
270.0
  0
ARC
  5
3DD9
  8
0
 10
884.54000000000008
 20
142.95999999999819
 30
0.0
 40
3.9599999999995812
 50
270.0
 51
359.99999999998698
  0
ARC
  5
3DDA
  8
0
 10
788.4105328119058
 20
138.73088268723581
 30
0.0
 40
100.00000000002019
 50
162.07985518086369
 51
177.57617138223
  0
ARC
  5
3DDB
  8
0
 10
788.58946718809432
 20
138.73088268723581
 30
0.0
 40
100.00000000002019
 50
2.42382861776994
 51
17.920144819129849
  0
ARC
  5
3DDC
  8
0
 10
698.1061997872622
 20
168.2619346918527
 30
0.0
 40
4.9999999999932516
 50
119.81756443595231
 51
165.66368969678749
  0
ARC
  5
3DDD
  8
0
 10
878.89380021273894
 20
168.26193469185
 30
0.0
 40
4.9999999999930793
 50
14.33631030321245
 51
60.182435564047623
  0
ARC
  5
3DDE
  8
0
 10
784.63397563476622
 20
-614.3819007716711
 30
0.0
 40
792.00000000031594
 50
92.263770462275971
 51
96.453186782562284
  0
ARC
  5
3DDF
  8
0
 10
792.36602436521673
 20
-614.3819007716711
 30
0.0
 40
792.00000000031605
 50
86.490875270602444
 51
87.736229537724014
  0
ARC
  5
3DE0
  8
0
 10
792.36602436521673
 20
-614.3819007716711
 30
0.0
 40
792.00000000031605
 50
83.546813217437716
 51
84.548027723920626
  0
LINE
  5
3DE1
  8
0
 10
750.0
 20
139.0
 30
0.0
 11
750.0
 21
136.5
 31
0.0
  0
LINE
  5
3DE2
  8
0
 10
827.00000000000011
 20
136.5
 30
0.0
 11
827.00000000000011
 21
139.0
 31
0.0
  0
LINE
  5
3DE3
  8
0
 10
750.0
 20
136.5
 30
0.0
 11
751.4999999999992
 21
135.00000000000091
 31
0.0
  0
LINE
  5
3DE4
  8
0
 10
825.5
 20
135.0
 30
0.0
 11
827.00000000000011
 21
136.5
 31
0.0
  0
ARC
  5
3DE5
  8
0
 10
761.49999999999829
 20
132.49999999999909
 30
0.0
 40
2.5000000000012781
 50
0.0
 51
89.999999999986969
  0
ARC
  5
3DE6
  8
0
 10
815.50000000000182
 20
132.4999999999981
 30
0.0
 40
2.500000000001207
 50
90.000000000013031
 51
180.0
  0
LINE
  5
3DE7
  8
0
 10
763.9999999999992
 20
101.8000000000002
 30
0.0
 11
765.4999999999992
 21
100.3000000000002
 31
0.0
  0
LINE
  5
3DE8
  8
0
 10
811.49999999999909
 20
100.3000000000002
 30
0.0
 11
812.99999999999909
 21
101.8000000000002
 31
0.0
  0
LINE
  5
3DE9
  8
0
 10
763.9999999999992
 20
132.49999999999909
 30
0.0
 11
763.9999999999992
 21
101.8000000000002
 31
0.0
  0
LINE
  5
3DEA
  8
0
 10
812.99999999999909
 20
101.8000000000002
 30
0.0
 11
813.0
 21
132.4999999999981
 31
0.0
  0
LINE
  5
3DEB
  8
0
 10
768.50000000000011
 20
100.3000000000002
 30
0.0
 11
768.50000000000011
 21
100.0
 31
0.0
  0
LINE
  5
3DEC
  8
0
 10
808.5
 20
100.0
 30
0.0
 11
808.5
 21
100.3000000000002
 31
0.0
  0
ARC
  5
3DED
  8
0
 10
795.99348951807281
 20
172.78689927287451
 30
0.0
 40
5.3137491539960733
 50
90.895100962482701
 51
127.54567243339039
  0
LINE
  5
3DEF
  8
0
 10
692.45999999999924
 20
139.00000000000091
 30
0.0
 11
884.53999999812925
 21
138.99999999999909
 31
0.0
  0
LINE
  5
3DF1
  8
0
 10
695.62000000000273
 20
172.6000000000013
 30
0.0
 11
881.37999999999749
 21
172.5999999999994
 31
0.0
  0
LINE
  5
3DF2
  8
0
 10
841.05194788561323
 20
176.12023547866369
 30
0.0
 11
840.84236300754094
 21
176.13314942809279
 31
0.0
  0
ARC
  5
3DF3
  8
0
 10
779.74883412204792
 20
-774.68541903345067
 30
0.0
 40
952.77986146292994
 50
84.70863009830974
 51
86.310965621288858
  0
LINE
  5
3DF4
  8
0
 10
753.35000000000036
 20
177.00000000000091
 30
0.0
 11
823.64999999999975
 21
177.0
 31
0.0
  0
LINE
  5
3DF5
  8
0
 10
750.0
 20
136.5
 30
0.0
 11
827.00000000000011
 21
136.5
 31
0.0
  0
LINE
  5
3DF6
  8
0
 10
751.4999999999992
 20
135.00000000000091
 30
0.0
 11
825.5
 21
135.0
 31
0.0
  0
LINE
  5
3DF7
  8
0
 10
763.9999999999992
 20
101.8000000000002
 30
0.0
 11
812.99999999999909
 21
101.8000000000002
 31
0.0
  0
LINE
  5
3DF8
  8
0
 10
765.4999999999992
 20
100.3000000000002
 30
0.0
 11
811.49999999999909
 21
100.3000000000002
 31
0.0
  0
LINE
  5
3DF9
  8
0
 10
768.50000000000011
 20
100.0
 30
0.0
 11
808.5
 21
100.0
 31
0.0
  0
ARC
  5
3DFA
  8
0
 10
844.28668994233135
 20
172.36902537276359
 30
0.0
 40
8.1555275019742446
 50
94.447047750860705
 51
150.78323681351921
  0
ARC
  5
3DFB
  8
0
 10
813.45043490200578
 20
173.03781821801559
 30
0.0
 40
7.4700661000010102
 50
92.632665487362885
 51
147.96698350243011
  0
ARC
  5
3E83
  8
0
 10
1048.5000000000009
 20
450.345671067448
 30
0.0
 40
11.999999999999879
 50
180.0
 51
245.0721684340908
  0
LINE
  5
3E84
  8
0
 10
1036.5
 20
480.8926840147077
 30
0.0
 11
1036.5
 21
450.345671067448
 31
0.0
  0
ARC
  5
3E85
  8
0
 10
1045.983552430979
 20
480.60916880564389
 30
0.0
 40
9.4877893940004672
 50
113.4142786189705
 51
178.287626050055
  0
LINE
  5
3E86
  8
0
 10
1038.9000000000001
 20
498.0895209331656
 30
0.0
 11
1038.9000000000001
 21
486.92117581946161
 31
0.0
  0
ARC
  5
3E89
  8
0
 10
1078.269117312763
 20
428.41053281190602
 30
0.0
 40
100.00000000002041
 50
252.07985518086289
 51
267.5761713822431
  0
ARC
  5
3E8A
  8
0
 10
1078.269117312763
 20
428.58946718809432
 30
0.0
 40
100.00000000002029
 50
92.423828617756897
 51
107.92014481913709
  0
ARC
  5
3E8B
  8
0
 10
1074.040000000002
 20
332.46000000000021
 30
0.0
 40
3.9599999999995101
 50
270.00000000001302
 51
0.0
  0
ARC
  5
3E8C
  8
0
 10
1074.040000000002
 20
524.54000000000008
 30
0.0
 40
3.9599999999994391
 50
0.0
 51
89.999999999986969
  0
ARC
  5
3E8D
  8
0
 10
1048.738065308148
 20
338.1061997872614
 30
0.0
 40
4.9999999999933564
 50
209.8175644359668
 51
255.66368969679419
  0
ARC
  5
3E8E
  8
0
 10
1048.738065308148
 20
518.89380021273905
 30
0.0
 40
4.9999999999931504
 50
104.33631030320571
 51
150.18243556403311
  0
LINE
  5
3E91
  8
0
 10
1078.0
 20
390.00000000000023
 30
0.0
 11
1080.5
 21
390.00000000000023
 31
0.0
  0
LINE
  5
3E92
  8
0
 10
1080.5
 20
467.00000000000011
 30
0.0
 11
1078.0
 21
467.00000000000011
 31
0.0
  0
LINE
  5
3E93
  8
0
 10
1080.5
 20
390.00000000000023
 30
0.0
 11
1081.9999999999991
 21
391.4999999999992
 31
0.0
  0
LINE
  5
3E94
  8
0
 10
1081.9999999999991
 20
465.49999999999932
 30
0.0
 11
1080.5
 21
467.00000000000011
 31
0.0
  0
ARC
  5
3E95
  8
0
 10
1084.500000000002
 20
401.49999999999829
 30
0.0
 40
2.5000000000014211
 50
90.0
 51
179.99999999998701
  0
ARC
  5
3E96
  8
0
 10
1084.500000000002
 20
455.50000000000108
 30
0.0
 40
2.5000000000014211
 50
180.00000000001299
 51
270.0
  0
LINE
  5
3E97
  8
0
 10
1084.500000000002
 20
403.9999999999992
 30
0.0
 11
1115.2
 21
403.9999999999992
 31
0.0
  0
LINE
  5
3E98
  8
0
 10
1115.2
 20
452.99999999999932
 30
0.0
 11
1084.500000000002
 21
452.99999999999932
 31
0.0
  0
LINE
  5
3E99
  8
0
 10
1115.2
 20
403.9999999999992
 30
0.0
 11
1116.7
 21
405.50000000000108
 31
0.0
  0
LINE
  5
3E9A
  8
0
 10
1116.7
 20
451.4999999999992
 30
0.0
 11
1115.2
 21
452.99999999999932
 31
0.0
  0
LINE
  5
3E9B
  8
0
 10
1116.7
 20
408.50000000000011
 30
0.0
 11
1116.9999999999991
 21
408.50000000000011
 31
0.0
  0
LINE
  5
3E9C
  8
0
 10
1116.9999999999991
 20
448.50000000000023
 30
0.0
 11
1116.7
 21
448.50000000000023
 31
0.0
  0
LINE
  5
3EB1
  8
0
 10
1078.0
 20
332.46000000000021
 30
0.0
 11
1078.0
 21
524.54000000000008
 31
0.0
  0
LINE
  5
3EB2
  8
0
 10
1044.399999999999
 20
335.62000000000188
 30
0.0
 11
1044.399999999999
 21
521.3799999999984
 31
0.0
  0
LINE
  5
3EB8
  8
0
 10
1080.5
 20
390.00000000000023
 30
0.0
 11
1080.5
 21
467.00000000000011
 31
0.0
  0
LINE
  5
3EB9
  8
0
 10
1081.9999999999991
 20
391.4999999999992
 30
0.0
 11
1081.9999999999991
 21
465.49999999999932
 31
0.0
  0
LINE
  5
3EBA
  8
0
 10
1115.2
 20
403.9999999999992
 30
0.0
 11
1115.2
 21
452.99999999999932
 31
0.0
  0
LINE
  5
3EBB
  8
0
 10
1116.7
 20
405.50000000000108
 30
0.0
 11
1116.7
 21
451.4999999999992
 31
0.0
  0
LINE
  5
3EBC
  8
0
 10
1116.9999999999991
 20
408.50000000000011
 30
0.0
 11
1116.9999999999991
 21
448.50000000000023
 31
0.0
  0
POLYLINE
  5
3EBD
  8
0
 66
     1
 10
0.0
 20
0.0
 30
0.0
 70
   128
  0
VERTEX
  5
51A3
  8
0
 10
1036.5
 20
450.345671067448
 30
0.0
  0
VERTEX
  5
51A4
  8
0
 10
1036.6477399128589
 20
451.67306151994387
 30
0.0
  0
VERTEX
  5
51A5
  8
0
 10
1037.087321804459
 20
452.96776721414142
 30
0.0
  0
VERTEX
  5
51A6
  8
0
 10
1037.80792170974
 20
454.19790819897008
 30
0.0
  0
VERTEX
  5
51A7
  8
0
 10
1038.7917960675011
 20
455.33319432077758
 30
0.0
  0
VERTEX
  5
51A8
  8
0
 10
1040.014718625762
 20
456.34567106744811
 30
0.0
  0
VERTEX
  5
51A9
  8
0
 10
1041.4465769724909
 20
457.21040790126051
 30
0.0
  0
VERTEX
  5
51AA
  8
0
 10
1042.8399338290819
 20
457.81417115357061
 30
0.0
  0
SEQEND
  5
51AB
  8
0
  0
POLYLINE
  5
3EBE
  8
0
 66
     1
 10
0.0
 20
0.0
 30
0.0
 70
   128
  0
VERTEX
  5
51AC
  8
0
 10
1036.5
 20
480.8926840147077
 30
0.0
  0
VERTEX
  5
51AD
  8
0
 10
1036.6477399128589
 20
482.22007446720261
 30
0.0
  0
VERTEX
  5
51AE
  8
0
 10
1037.087321804459
 20
483.51478016140112
 30
0.0
  0
VERTEX
  5
51AF
  8
0
 10
1037.80792170974
 20
484.74492114622888
 30
0.0
  0
VERTEX
  5
51B0
  8
0
 10
1038.7917960675011
 20
485.88020726803722
 30
0.0
  0
VERTEX
  5
51B1
  8
0
 10
1040.0147186257609
 20
486.8926840147077
 30
0.0
  0
VERTEX
  5
51B2
  8
0
 10
1041.4465769724909
 20
487.75742084852021
 30
0.0
  0
VERTEX
  5
51B3
  8
0
 10
1042.187082486482
 20
488.1097743249353
 30
0.0
  0
SEQEND
  5
51B4
  8
0
  0
LINE
  5
3F38
  8
2
 10
1080.9999999999991
 20
418.50000000000011
 30
0.0
 11
1116.9999999999991
 21
418.50000000000011
 31
0.0
  0
LINE
  5
3F39
  8
2
 10
1116.9999999999991
 20
438.50000000000011
 30
0.0
 11
1080.9999999999991
 21
438.50000000000011
 31
0.0
  0
POLYLINE
  5
456D
  8
0
 10
1040.0000000000005
 20
503.5449198841772
 30
0.0
 66
     1
 70
     8
  0
VERTEX
  8
0
  5
51F2
 10
1040.00
 20
503.545
 30
0.000000
  70
    32
  0
VERTEX
  8
0
  5
51F3
 10
1040.00
 20
503.534
 30
0.000000
  70
    32
  0
VERTEX
  8
0
  5
51F4
 10
1040.00
 20
503.522
 30
0.000000
  70
    32
  0
VERTEX
  8
0
  5
51F5
 10
1040.00
 20
503.511
 30
0.000000
  70
    32
  0
VERTEX
  8
0
  5
51F6
 10
1040.00
 20
503.500
 30
0.000000
  70
    32
  0
VERTEX
  8
0
  5
51F7
 10
1040.00
 20
503.488
 30
0.000000
  70
    32
  0
VERTEX
  8
0
  5
51F8
 10
1040.00
 20
503.477
 30
0.000000
  70
    32
  0
VERTEX
  8
0
  5
51F9
 10
1040.00
 20
503.466
 30
0.000000
  70
    32
  0
VERTEX
  8
0
  5
51FA
 10
1040.00
 20
503.455
 30
0.000000
  70
    32
  0
VERTEX
  8
0
  5
51FB
 10
1040.00
 20
503.443
 30
0.000000
  70
    32
  0
VERTEX
  8
0
  5
51FC
 10
1040.01
 20
503.432
 30
0.000000
  70
    32
  0
VERTEX
  8
0
  5
51FD
 10
1040.01
 20
503.421
 30
0.000000
  70
    32
  0
VERTEX
  8
0
  5
51FE
 10
1040.01
 20
503.409
 30
0.000000
  70
    32
  0
VERTEX
  8
0
  5
51FF
 10
1040.01
 20
503.398
 30
0.000000
  70
    32
  0
VERTEX
  8
0
  5
5200
 10
1040.01
 20
503.387
 30
0.000000
  70
    32
  0
VERTEX
  8
0
  5
5201
 10
1040.01
 20
503.376
 30
0.000000
  70
    32
  0
VERTEX
  8
0
  5
5202
 10
1040.02
 20
503.364
 30
0.000000
  70
    32
  0
VERTEX
  8
0
  5
5203
 10
1040.02
 20
503.353
 30
0.000000
  70
    32
  0
VERTEX
  8
0
  5
5204
 10
1040.02
 20
503.342
 30
0.000000
  70
    32
  0
VERTEX
  8
0
  5
5205
 10
1040.02
 20
503.331
 30
0.000000
  70
    32
  0
VERTEX
  8
0
  5
5206
 10
1040.02
 20
503.320
 30
0.000000
  70
    32
  0
VERTEX
  8
0
  5
5207
 10
1040.03
 20
503.308
 30
0.000000
  70
    32
  0
VERTEX
  8
0
  5
5208
 10
1040.03
 20
503.297
 30
0.000000
  70
    32
  0
VERTEX
  8
0
  5
5209
 10
1040.03
 20
503.286
 30
0.000000
  70
    32
  0
VERTEX
  8
0
  5
520A
 10
1040.03
 20
503.275
 30
0.000000
  70
    32
  0
VERTEX
  8
0
  5
520B
 10
1040.04
 20
503.264
 30
0.000000
  70
    32
  0
VERTEX
  8
0
  5
520C
 10
1040.04
 20
503.253
 30
0.000000
  70
    32
  0
VERTEX
  8
0
  5
520D
 10
1040.04
 20
503.242
 30
0.000000
  70
    32
  0
VERTEX
  8
0
  5
520E
 10
1040.05
 20
503.231
 30
0.000000
  70
    32
  0
VERTEX
  8
0
  5
520F
 10
1040.05
 20
503.219
 30
0.000000
  70
    32
  0
VERTEX
  8
0
  5
5210
 10
1040.05
 20
503.208
 30
0.000000
  70
    32
  0
VERTEX
  8
0
  5
5211
 10
1040.06
 20
503.197
 30
0.000000
  70
    32
  0
VERTEX
  8
0
  5
5212
 10
1040.06
 20
503.186
 30
0.000000
  70
    32
  0
VERTEX
  8
0
  5
5213
 10
1040.06
 20
503.175
 30
0.000000
  70
    32
  0
VERTEX
  8
0
  5
5214
 10
1040.07
 20
503.164
 30
0.000000
  70
    32
  0
VERTEX
  8
0
  5
5215
 10
1040.07
 20
503.153
 30
0.000000
  70
    32
  0
VERTEX
  8
0
  5
5216
 10
1040.08
 20
503.142
 30
0.000000
  70
    32
  0
VERTEX
  8
0
  5
5217
 10
1040.08
 20
503.131
 30
0.000000
  70
    32
  0
VERTEX
  8
0
  5
5218
 10
1040.09
 20
503.121
 30
0.000000
  70
    32
  0
VERTEX
  8
0
  5
5219
 10
1040.09
 20
503.110
 30
0.000000
  70
    32
  0
VERTEX
  8
0
  5
521A
 10
1040.09
 20
503.099
 30
0.000000
  70
    32
  0
VERTEX
  8
0
  5
521B
 10
1040.10
 20
503.088
 30
0.000000
  70
    32
  0
VERTEX
  8
0
  5
521C
 10
1040.10
 20
503.077
 30
0.000000
  70
    32
  0
VERTEX
  8
0
  5
521D
 10
1040.11
 20
503.066
 30
0.000000
  70
    32
  0
VERTEX
  8
0
  5
521E
 10
1040.11
 20
503.056
 30
0.000000
  70
    32
  0
VERTEX
  8
0
  5
521F
 10
1040.12
 20
503.045
 30
0.000000
  70
    32
  0
VERTEX
  8
0
  5
5220
 10
1040.12
 20
503.034
 30
0.000000
  70
    32
  0
VERTEX
  8
0
  5
5221
 10
1040.13
 20
503.023
 30
0.000000
  70
    32
  0
VERTEX
  8
0
  5
5222
 10
1040.14
 20
503.013
 30
0.000000
  70
    32
  0
VERTEX
  8
0
  5
5223
 10
1040.14
 20
503.002
 30
0.000000
  70
    32
  0
VERTEX
  8
0
  5
5224
 10
1040.15
 20
502.991
 30
0.000000
  70
    32
  0
VERTEX
  8
0
  5
5225
 10
1040.15
 20
502.981
 30
0.000000
  70
    32
  0
VERTEX
  8
0
  5
5226
 10
1040.16
 20
502.970
 30
0.000000
  70
    32
  0
VERTEX
  8
0
  5
5227
 10
1040.16
 20
502.960
 30
0.000000
  70
    32
  0
VERTEX
  8
0
  5
5228
 10
1040.17
 20
502.949
 30
0.000000
  70
    32
  0
VERTEX
  8
0
  5
5229
 10
1040.18
 20
502.939
 30
0.000000
  70
    32
  0
VERTEX
  8
0
  5
522A
 10
1040.18
 20
502.928
 30
0.000000
  70
    32
  0
VERTEX
  8
0
  5
522B
 10
1040.19
 20
502.918
 30
0.000000
  70
    32
  0
VERTEX
  8
0
  5
522C
 10
1040.20
 20
502.907
 30
0.000000
  70
    32
  0
VERTEX
  8
0
  5
522D
 10
1040.20
 20
502.897
 30
0.000000
  70
    32
  0
VERTEX
  8
0
  5
522E
 10
1040.21
 20
502.887
 30
0.000000
  70
    32
  0
VERTEX
  8
0
  5
522F
 10
1040.22
 20
502.876
 30
0.000000
  70
    32
  0
VERTEX
  8
0
  5
5230
 10
1040.22
 20
502.866
 30
0.000000
  70
    32
  0
VERTEX
  8
0
  5
5231
 10
1040.23
 20
502.856
 30
0.000000
  70
    32
  0
VERTEX
  8
0
  5
5232
 10
1040.24
 20
502.846
 30
0.000000
  70
    32
  0
VERTEX
  8
0
  5
5233
 10
1040.25
 20
502.836
 30
0.000000
  70
    32
  0
VERTEX
  8
0
  5
5234
 10
1040.25
 20
502.825
 30
0.000000
  70
    32
  0
VERTEX
  8
0
  5
5235
 10
1040.26
 20
502.815
 30
0.000000
  70
    32
  0
VERTEX
  8
0
  5
5236
 10
1040.27
 20
502.805
 30
0.000000
  70
    32
  0
VERTEX
  8
0
  5
5237
 10
1040.28
 20
502.795
 30
0.000000
  70
    32
  0
VERTEX
  8
0
  5
5238
 10
1040.28
 20
502.785
 30
0.000000
  70
    32
  0
VERTEX
  8
0
  5
5239
 10
1040.29
 20
502.775
 30
0.000000
  70
    32
  0
VERTEX
  8
0
  5
523A
 10
1040.30
 20
502.765
 30
0.000000
  70
    32
  0
VERTEX
  8
0
  5
523B
 10
1040.31
 20
502.756
 30
0.000000
  70
    32
  0
VERTEX
  8
0
  5
523C
 10
1040.32
 20
502.746
 30
0.000000
  70
    32
  0
VERTEX
  8
0
  5
523D
 10
1040.33
 20
502.736
 30
0.000000
  70
    32
  0
VERTEX
  8
0
  5
523E
 10
1040.33
 20
502.726
 30
0.000000
  70
    32
  0
VERTEX
  8
0
  5
523F
 10
1040.34
 20
502.716
 30
0.000000
  70
    32
  0
VERTEX
  8
0
  5
5240
 10
1040.35
 20
502.707
 30
0.000000
  70
    32
  0
VERTEX
  8
0
  5
5241
 10
1040.36
 20
502.697
 30
0.000000
  70
    32
  0
VERTEX
  8
0
  5
5242
 10
1040.37
 20
502.688
 30
0.000000
  70
    32
  0
VERTEX
  8
0
  5
5243
 10
1040.38
 20
502.678
 30
0.000000
  70
    32
  0
VERTEX
  8
0
  5
5244
 10
1040.39
 20
502.669
 30
0.000000
  70
    32
  0
VERTEX
  8
0
  5
5245
 10
1040.40
 20
502.659
 30
0.000000
  70
    32
  0
VERTEX
  8
0
  5
5246
 10
1040.41
 20
502.650
 30
0.000000
  70
    32
  0
VERTEX
  8
0
  5
5247
 10
1040.42
 20
502.640
 30
0.000000
  70
    32
  0
VERTEX
  8
0
  5
5248
 10
1040.43
 20
502.631
 30
0.000000
  70
    32
  0
VERTEX
  8
0
  5
5249
 10
1040.44
 20
502.622
 30
0.000000
  70
    32
  0
VERTEX
  8
0
  5
524A
 10
1040.44
 20
502.612
 30
0.000000
  70
    32
  0
VERTEX
  8
0
  5
524B
 10
1040.45
 20
502.603
 30
0.000000
  70
    32
  0
VERTEX
  8
0
  5
524C
 10
1040.46
 20
502.594
 30
0.000000
  70
    32
  0
VERTEX
  8
0
  5
524D
 10
1040.47
 20
502.585
 30
0.000000
  70
    32
  0
VERTEX
  8
0
  5
524E
 10
1040.48
 20
502.576
 30
0.000000
  70
    32
  0
VERTEX
  8
0
  5
524F
 10
1040.50
 20
502.567
 30
0.000000
  70
    32
  0
VERTEX
  8
0
  5
5250
 10
1040.51
 20
502.558
 30
0.000000
  70
    32
  0
VERTEX
  8
0
  5
5251
 10
1040.52
 20
502.549
 30
0.000000
  70
    32
  0
VERTEX
  8
0
  5
5252
 10
1040.53
 20
502.540
 30
0.000000
  70
    32
  0
VERTEX
  8
0
  5
5253
 10
1040.54
 20
502.531
 30
0.000000
  70
    32
  0
VERTEX
  8
0
  5
5254
 10
1040.55
 20
502.523
 30
0.000000
  70
    32
  0
VERTEX
  8
0
  5
5255
 10
1040.56
 20
502.514
 30
0.000000
  70
    32
  0
VERTEX
  8
0
  5
5256
 10
1040.57
 20
502.505
 30
0.000000
  70
    32
  0
VERTEX
  8
0
  5
5257
 10
1040.58
 20
502.497
 30
0.000000
  70
    32
  0
VERTEX
  8
0
  5
5258
 10
1040.59
 20
502.488
 30
0.000000
  70
    32
  0
VERTEX
  8
0
  5
5259
 10
1040.60
 20
502.480
 30
0.000000
  70
    32
  0
VERTEX
  8
0
  5
525A
 10
1040.61
 20
502.471
 30
0.000000
  70
    32
  0
VERTEX
  8
0
  5
525B
 10
1040.62
 20
502.463
 30
0.000000
  70
    32
  0
VERTEX
  8
0
  5
525C
 10
1040.64
 20
502.455
 30
0.000000
  70
    32
  0
VERTEX
  8
0
  5
525D
 10
1040.65
 20
502.446
 30
0.000000
  70
    32
  0
VERTEX
  8
0
  5
525E
 10
1040.66
 20
502.438
 30
0.000000
  70
    32
  0
VERTEX
  8
0
  5
525F
 10
1040.67
 20
502.430
 30
0.000000
  70
    32
  0
VERTEX
  8
0
  5
5260
 10
1040.68
 20
502.422
 30
0.000000
  70
    32
  0
VERTEX
  8
0
  5
5261
 10
1040.69
 20
502.414
 30
0.000000
  70
    32
  0
VERTEX
  8
0
  5
5262
 10
1040.71
 20
502.406
 30
0.000000
  70
    32
  0
VERTEX
  8
0
  5
5263
 10
1040.72
 20
502.398
 30
0.000000
  70
    32
  0
VERTEX
  8
0
  5
5264
 10
1040.73
 20
502.390
 30
0.000000
  70
    32
  0
VERTEX
  8
0
  5
5265
 10
1040.74
 20
502.382
 30
0.000000
  70
    32
  0
VERTEX
  8
0
  5
5266
 10
1040.75
 20
502.374
 30
0.000000
  70
    32
  0
VERTEX
  8
0
  5
5267
 10
1040.77
 20
502.366
 30
0.000000
  70
    32
  0
VERTEX
  8
0
  5
5268
 10
1040.78
 20
502.359
 30
0.000000
  70
    32
  0
VERTEX
  8
0
  5
5269
 10
1040.79
 20
502.351
 30
0.000000
  70
    32
  0
VERTEX
  8
0
  5
526A
 10
1040.80
 20
502.344
 30
0.000000
  70
    32
  0
VERTEX
  8
0
  5
526B
 10
1040.82
 20
502.336
 30
0.000000
  70
    32
  0
VERTEX
  8
0
  5
526C
 10
1040.83
 20
502.329
 30
0.000000
  70
    32
  0
VERTEX
  8
0
  5
526D
 10
1040.84
 20
502.321
 30
0.000000
  70
    32
  0
VERTEX
  8
0
  5
526E
 10
1040.86
 20
502.314
 30
0.000000
  70
    32
  0
VERTEX
  8
0
  5
526F
 10
1040.87
 20
502.307
 30
0.000000
  70
    32
  0
VERTEX
  8
0
  5
5270
 10
1040.88
 20
502.300
 30
0.000000
  70
    32
  0
VERTEX
  8
0
  5
5271
 10
1040.89
 20
502.292
 30
0.000000
  70
    32
  0
VERTEX
  8
0
  5
5272
 10
1040.91
 20
502.285
 30
0.000000
  70
    32
  0
SEQEND
  8
0
  5
5273
  0
LINE
  5
456E
  8
0
 10
1040.0
 20
501.23780457159512
 30
0.0
 11
1040.0
 21
514.57499999999925
 31
0.0
  0
POLYLINE
  5
4570
  8
0
 66
     1
 10
0.0
 20
0.0
 30
0.0
  0
VERTEX
  5
51B5
  8
0
 10
1040.0
 20
506.4182466180302
 30
0.0
  0
VERTEX
  5
51B6
  8
0
 10
1040.1028112664981
 20
505.54438086577431
 30
0.0
  0
VERTEX
  5
51B7
  8
0
 10
1040.2569789787719
 20
505.13071527017922
 30
0.0
  0
VERTEX
  5
51B8
  8
0
 10
1040.5024752216209
 20
504.80098995055431
 30
0.0
  0
VERTEX
  5
51B9
  8
0
 10
1040.7818985356801
 20
504.64483242505833
 30
0.0
  0
VERTEX
  5
51BA
  8
0
 10
1040.925
 20
504.62127053935131
 30
0.0
  0
SEQEND
  5
51BB
  8
0
  0
LINE
  5
4572
  8
0
 10
1040.925
 20
515.49999999999932
 30
0.0
 11
1040.0
 21
514.57499999999925
 31
0.0
  0
POLYLINE
  5
4575
  8
0
 66
     1
 10
0.0
 20
0.0
 30
0.0
  0
VERTEX
  5
51BC
  8
0
 10
1040.925
 20
504.62127053935131
 30
0.0
  0
VERTEX
  5
51BD
  8
0
 10
1041.500377699922
 20
504.04958615955928
 30
0.0
  0
VERTEX
  5
51BE
  8
0
 10
1041.9764258438611
 20
503.79869267568807
 30
0.0
  0
VERTEX
  5
51BF
  8
0
 10
1042.4049999999991
 20
503.7271481306762
 30
0.0
  0
SEQEND
  5
51C0
  8
0
  0
LINE
  5
4576
  8
0
 10
1042.8168742560681
 20
503.7271481306762
 30
0.0
 11
1042.4049999999991
 21
503.7271481306762
 31
0.0
  0
LINE
  5
4578
  8
0
 10
1043.7698942479819
 20
515.49999999999932
 30
0.0
 11
1040.925
 21
515.49999999999932
 31
0.0
  0
LINE
  5
4579
  8
0
 10
1040.925
 20
515.49999999999932
 30
0.0
 11
1040.925
 21
504.62127053935131
 31
0.0
  0
POLYLINE
  5
458C
  8
0
 66
     1
 10
0.0
 20
0.0
 30
0.0
  0
VERTEX
  5
51C1
  8
0
 10
1041.8274971918561
 20
422.23906935201211
 30
0.0
  0
VERTEX
  5
51C2
  8
0
 10
1041.7674956387229
 20
422.25736891171289
 30
0.0
  0
VERTEX
  5
51C3
  8
0
 10
1041.616148615743
 20
422.45577431169062
 30
0.0
  0
VERTEX
  5
51C4
  8
0
 10
1041.47118690054
 20
422.8719958317464
 30
0.0
  0
VERTEX
  5
51C5
  8
0
 10
1041.33417276917
 20
423.50477650179857
 30
0.0
  0
VERTEX
  5
51C6
  8
0
 10
1041.2061715937309
 20
424.34550089629698
 30
0.0
  0
VERTEX
  5
51C7
  8
0
 10
1041.089568169182
 20
425.37847546580741
 30
0.0
  0
VERTEX
  5
51C8
  8
0
 10
1040.976396342164
 20
426.72009455116302
 30
0.0
  0
VERTEX
  5
51C9
  8
0
 10
1040.879764521336
 20
428.25983704426869
 30
0.0
  0
SEQEND
  5
51CA
  8
0
  0
POLYLINE
  5
458D
  8
0
 66
     1
 10
0.0
 20
0.0
 30
0.0
  0
VERTEX
  5
51CB
  8
0
 10
1043.1486034421021
 20
452.94805211438609
 30
0.0
  0
VERTEX
  5
51CC
  8
0
 10
1043.2416054426251
 20
451.58080533487322
 30
0.0
  0
VERTEX
  5
51CD
  8
0
 10
1043.3201370164199
 20
450.06048341597608
 30
0.0
  0
VERTEX
  5
51CE
  8
0
 10
1043.382682394988
 20
448.41551085115208
 30
0.0
  0
VERTEX
  5
51CF
  8
0
 10
1043.428383862901
 20
446.65953917470432
 30
0.0
  0
VERTEX
  5
51D0
  8
0
 10
1043.4570099557341
 20
444.81090729188321
 30
0.0
  0
VERTEX
  5
51D1
  8
0
 10
1043.468003854261
 20
442.90445589725522
 30
0.0
  0
VERTEX
  5
51D2
  8
0
 10
1043.461023877953
 20
440.96059895390221
 30
0.0
  0
VERTEX
  5
51D3
  8
0
 10
1043.4364235990961
 20
438.99548785768832
 30
0.0
  0
VERTEX
  5
51D4
  8
0
 10
1043.394680257654
 20
437.04608644612227
 30
0.0
  0
VERTEX
  5
51D5
  8
0
 10
1043.3004965034149
 20
434.19169290664888
 30
0.0
  0
VERTEX
  5
51D6
  8
0
 10
1043.171633487985
 20
431.49371060514352
 30
0.0
  0
VERTEX
  5
51D7
  8
0
 10
1043.067904387266
 20
429.8201998912092
 30
0.0
  0
VERTEX
  5
51D8
  8
0
 10
1042.9513401966999
 20
428.26621423894193
 30
0.0
  0
VERTEX
  5
51D9
  8
0
 10
1042.824168118485
 20
426.86065267177071
 30
0.0
  0
VERTEX
  5
51DA
  8
0
 10
1042.6870673872411
 20
425.61525376139508
 30
0.0
  0
VERTEX
  5
51DB
  8
0
 10
1042.541877442382
 20
424.54384863001059
 30
0.0
  0
VERTEX
  5
51DC
  8
0
 10
1042.3913553749969
 20
423.6663306959714
 30
0.0
  0
VERTEX
  5
51DD
  8
0
 10
1042.2364505751891
 20
422.99199458640811
 30
0.0
  0
VERTEX
  5
51DE
  8
0
 10
1042.079133117029
 20
422.52711690206058
 30
0.0
  0
VERTEX
  5
51DF
  8
0
 10
1041.922378371695
 20
422.28039168476579
 30
0.0
  0
VERTEX
  5
51E0
  8
0
 10
1041.8274971918561
 20
422.23906935201211
 30
0.0
  0
SEQEND
  5
51E1
  8
0
  0
POLYLINE
  5
458E
  8
0
 66
     1
 10
0.0
 20
0.0
 30
0.0
  0
VERTEX
  5
51E2
  8
0
 10
1040.879764521336
 20
428.25983704426869
 30
0.0
  0
VERTEX
  5
51E3
  8
0
 10
1040.4499576469559
 20
438.18205297481262
 30
0.0
  0
VERTEX
  5
51E4
  8
0
 10
1040.3741360642789
 20
441.51558979386181
 30
0.0
  0
SEQEND
  5
51E5
  8
0
  0
POLYLINE
  5
458F
  8
0
 66
     1
 10
0.0
 20
0.0
 30
0.0
  0
VERTEX
  5
51E6
  8
0
 10
1043.611410698423
 20
513.80278916638736
 30
0.0
  0
VERTEX
  5
51E7
  8
0
 10
1042.813537107583
 20
503.68482922819828
 30
0.0
  0
VERTEX
  5
51E8
  8
0
 10
1042.3056510259721
 20
493.55791371491807
 30
0.0
  0
VERTEX
  5
51E9
  8
0
 10
1042.0851797843791
 20
483.42741821546713
 30
0.0
  0
VERTEX
  5
51EA
  8
0
 10
1042.150715170462
 20
473.26415724475021
 30
0.0
  0
VERTEX
  5
51EB
  8
0
 10
1042.504477086416
 20
463.10258430944322
 30
0.0
  0
VERTEX
  5
51EC
  8
0
 10
1043.1486034421021
 20
452.94805211438609
 30
0.0
  0
SEQEND
  5
51ED
  8
0
  0
ARC
  5
4590
  8
0
 10
1831.38190077525
 20
432.36602436483042
 30
0.0
 40
792.00000000391663
 50
173.54681321743789
 51
173.9019766697231
  0
ARC
  5
4592
  8
0
 10
1831.3819007717871
 20
424.63397563478259
 30
0.0
 40
792.00000000043156
 50
182.263770462276
 51
186.453186782562
  0
LINE
  5
4593
  8
0
 10
1040.0
 20
393.34999999999923
 30
0.0
 11
1040.0
 21
441.87513389440022
 31
0.0
  0
LINE
  5
4595
  8
0
 10
1043.8633459779519
 20
516.4999999999992
 30
0.0
 11
1043.611410698423
 21
513.80278916638736
 31
0.0
  0
LINE
  5
4598
  8
0
 10
1044.399999999999
 20
335.6200000000012
 30
0.0
 11
1044.399999999999
 21
521.37999999999738
 31
0.0
  0
ARC
  5
471E
  8
0
 10
1045.1867821766079
 20
497.65924983433388
 30
0.0
 40
6.3014889792136932
 50
118.7879358105597
 51
176.0847484318719
  0
POLYLINE
  5
471F
  8
0
 66
     1
 10
0.0
 20
0.0
 30
0.0
 70
   128
  0
VERTEX
  5
51EE
  8
0
 10
1042.1521794949811
 20
503.18192580887859
 30
0.0
  0
VERTEX
  5
51EF
  8
0
 10
1042.514497902112
 20
503.39676902593652
 30
0.0
  0
VERTEX
  5
51F0
  8
0
 10
1042.805911950868
 20
503.53278860211998
 30
0.0
  0
SEQEND
  5
51F1
  8
0
  0
LINE
  5
4724
  8
0
 10
790.52788123318896
 20
499.4315085886015
 30
0.0
 11
794.56849141139639
 21
503.47211876681172
 31
0.0
  0
LINE
  5
4778
  8
0
 10
785.06548134852358
 20
507.7223355980131
 30
0.0
 11
786.27766440198604
 21
508.93451865147568
 31
0.0
  0
ARC
  5
4779
  8
0
 10
787.69187796435665
 20
507.52030508910349
 30
0.0
 40
2.0000000000000799
 50
44.999999999991182
 51
134.99999999999039
  0
LINE
  5
4796
  8
0
 10
785.06548134852267
 20
504.89390847326752
 30
0.0
 11
789.10609152673089
 21
508.93451865147631
 31
0.0
  0
ARC
  5
479B
  8
0
 10
786.47969491089646
 20
506.30812203564273
 30
0.0
 40
2.0000000000000799
 50
135.00000000001569
 51
225.00000000002109
  0
LINE
  5
47D4
  8
2
 10
1081.0
 20
418.50000000000011
 30
0.0
 11
1080.9999999999991
 21
438.50000000000011
 31
0.0
  0
LINE
  5
47D5
  8
2
 10
778.50000000000011
 20
136.0
 30
0.0
 11
798.50000000000011
 21
136.0
 31
0.0
  0
LINE
  5
47D6
  8
1
 10
788.50000000000011
 20
538.49999999999989
 30
0.0
 11
788.50000000000011
 21
318.5000000000004
 31
0.0
  0
LINE
  5
47D7
  8
1
 10
1126.9999999999991
 20
428.50000000000011
 30
0.0
 11
1030.0
 21
428.50000000000011
 31
0.0
  0
LINE
  5
47D8
  8
2
 10
798.50000000000011
 20
136.0
 30
0.0
 11
798.50000000000011
 21
100.0
 31
0.0
  0
LINE
  5
47D9
  8
2
 10
778.50000000000011
 20
136.0
 30
0.0
 11
778.50000000000011
 21
100.0
 31
0.0
  0
LINE
  5
4822
  8
1
 10
898.50000000000011
 20
428.50000000000011
 30
0.0
 11
678.50000000000011
 21
428.50000000000011
 31
0.0
  0
LINE
  5
4823
  8
1
 10
788.50000000000011
 20
187.0000000000004
 30
0.0
 11
788.50000000000011
 21
90.0
 31
0.0
  0
LINE
  5
4827
  8
1
 10
777.89339828220693
 20
516.10660171780455
 30
0.0
 11
855.6751442127179
 21
438.32485578727591
 31
0.0
  0
LINE
  5
482E
  8
1
 10
803.49999999999932
 20
505.50000000000011
 30
0.0
 11
773.4999999999992
 21
505.50000000000011
 31
0.0
  0
LINE
  5
4F8D
  8
3
 10
417.92484728002961
 20
452.25218189870731
 30
0.0
 11
416.29790070772611
 21
455.90636372927821
 31
0.0
  0
LINE
  5
4F8E
  8
0
 10
428.50000000000023
 20
451.00000000000011
 30
0.0
 11
428.50000000000023
 21
458.50000000000011
 31
0.0
  0
LINE
  5
4F8F
  8
0
 10
415.2748318234195
 20
446.70288237343658
 30
0.0
 11
410.86644243122601
 21
452.7705098312486
 31
0.0
  0
LINE
  5
4F90
  8
0
 10
407.10122838335923
 20
435.45288237343658
 30
0.0
 11
399.96830451114562
 21
437.77050983124849
 31
0.0
  0
LINE
  5
4F91
  8
0
 10
407.10122838335911
 20
421.54711762656382
 30
0.0
 11
399.96830451114562
 21
419.22949016875168
 31
0.0
  0
LINE
  5
4F92
  8
0
 10
415.2748318234195
 20
410.2971176265637
 30
0.0
 11
410.86644243122601
 21
404.22949016875168
 31
0.0
  0
LINE
  5
4F93
  8
0
 10
428.50000000000023
 20
406.00000000000011
 30
0.0
 11
428.50000000000023
 21
398.50000000000023
 31
0.0
  0
LINE
  5
4F94
  8
0
 10
441.72516817658089
 20
410.29711762656382
 30
0.0
 11
446.13355756877428
 21
404.22949016875168
 31
0.0
  0
LINE
  5
4F95
  8
0
 10
449.89877161664111
 20
421.54711762656382
 30
0.0
 11
457.03169548885478
 21
419.22949016875168
 31
0.0
  0
LINE
  5
4F96
  8
0
 10
449.89877161664123
 20
435.45288237343641
 30
0.0
 11
457.03169548885478
 21
437.77050983124849
 31
0.0
  0
LINE
  5
4F97
  8
0
 10
441.72516817658078
 20
446.7028823734363
 30
0.0
 11
446.13355756877439
 21
452.7705098312486
 31
0.0
  0
TEXT
  5
4F98
  8
0
 10
426.59523809523819
 20
445.25000000000011
 30
0.0
 40
4.0
  1
0
 72
     4
 11
428.50000000000023
 21
447.25000000000011
 31
0.0
  0
TEXT
  5
4F99
  8
0
 10
415.57426461475478
 20
441.66906864453051
 30
0.0
 40
4.0
  1
3
 50
0.0000000000000368
 72
     4
 11
417.47902651951671
 21
443.6690686445304
 31
0.0
  0
TEXT
  5
4F9A
  8
0
 10
408.6676903194662
 20
432.29406864453051
 30
0.0
 40
4.0
  1
6
 50
0.0000000000000368
 72
     4
 11
410.6676903194662
 21
434.2940686445304
 31
0.0
  0
TEXT
  5
4F9B
  8
0
 10
408.85816650994229
 20
420.70593135546977
 30
0.0
 40
4.0
  1
9
 50
0.0000000000000368
 72
     4
 11
410.66769031946598
 21
422.70593135546989
 31
0.0
  0
TEXT
  5
4F9C
  8
0
 10
414.40759794808793
 20
411.33093135547023
 30
0.0
 40
4.0
  1
12
 50
0.0000000000000368
 41
0.75
  7
07500
 72
     4
 11
417.47902651951648
 21
413.33093135547023
 31
0.0
  0
TEXT
  5
4F9D
  8
0
 10
436.44954490905548
 20
411.33093135546977
 30
0.0
 40
4.0
  1
18
 50
0.0000000000000368
 41
0.75
  7
07500
 72
     4
 11
439.52097348048409
 21
413.33093135546989
 31
0.0
  0
TEXT
  5
4F9E
  8
0
 10
443.90373825196269
 20
420.70593135546977
 30
0.0
 40
4.0
  1
21
 50
0.0000000000000368
 41
0.75
  7
07500
 72
     4
 11
446.33230968053408
 21
422.70593135546989
 31
0.0
  0
TEXT
  5
4F9F
  8
0
 10
443.40373825196281
 20
432.29406864453051
 30
0.0
 40
4.0
  1
24
 50
0.0000000000000368
 41
0.75
  7
07500
 72
     4
 11
446.33230968053431
 21
434.2940686445304
 31
0.0
  0
TEXT
  5
4FA0
  8
0
 10
436.6638306233412
 20
441.66906864453023
 30
0.0
 40
4.0
  1
27
 50
0.0000000000000368
 41
0.75
  7
07500
 72
     4
 11
439.52097348048409
 21
443.66906864453011
 31
0.0
  0
TEXT
  5
4FA1
  8
0
 10
425.42857142857167
 20
407.75000000000011
 30
0.0
 40
4.0
  1
15
 41
0.75
  7
07500
 72
     4
 11
428.50000000000023
 21
409.75000000000011
 31
0.0
  0
CIRCLE
  5
4FA2
  8
0
 10
450.00000000000023
 20
416.50000000000011
 30
0.0
 40
1.5
  0
CIRCLE
  5
4FA3
  8
0
 10
407.00000000000023
 20
416.50000000000011
 30
0.0
 40
1.5
  0
LINE
  5
4FA4
  8
0
 10
407.25000000000023
 20
418.00000000000011
 30
0.0
 11
407.25000000000023
 21
415.0209800542263
 31
0.0
  0
LINE
  5
4FA5
  8
0
 10
406.75000000000023
 20
418.00000000000011
 30
0.0
 11
406.75000000000023
 21
415.02098005422528
 31
0.0
  0
LINE
  5
4FA6
  8
0
 10
449.75000000000023
 20
418.00000000000011
 30
0.0
 11
449.75000000000023
 21
415.02098005422528
 31
0.0
  0
LINE
  5
4FA7
  8
0
 10
450.25000000000023
 20
418.00000000000011
 30
0.0
 11
450.25000000000023
 21
415.02098005422653
 31
0.0
  0
CIRCLE
  5
4FA8
  8
0
 10
428.50000000000023
 20
428.50000000000011
 30
0.0
 40
1.0
  0
POLYLINE
  5
4FA9
  8
0
 66
     1
 10
0.0
 20
0.0
 30
0.0
 70
     1
 40
1.0
 41
1.0
  0
VERTEX
  5
4FAA
  8
0
 10
429.00000000000023
 20
428.50000000000011
 30
0.0
 42
-1.0
  0
VERTEX
  5
4FAB
  8
0
 10
428.00000000000023
 20
428.50000000000011
 30
0.0
 42
-1.0
  0
SEQEND
  5
4FAC
  8
0
  0
LINE
  5
4FAD
  8
3
 10
433.1780130433998
 20
450.50832101651048
 30
0.0
 11
434.73735072453297
 21
457.84442802201443
 31
0.0
  0
LINE
  5
4FAE
  8
3
 10
437.65157446920568
 20
449.05477279695867
 30
0.0
 11
440.70209929227428
 21
455.90636372927821
 31
0.0
  0
LINE
  5
4FAF
  8
3
 10
423.8219869566006
 20
450.50832101651082
 30
0.0
 11
422.26264927546742
 21
457.84442802201443
 31
0.0
  0
LINE
  5
4FB0
  8
3
 10
409.01442841485022
 20
439.75000000000023
 30
0.0
 11
402.51923788646701
 21
443.50000000000011
 31
0.0
  0
LINE
  5
4FB1
  8
3
 10
411.7792414267588
 20
443.55543864307441
 30
0.0
 11
406.20565523567842
 21
448.57391819076588
 31
0.0
  0
LINE
  5
4FB2
  8
3
 10
406.12325735421399
 20
426.14810957647791
 30
0.0
 11
398.66434313895201
 21
425.3641461019705
 31
0.0
  0
LINE
  5
4FB3
  8
3
 10
406.12325735421399
 20
430.85189042352221
 30
0.0
 11
398.66434313895201
 21
431.63585389802972
 31
0.0
  0
LINE
  5
4FB4
  8
3
 10
411.7792414267588
 20
413.4445613569257
 30
0.0
 11
406.20565523567842
 21
408.4260818092344
 31
0.0
  0
LINE
  5
4FB5
  8
3
 10
409.01442841485022
 20
417.25000000000023
 30
0.0
 11
408.440410351114
 21
416.91859051638221
 31
0.0
  0
LINE
  5
4FB6
  8
3
 10
423.8219869566006
 20
406.49167898348958
 30
0.0
 11
422.26264927546742
 21
399.15557197798609
 31
0.0
  0
LINE
  5
4FB7
  8
3
 10
419.3484255307946
 20
407.94522720304172
 30
0.0
 11
416.29790070772611
 21
401.09363627072207
 31
0.0
  0
LINE
  5
4FB8
  8
3
 10
437.65157446920568
 20
407.9452272030415
 30
0.0
 11
440.70209929227428
 21
401.09363627072207
 31
0.0
  0
LINE
  5
4FB9
  8
3
 10
433.1780130433998
 20
406.49167898348941
 30
0.0
 11
434.73735072453297
 21
399.15557197798609
 31
0.0
  0
LINE
  5
4FBA
  8
3
 10
447.98557158515001
 20
417.25000000000023
 30
0.0
 11
448.55958964888879
 21
416.9185905163809
 31
0.0
  0
LINE
  5
4FBB
  8
3
 10
445.22075857324148
 20
413.44456135692587
 30
0.0
 11
450.79434476432198
 21
408.4260818092344
 31
0.0
  0
LINE
  5
4FBC
  8
3
 10
450.87674264578641
 20
430.85189042352221
 30
0.0
 11
458.33565686104839
 21
431.63585389802972
 31
0.0
  0
LINE
  5
4FBD
  8
3
 10
450.87674264578629
 20
426.14810957647791
 30
0.0
 11
458.33565686104839
 21
425.3641461019705
 31
0.0
  0
LINE
  5
4FBE
  8
3
 10
445.2207585732416
 20
443.55543864307441
 30
0.0
 11
450.79434476432198
 21
448.57391819076588
 31
0.0
  0
LINE
  5
4FBF
  8
3
 10
447.98557158515001
 20
439.75000000000011
 30
0.0
 11
454.48076211353327
 21
443.50000000000011
 31
0.0
  0
LINE
  5
4FC0
  8
3
 10
405.91728480347308
 20
415.4618633022526
 30
0.0
 11
402.51923788646701
 21
413.50000000000011
 31
0.0
  0
LINE
  5
4FC1
  8
3
 10
451.08271519652482
 20
415.46186330225402
 30
0.0
 11
454.48076211353327
 21
413.50000000000011
 31
0.0
  0
TEXT
  5
4FC2
  8
0
 10
425.41250000000019
 20
416.00000000000011
 30
0.0
 40
1.5
  1
CLAYTON
 41
0.65
  7
06500
 72
     1
 11
428.50000000000023
 21
416.00000000000011
 31
0.0
  0
LINE
  5
4FC3
  8
0
 10
426.44871794871909
 20
421.43589743589831
 30
0.0
 11
427.18717948718103
 21
421.43589743589831
 31
0.0
  0
LINE
  5
4FC4
  8
0
 10
432.50000000000432
 20
418.56410256410192
 30
0.0
 11
431.67948717949099
 21
418.56410256410192
 31
0.0
  0
LINE
  5
4FC5
  8
0
 10
431.3717948717985
 20
420.82051282051339
 30
0.0
 11
430.87948717949058
 21
420.82051282051339
 31
0.0
  0
ARC
  5
4FC6
  8
0
 10
425.62820512820588
 20
419.69230769230762
 30
0.0
 40
1.1282051282057219
 50
90.0
 51
270.0
  0
LINE
  5
4FC7
  8
0
 10
426.36666666666781
 20
420.08205128205151
 30
0.0
 11
426.36666666666781
 21
420.82051282051339
 31
0.0
  0
ARC
  5
4FC8
  8
0
 10
425.62820512820588
 20
419.69230769230762
 30
0.0
 40
0.389743589743795
 50
90.0
 51
140.8332892838786
  0
LINE
  5
4FC9
  8
0
 10
426.28461538461642
 20
419.44615384615372
 30
0.0
 11
426.28461538461642
 21
419.93846153846152
 31
0.0
  0
LINE
  5
4FCA
  8
0
 10
425.32603241307419
 20
419.93846153846152
 30
0.0
 11
426.28461538461642
 21
419.93846153846152
 31
0.0
  0
LINE
  5
4FCB
  8
0
 10
425.32603241307419
 20
419.44615384615372
 30
0.0
 11
426.28461538461642
 21
419.44615384615372
 31
0.0
  0
LINE
  5
4FCC
  8
0
 10
425.62820512820588
 20
420.08205128205151
 30
0.0
 11
426.36666666666781
 21
420.08205128205151
 31
0.0
  0
LINE
  5
4FCD
  8
0
 10
425.62820512820588
 20
419.30256410256379
 30
0.0
 11
426.44871794871909
 21
419.30256410256379
 31
0.0
  0
ARC
  5
4FCE
  8
0
 10
425.62820512820588
 20
419.69230769230762
 30
0.0
 40
0.389743589743795
 50
219.16671071612129
 51
270.0
  0
LINE
  5
4FCF
  8
0
 10
426.07948717948818
 20
418.56410256410192
 30
0.0
 11
425.62820512820588
 21
418.56410256410192
 31
0.0
  0
LINE
  5
4FD0
  8
0
 10
426.44871794871909
 20
419.69230769230762
 30
0.0
 11
426.44871794871909
 21
421.43589743589831
 31
0.0
  0
LINE
  5
4FD1
  8
0
 10
427.18717948718103
 20
419.69230769230762
 30
0.0
 11
427.18717948718103
 21
421.43589743589831
 31
0.0
  0
ARC
  5
4FD2
  8
0
 10
428.49848225536778
 20
419.61341319880148
 30
0.0
 40
2.0512820512831311
 50
177.79579960996469
 51
210.76639186197079
  0
ARC
  5
4FD3
  8
0
 10
428.62079540378181
 20
419.61139508458859
 30
0.0
 40
1.435897435898192
 50
176.76968023270729
 51
226.83313873999879
  0
LINE
  5
4FD4
  8
0
 10
426.36666666666781
 20
420.82051282051339
 30
0.0
 11
425.62820512820588
 21
420.82051282051339
 31
0.0
  0
LINE
  5
4FD5
  8
0
 10
429.13589743590001
 20
420.82051282051339
 30
0.0
 11
428.39743589743802
 21
420.82051282051339
 31
0.0
  0
LINE
  5
4FD6
  8
0
 10
428.76666666666898
 20
418.56410256410192
 30
0.0
 11
428.39743589743802
 21
418.56410256410192
 31
0.0
  0
ARC
  5
4FD7
  8
0
 10
428.39743589743802
 20
419.69230769230762
 30
0.0
 40
0.389743589743795
 50
219.16671071612129
 51
270.0
  0
LINE
  5
4FD8
  8
0
 10
428.39743589743802
 20
419.30256410256379
 30
0.0
 11
429.484615384618
 21
419.30256410256379
 31
0.0
  0
LINE
  5
4FD9
  8
0
 10
428.39743589743802
 20
420.08205128205151
 30
0.0
 11
429.13589743590001
 21
420.08205128205151
 31
0.0
  0
LINE
  5
4FDA
  8
0
 10
428.09526318230638
 20
419.44615384615372
 30
0.0
 11
429.05384615384872
 21
419.44615384615372
 31
0.0
  0
LINE
  5
4FDB
  8
0
 10
428.09526318230638
 20
419.93846153846152
 30
0.0
 11
429.05384615384872
 21
419.93846153846152
 31
0.0
  0
LINE
  5
4FDC
  8
0
 10
429.05384615384872
 20
419.44615384615372
 30
0.0
 11
429.05384615384872
 21
419.93846153846152
 31
0.0
  0
ARC
  5
4FDD
  8
0
 10
428.39743589743802
 20
419.69230769230762
 30
0.0
 40
0.389743589743795
 50
90.0
 51
140.8332892838786
  0
LINE
  5
4FDE
  8
0
 10
429.13589743590001
 20
420.08205128205151
 30
0.0
 11
429.13589743590001
 21
420.82051282051339
 31
0.0
  0
ARC
  5
4FDF
  8
0
 10
428.39743589743802
 20
419.69230769230762
 30
0.0
 40
1.1282051282057219
 50
90.0
 51
270.0
  0
LINE
  5
4FE0
  8
0
 10
430.38717948718272
 20
420.08205128205151
 30
0.0
 11
430.38717948718272
 21
420.82051282051339
 31
0.0
  0
LINE
  5
4FE1
  8
0
 10
429.95641025641322
 20
420.08205128205151
 30
0.0
 11
430.38717948718272
 21
420.08205128205151
 31
0.0
  0
ARC
  5
4FE2
  8
0
 10
429.95641025641322
 20
420.08205128205151
 30
0.0
 40
0.7384615384619276
 50
90.0
 51
234.90036780460721
  0
ARC
  5
4FE3
  8
0
 10
429.484615384618
 20
419.30256410256379
 30
0.0
 40
0.7384615384619276
 50
270.0
 51
54.900367804607299
  0
LINE
  5
4FE4
  8
0
 10
429.87435897436188
 20
419.97386946346478
 30
0.0
 11
429.87435897436188
 21
420.00000000000011
 31
0.0
  0
ARC
  5
4FE5
  8
0
 10
429.95641025641322
 20
420.00000000000011
 30
0.0
 40
0.0820512820513253
 50
90.0
 51
180.0
  0
ARC
  5
4FE6
  8
0
 10
429.95641025641322
 20
419.97386946346478
 30
0.0
 40
0.0820512820513253
 50
180.0
 51
234.90036780460611
  0
ARC
  5
4FE7
  8
0
 10
429.484615384618
 20
419.38461538461507
 30
0.0
 40
0.0820512820513253
 50
270.0
 51
0.0
  0
ARC
  5
4FE8
  8
0
 10
429.484615384618
 20
419.41074592115052
 30
0.0
 40
0.0820512820513253
 50
0.0
 51
54.900367804607299
  0
LINE
  5
4FE9
  8
0
 10
426.73589743589872
 20
418.56410256410192
 30
0.0
 11
427.63846153846328
 21
418.56410256410192
 31
0.0
  0
LINE
  5
4FEA
  8
0
 10
429.13589743590001
 20
419.30256410256379
 30
0.0
 11
429.13589743590001
 21
418.56410256410192
 31
0.0
  0
ARC
  5
4FEB
  8
0
 10
429.87378719999788
 20
418.94373268718027
 30
0.0
 40
0.8205128205132528
 50
154.066620056804
 51
177.8608930073394
  0
ARC
  5
4FEC
  8
0
 10
427.18660771281702
 20
418.94373268718027
 30
0.0
 40
0.8205128205132528
 50
154.066620056804
 51
177.8608930073394
  0
LINE
  5
4FED
  8
0
 10
430.38717948718272
 20
420.08205128205151
 30
0.0
 11
431.33076923077289
 21
420.08205128205151
 31
0.0
  0
LINE
  5
4FEE
  8
0
 10
432.37692307692731
 20
419.89743589743591
 30
0.0
 11
432.37692307692731
 21
418.89230769230733
 31
0.0
  0
ARC
  5
4FEF
  8
0
 10
431.38338244061907
 20
419.8243554666758
 30
0.0
 40
0.996224746408062
 50
4.206846717150631
 51
90.666449776468227
  0
ARC
  5
4FF0
  8
0
 10
429.64928972308479
 20
420.44088269743497
 30
0.0
 40
0.8205128205132528
 50
334.06662005680403
 51
357.86089300733943
  0
ARC
  5
4FF1
  8
0
 10
430.87948717949058
 20
420.41025641025669
 30
0.0
 40
0.4102564102566264
 50
90.0
 51
180.0
  0
LINE
  5
4FF2
  8
0
 10
430.38717948718272
 20
420.82051282051339
 30
0.0
 11
429.95641006474011
 21
420.82051282051339
 31
0.0
  0
ARC
  5
4FF3
  8
0
 10
432.78577995569771
 20
418.85844953466648
 30
0.0
 40
0.4102564102566264
 50
175.26603745311081
 51
225.8460529860543
  0
ARC
  5
4FF4
  8
0
 10
431.1461538461574
 20
419.40512820512799
 30
0.0
 40
0.8410256410260839
 50
140.64330107273949
 51
303.57748737918729
  0
LINE
  5
4FF5
  8
0
 10
430.49586184680749
 20
419.93846153846152
 30
0.0
 11
431.64253711084638
 21
419.93846153846152
 31
0.0
  0
LINE
  5
4FF6
  8
0
 10
431.13295075362419
 20
419.44615384615372
 30
0.0
 11
431.67340088387039
 21
419.44615384615372
 31
0.0
  0
LINE
  5
4FF7
  8
0
 10
429.484615384618
 20
418.56410256410192
 30
0.0
 11
429.13589743590001
 21
418.56410256410192
 31
0.0
  0
LINE
  5
4FF8
  8
0
 10
429.56666666666939
 20
419.41074592115052
 30
0.0
 11
429.56666666666939
 21
419.38461538461507
 31
0.0
  0
ARC
  5
4FF9
  8
0
 10
432.00765674807002
 20
418.81030381595758
 30
0.0
 40
0.4102564102566264
 50
194.95437033353079
 51
216.87817385345571
  0
ARC
  5
4FFA
  8
0
 10
431.33076923077289
 20
419.67179487179482
 30
0.0
 40
0.4102564102566264
 50
235.4396782200094
 51
326.6329870307635
  0
ARC
  5
4FFB
  8
0
 10
431.33076923077289
 20
419.67179487179482
 30
0.0
 40
0.4102564102566264
 50
40.541601873496262
 51
90.0
  0
ARC
  5
4FFC
  8
0
 10
431.13295075362419
 20
419.38461538461507
 30
0.0
 40
0.061538461538494
 50
90.0
 51
235.4396782200094
  0
LINE
  5
4FFD
  8
0
 10
426.36666666666781
 20
418.97435897435838
 30
0.0
 11
426.36666666666781
 21
418.85128205128149
 31
0.0
  0
ARC
  5
4FFE
  8
0
 10
426.07948717948818
 20
418.85128205128149
 30
0.0
 40
0.2871794871796385
 50
270.0
 51
0.0
  0
LINE
  5
4FFF
  8
0
 10
429.05384615384872
 20
418.97435897435838
 30
0.0
 11
429.05384615384872
 21
418.85128205128149
 31
0.0
  0
ARC
  5
5000
  8
0
 10
428.76666666666898
 20
418.85128205128149
 30
0.0
 40
0.2871794871796385
 50
270.0
 51
0.0
  0
CIRCLE
  5
5001
  8
0
 10
428.50000000000023
 20
428.50000000000011
 30
0.0
 40
30.0
  0
CIRCLE
  5
5002
  8
0
 10
428.50000000000023
 20
428.50000000000011
 30
0.0
 40
34.25
  0
LINE
  5
5003
  8
0
 10
432.30295581346581
 20
425.37678539168928
 30
0.0
 11
432.62812012935672
 21
425.31274033100527
 31
0.0
  0
LINE
  5
5004
  8
0
 10
432.68278103240829
 20
425.91336254041983
 30
0.0
 11
433.13566257846441
 21
430.8896929632545
 31
0.0
  0
LINE
  5
5005
  8
0
 10
425.20613936253449
 20
430.78693166981702
 30
0.0
 11
406.09260103114087
 21
430.53923305445011
 31
0.0
  0
LINE
  5
5006
  8
0
 10
426.98974706206059
 20
425.52885588509531
 30
0.0
 11
431.71854683885812
 21
427.634253192806
 31
0.0
  0
LINE
  5
5007
  8
0
 10
426.92522820240202
 20
425.71905749373309
 30
0.0
 11
431.62037104128632
 21
427.80946976722521
 31
0.0
  0
LINE
  5
5008
  8
0
 10
425.69936986888899
 20
429.33288805785151
 30
0.0
 11
429.7550308874234
 21
431.13858468119071
 31
0.0
  0
LINE
  5
5009
  8
0
 10
425.63485100923032
 20
429.52308966648923
 30
0.0
 11
429.65685508985172
 21
431.31380125560992
 31
0.0
  0
LINE
  5
500A
  8
0
 10
432.62812012935672
 20
425.31274033100527
 30
0.0
 11
432.64792655042248
 21
425.53037625937452
 31
0.0
  0
LINE
  5
500B
  8
0
 10
406.09260103114087
 20
430.53923305445011
 30
0.0
 11
426.66462233234301
 21
426.48732364053109
 31
0.0
  0
LINE
  5
500C
  8
0
 10
433.13566257846418
 20
430.8896929632545
 30
0.0
 11
429.91785302668768
 21
430.84799231334512
 31
0.0
  0
LINE
  5
500D
  8
0
 10
427.73171394813443
 20
423.34153738576038
 30
0.0
 11
432.84756851093312
 21
425.6192625869848
 31
0.0
  0
POLYLINE
  5
500E
  8
0
 66
     1
 10
0.0
 20
0.0
 30
0.0
 70
     1
 40
1.0
 41
1.0
  0
VERTEX
  5
500F
  8
0
 10
429.00000000000023
 20
428.50000000000011
 30
0.0
 42
-1.0
  0
VERTEX
  5
5010
  8
0
 10
428.00000000000023
 20
428.50000000000011
 30
0.0
 42
-1.0
  0
SEQEND
  5
5011
  8
0
  0
CIRCLE
  5
5012
  8
0
 10
428.50000000000023
 20
428.50000000000011
 30
0.0
 40
1.0
  0
LINE
  5
5013
  8
0
 10
417.92484728002938
 20
452.2521818987077
 30
0.0
 11
427.73171394813443
 21
423.34153738576038
 31
0.0
  0
LINE
  5
5014
  8
0
 10
432.84756851093312
 20
425.6192625869848
 30
0.0
 11
417.92484728002938
 21
452.2521818987077
 31
0.0
  0
SOLID
  5
5015
  8
0
 10
433.13566257846429
 20
430.8896929632545
 30
0.0
 11
432.68278103240829
 21
425.91336254041983
 31
0.0
 12
429.91785302668768
 22
430.84799231334512
 32
0.0
 13
429.91785302668768
 23
430.84799231334512
 33
0.0
  0
SOLID
  5
5016
  8
0
 10
432.64792655042248
 20
425.53037625937452
 30
0.0
 11
432.62812012935672
 21
425.31274033100527
 31
0.0
 12
432.30295581346581
 22
425.37678539168928
 32
0.0
 13
432.30295581346581
 23
425.37678539168928
 33
0.0
  0
SOLID
  5
5017
  8
0
 10
425.20613936253449
 20
430.78693166981702
 30
0.0
 11
426.66462233234279
 21
426.48732364053109
 31
0.0
 12
406.09260103114087
 22
430.53923305445011
 32
0.0
 13
406.09260103114087
 23
430.53923305445011
 33
0.0
  0
LINE
  5
5018
  8
3
 10
777.92484728002955
 20
452.25218189870731
 30
0.0
 11
776.29790070772606
 21
455.90636372927821
 31
0.0
  0
LINE
  5
5019
  8
0
 10
788.50000000000011
 20
451.00000000000011
 30
0.0
 11
788.50000000000011
 21
458.50000000000011
 31
0.0
  0
LINE
  5
501A
  8
0
 10
775.27483182341939
 20
446.70288237343658
 30
0.0
 11
770.86644243122601
 21
452.7705098312486
 31
0.0
  0
LINE
  5
501B
  8
0
 10
767.10122838335906
 20
435.45288237343658
 30
0.0
 11
759.96830451114545
 21
437.77050983124849
 31
0.0
  0
LINE
  5
501C
  8
0
 10
767.10122838335894
 20
421.54711762656382
 30
0.0
 11
759.96830451114545
 21
419.22949016875168
 31
0.0
  0
LINE
  5
501D
  8
0
 10
775.27483182341939
 20
410.2971176265637
 30
0.0
 11
770.86644243122578
 21
404.22949016875168
 31
0.0
  0
LINE
  5
501E
  8
0
 10
788.50000000000011
 20
406.00000000000011
 30
0.0
 11
788.50000000000011
 21
398.50000000000023
 31
0.0
  0
LINE
  5
501F
  8
0
 10
801.72516817658084
 20
410.29711762656382
 30
0.0
 11
806.13355756877422
 21
404.22949016875168
 31
0.0
  0
LINE
  5
5020
  8
0
 10
809.89877161664094
 20
421.54711762656382
 30
0.0
 11
817.03169548885478
 21
419.22949016875168
 31
0.0
  0
LINE
  5
5021
  8
0
 10
809.89877161664106
 20
435.45288237343641
 30
0.0
 11
817.03169548885478
 21
437.77050983124849
 31
0.0
  0
LINE
  5
5022
  8
0
 10
801.72516817658084
 20
446.7028823734363
 30
0.0
 11
806.13355756877445
 21
452.7705098312486
 31
0.0
  0
TEXT
  5
5023
  8
0
 10
786.59523809523807
 20
445.25000000000011
 30
0.0
 40
4.0
  1
0
 72
     4
 11
788.50000000000011
 21
447.25000000000011
 31
0.0
  0
TEXT
  5
5024
  8
0
 10
775.57426461475472
 20
441.66906864453051
 30
0.0
 40
4.0
  1
3
 50
0.0000000000000368
 72
     4
 11
777.47902651951665
 21
443.6690686445304
 31
0.0
  0
TEXT
  5
5025
  8
0
 10
768.66769031946615
 20
432.29406864453051
 30
0.0
 40
4.0
  1
6
 50
0.0000000000000368
 72
     4
 11
770.66769031946615
 21
434.2940686445304
 31
0.0
  0
TEXT
  5
5026
  8
0
 10
768.85816650994195
 20
420.70593135546977
 30
0.0
 40
4.0
  1
9
 50
0.0000000000000368
 72
     4
 11
770.66769031946592
 21
422.70593135546989
 31
0.0
  0
TEXT
  5
5027
  8
0
 10
774.40759794808787
 20
411.33093135547023
 30
0.0
 40
4.0
  1
12
 50
0.0000000000000368
 41
0.75
  7
07500
 72
     4
 11
777.47902651951642
 21
413.33093135547023
 31
0.0
  0
TEXT
  5
5028
  8
0
 10
796.44954490905525
 20
411.33093135546977
 30
0.0
 40
4.0
  1
18
 50
0.0000000000000368
 41
0.75
  7
07500
 72
     4
 11
799.52097348048392
 21
413.33093135546989
 31
0.0
  0
TEXT
  5
5029
  8
0
 10
803.90373825196275
 20
420.70593135546977
 30
0.0
 40
4.0
  1
21
 50
0.0000000000000368
 41
0.75
  7
07500
 72
     4
 11
806.33230968053408
 21
422.70593135546989
 31
0.0
  0
TEXT
  5
502A
  8
0
 10
803.40373825196275
 20
432.29406864453051
 30
0.0
 40
4.0
  1
24
 50
0.0000000000000368
 41
0.75
  7
07500
 72
     4
 11
806.33230968053419
 21
434.2940686445304
 31
0.0
  0
TEXT
  5
502B
  8
0
 10
796.66383062334114
 20
441.66906864453023
 30
0.0
 40
4.0
  1
27
 50
0.0000000000000368
 41
0.75
  7
07500
 72
     4
 11
799.52097348048403
 21
443.66906864453011
 31
0.0
  0
TEXT
  5
502C
  8
0
 10
785.42857142857144
 20
407.75000000000011
 30
0.0
 40
4.0
  1
15
 41
0.75
  7
07500
 72
     4
 11
788.50000000000011
 21
409.75000000000011
 31
0.0
  0
CIRCLE
  5
502D
  8
0
 10
810.00000000000011
 20
416.50000000000011
 30
0.0
 40
1.5
  0
CIRCLE
  5
502E
  8
0
 10
767.00000000000011
 20
416.50000000000011
 30
0.0
 40
1.5
  0
LINE
  5
502F
  8
0
 10
767.25000000000011
 20
418.00000000000011
 30
0.0
 11
767.25000000000011
 21
415.0209800542263
 31
0.0
  0
LINE
  5
5030
  8
0
 10
766.75000000000011
 20
418.00000000000011
 30
0.0
 11
766.75000000000011
 21
415.02098005422528
 31
0.0
  0
LINE
  5
5031
  8
0
 10
809.75000000000011
 20
418.00000000000011
 30
0.0
 11
809.75000000000011
 21
415.02098005422528
 31
0.0
  0
LINE
  5
5032
  8
0
 10
810.25
 20
418.00000000000011
 30
0.0
 11
810.25
 21
415.02098005422653
 31
0.0
  0
CIRCLE
  5
5033
  8
0
 10
788.50000000000011
 20
428.50000000000011
 30
0.0
 40
1.0
  0
POLYLINE
  5
5034
  8
0
 66
     1
 10
0.0
 20
0.0
 30
0.0
 70
     1
 40
1.0
 41
1.0
  0
VERTEX
  5
5035
  8
0
 10
789.00000000000011
 20
428.50000000000011
 30
0.0
 42
-1.0
  0
VERTEX
  5
5036
  8
0
 10
788.00000000000011
 20
428.50000000000011
 30
0.0
 42
-1.0
  0
SEQEND
  5
5037
  8
0
  0
LINE
  5
5038
  8
3
 10
793.17801304339957
 20
450.50832101651048
 30
0.0
 11
794.73735072453292
 21
457.84442802201443
 31
0.0
  0
LINE
  5
5039
  8
3
 10
797.65157446920546
 20
449.05477279695867
 30
0.0
 11
800.70209929227417
 21
455.90636372927821
 31
0.0
  0
LINE
  5
503A
  8
3
 10
783.82198695660054
 20
450.50832101651082
 30
0.0
 11
782.26264927546731
 21
457.84442802201443
 31
0.0
  0
LINE
  5
503B
  8
3
 10
769.01442841485016
 20
439.75000000000023
 30
0.0
 11
762.51923788646695
 21
443.50000000000011
 31
0.0
  0
LINE
  5
503C
  8
3
 10
771.77924142675874
 20
443.55543864307441
 30
0.0
 11
766.20565523567825
 21
448.57391819076588
 31
0.0
  0
LINE
  5
503D
  8
3
 10
766.12325735421393
 20
426.14810957647791
 30
0.0
 11
758.66434313895184
 21
425.3641461019705
 31
0.0
  0
LINE
  5
503E
  8
3
 10
766.12325735421393
 20
430.85189042352221
 30
0.0
 11
758.66434313895184
 21
431.63585389802972
 31
0.0
  0
LINE
  5
503F
  8
3
 10
771.77924142675874
 20
413.4445613569257
 30
0.0
 11
766.20565523567825
 21
408.4260818092344
 31
0.0
  0
LINE
  5
5040
  8
3
 10
769.01442841485016
 20
417.25000000000023
 30
0.0
 11
768.44041035111388
 21
416.91859051638221
 31
0.0
  0
LINE
  5
5041
  8
3
 10
783.82198695660054
 20
406.49167898348958
 30
0.0
 11
782.26264927546731
 21
399.15557197798609
 31
0.0
  0
LINE
  5
5042
  8
3
 10
779.34842553079454
 20
407.94522720304172
 30
0.0
 11
776.29790070772606
 21
401.09363627072207
 31
0.0
  0
LINE
  5
5043
  8
3
 10
797.65157446920568
 20
407.9452272030415
 30
0.0
 11
800.70209929227417
 21
401.09363627072207
 31
0.0
  0
LINE
  5
5044
  8
3
 10
793.17801304339957
 20
406.49167898348941
 30
0.0
 11
794.73735072453292
 21
399.15557197798609
 31
0.0
  0
LINE
  5
5045
  8
3
 10
807.98557158514996
 20
417.25000000000023
 30
0.0
 11
808.55958964888885
 21
416.9185905163809
 31
0.0
  0
LINE
  5
5046
  8
3
 10
805.22075857324137
 20
413.44456135692587
 30
0.0
 11
810.79434476432186
 21
408.4260818092344
 31
0.0
  0
LINE
  5
5047
  8
3
 10
810.87674264578629
 20
430.85189042352221
 30
0.0
 11
818.33565686104839
 21
431.63585389802972
 31
0.0
  0
LINE
  5
5048
  8
3
 10
810.87674264578607
 20
426.14810957647791
 30
0.0
 11
818.33565686104839
 21
425.3641461019705
 31
0.0
  0
LINE
  5
5049
  8
3
 10
805.2207585732416
 20
443.55543864307441
 30
0.0
 11
810.79434476432186
 21
448.57391819076588
 31
0.0
  0
LINE
  5
504A
  8
3
 10
807.98557158514996
 20
439.75000000000011
 30
0.0
 11
814.48076211353327
 21
443.50000000000011
 31
0.0
  0
LINE
  5
504B
  8
3
 10
765.91728480347285
 20
415.4618633022526
 30
0.0
 11
762.51923788646695
 21
413.50000000000011
 31
0.0
  0
LINE
  5
504C
  8
3
 10
811.08271519652465
 20
415.46186330225402
 30
0.0
 11
814.48076211353327
 21
413.50000000000011
 31
0.0
  0
TEXT
  5
504D
  8
0
 10
785.41250000000014
 20
416.00000000000011
 30
0.0
 40
1.5
  1
CLAYTON
 41
0.65
  7
06500
 72
     1
 11
788.50000000000011
 21
416.00000000000011
 31
0.0
  0
LINE
  5
504E
  8
0
 10
786.44871794871904
 20
421.43589743589831
 30
0.0
 11
787.18717948718086
 21
421.43589743589831
 31
0.0
  0
LINE
  5
504F
  8
0
 10
792.50000000000421
 20
418.56410256410192
 30
0.0
 11
791.67948717949093
 21
418.56410256410192
 31
0.0
  0
LINE
  5
5050
  8
0
 10
791.37179487179844
 20
420.82051282051339
 30
0.0
 11
790.87948717949052
 21
420.82051282051339
 31
0.0
  0
ARC
  5
5051
  8
0
 10
785.62820512820565
 20
419.69230769230762
 30
0.0
 40
1.1282051282057219
 50
90.0
 51
270.0
  0
LINE
  5
5052
  8
0
 10
786.36666666666758
 20
420.08205128205151
 30
0.0
 11
786.36666666666758
 21
420.82051282051339
 31
0.0
  0
ARC
  5
5053
  8
0
 10
785.62820512820565
 20
419.69230769230762
 30
0.0
 40
0.389743589743795
 50
90.0
 51
140.8332892838794
  0
LINE
  5
5054
  8
0
 10
786.28461538461625
 20
419.44615384615372
 30
0.0
 11
786.28461538461625
 21
419.93846153846152
 31
0.0
  0
LINE
  5
5055
  8
0
 10
785.32603241307413
 20
419.93846153846152
 30
0.0
 11
786.28461538461625
 21
419.93846153846152
 31
0.0
  0
LINE
  5
5056
  8
0
 10
785.32603241307413
 20
419.44615384615372
 30
0.0
 11
786.28461538461625
 21
419.44615384615372
 31
0.0
  0
LINE
  5
5057
  8
0
 10
785.62820512820565
 20
420.08205128205151
 30
0.0
 11
786.36666666666758
 21
420.08205128205151
 31
0.0
  0
LINE
  5
5058
  8
0
 10
785.62820512820565
 20
419.30256410256379
 30
0.0
 11
786.44871794871904
 21
419.30256410256379
 31
0.0
  0
ARC
  5
5059
  8
0
 10
785.62820512820565
 20
419.69230769230762
 30
0.0
 40
0.389743589743795
 50
219.1667107161206
 51
270.0
  0
LINE
  5
505A
  8
0
 10
786.07948717948807
 20
418.56410256410192
 30
0.0
 11
785.62820512820565
 21
418.56410256410192
 31
0.0
  0
LINE
  5
505B
  8
0
 10
786.44871794871904
 20
419.69230769230762
 30
0.0
 11
786.44871794871904
 21
421.43589743589831
 31
0.0
  0
LINE
  5
505C
  8
0
 10
787.18717948718086
 20
419.69230769230762
 30
0.0
 11
787.18717948718086
 21
421.43589743589831
 31
0.0
  0
ARC
  5
505D
  8
0
 10
788.49848225536755
 20
419.61341319880148
 30
0.0
 40
2.0512820512831311
 50
177.79579960996469
 51
210.76639186197119
  0
ARC
  5
505E
  8
0
 10
788.6207954037817
 20
419.61139508458859
 30
0.0
 40
1.435897435898192
 50
176.7696802327072
 51
226.8331387399999
  0
LINE
  5
505F
  8
0
 10
786.36666666666758
 20
420.82051282051339
 30
0.0
 11
785.62820512820565
 21
420.82051282051339
 31
0.0
  0
LINE
  5
5060
  8
0
 10
789.13589743589989
 20
420.82051282051339
 30
0.0
 11
788.39743589743784
 21
420.82051282051339
 31
0.0
  0
LINE
  5
5061
  8
0
 10
788.76666666666893
 20
418.56410256410192
 30
0.0
 11
788.39743589743784
 21
418.56410256410192
 31
0.0
  0
ARC
  5
5062
  8
0
 10
788.39743589743784
 20
419.69230769230762
 30
0.0
 40
0.389743589743795
 50
219.1667107161206
 51
270.0
  0
LINE
  5
5063
  8
0
 10
788.39743589743784
 20
419.30256410256379
 30
0.0
 11
789.484615384618
 21
419.30256410256379
 31
0.0
  0
LINE
  5
5064
  8
0
 10
788.39743589743784
 20
420.08205128205151
 30
0.0
 11
789.13589743589989
 21
420.08205128205151
 31
0.0
  0
LINE
  5
5065
  8
0
 10
788.09526318230633
 20
419.44615384615372
 30
0.0
 11
789.05384615384855
 21
419.44615384615372
 31
0.0
  0
LINE
  5
5066
  8
0
 10
788.09526318230633
 20
419.93846153846152
 30
0.0
 11
789.05384615384855
 21
419.93846153846152
 31
0.0
  0
LINE
  5
5067
  8
0
 10
789.05384615384855
 20
419.44615384615372
 30
0.0
 11
789.05384615384855
 21
419.93846153846152
 31
0.0
  0
ARC
  5
5068
  8
0
 10
788.39743589743784
 20
419.69230769230762
 30
0.0
 40
0.389743589743795
 50
90.0
 51
140.8332892838794
  0
LINE
  5
5069
  8
0
 10
789.13589743589989
 20
420.08205128205151
 30
0.0
 11
789.13589743589989
 21
420.82051282051339
 31
0.0
  0
ARC
  5
506A
  8
0
 10
788.39743589743784
 20
419.69230769230762
 30
0.0
 40
1.1282051282057219
 50
90.0
 51
270.0
  0
LINE
  5
506B
  8
0
 10
790.38717948718261
 20
420.08205128205151
 30
0.0
 11
790.38717948718261
 21
420.82051282051339
 31
0.0
  0
LINE
  5
506C
  8
0
 10
789.95641025641316
 20
420.08205128205151
 30
0.0
 11
790.38717948718261
 21
420.08205128205151
 31
0.0
  0
ARC
  5
506D
  8
0
 10
789.95641025641316
 20
420.08205128205151
 30
0.0
 40
0.7384615384619276
 50
90.0
 51
234.9003678046071
  0
ARC
  5
506E
  8
0
 10
789.484615384618
 20
419.30256410256379
 30
0.0
 40
0.7384615384619276
 50
270.0
 51
54.900367804607093
  0
LINE
  5
506F
  8
0
 10
789.87435897436183
 20
419.97386946346478
 30
0.0
 11
789.87435897436183
 21
420.00000000000011
 31
0.0
  0
ARC
  5
5070
  8
0
 10
789.95641025641316
 20
420.00000000000011
 30
0.0
 40
0.0820512820513253
 50
90.0
 51
180.0
  0
ARC
  5
5071
  8
0
 10
789.95641025641316
 20
419.97386946346478
 30
0.0
 40
0.0820512820513253
 50
180.0
 51
234.9003678046071
  0
ARC
  5
5072
  8
0
 10
789.484615384618
 20
419.38461538461507
 30
0.0
 40
0.0820512820513253
 50
270.0
 51
0.0
  0
ARC
  5
5073
  8
0
 10
789.484615384618
 20
419.41074592115052
 30
0.0
 40
0.0820512820513253
 50
0.0
 51
54.900367804607093
  0
LINE
  5
5074
  8
0
 10
786.73589743589855
 20
418.56410256410192
 30
0.0
 11
787.63846153846305
 21
418.56410256410192
 31
0.0
  0
LINE
  5
5075
  8
0
 10
789.13589743589989
 20
419.30256410256379
 30
0.0
 11
789.13589743589989
 21
418.56410256410192
 31
0.0
  0
ARC
  5
5076
  8
0
 10
789.87378719999776
 20
418.94373268718027
 30
0.0
 40
0.8205128205132528
 50
154.06662005680411
 51
177.86089300733951
  0
ARC
  5
5077
  8
0
 10
787.18660771281691
 20
418.94373268718027
 30
0.0
 40
0.8205128205132528
 50
154.06662005680411
 51
177.86089300733951
  0
LINE
  5
5078
  8
0
 10
790.38717948718261
 20
420.08205128205151
 30
0.0
 11
791.33076923077283
 21
420.08205128205151
 31
0.0
  0
LINE
  5
5079
  8
0
 10
792.37692307692726
 20
419.89743589743591
 30
0.0
 11
792.37692307692726
 21
418.89230769230733
 31
0.0
  0
ARC
  5
507A
  8
0
 10
791.38338244061902
 20
419.8243554666758
 30
0.0
 40
0.996224746408062
 50
4.206846717150639
 51
90.666449776468227
  0
ARC
  5
507B
  8
0
 10
789.64928972308473
 20
420.44088269743497
 30
0.0
 40
0.8205128205132528
 50
334.06662005680408
 51
357.86089300733948
  0
ARC
  5
507C
  8
0
 10
790.87948717949052
 20
420.41025641025669
 30
0.0
 40
0.4102564102566264
 50
90.0
 51
180.0
  0
LINE
  5
507D
  8
0
 10
790.38717948718261
 20
420.82051282051339
 30
0.0
 11
789.95641006474011
 21
420.82051282051339
 31
0.0
  0
ARC
  5
507E
  8
0
 10
792.78577995569765
 20
418.85844953466648
 30
0.0
 40
0.4102564102566264
 50
175.2660374531107
 51
225.84605298605339
  0
ARC
  5
507F
  8
0
 10
791.1461538461574
 20
419.40512820512799
 30
0.0
 40
0.8410256410260839
 50
140.64330107274029
 51
303.57748737918718
  0
LINE
  5
5080
  8
0
 10
790.49586184680743
 20
419.93846153846152
 30
0.0
 11
791.64253711084632
 21
419.93846153846152
 31
0.0
  0
LINE
  5
5081
  8
0
 10
791.13295075362407
 20
419.44615384615372
 30
0.0
 11
791.67340088387027
 21
419.44615384615372
 31
0.0
  0
LINE
  5
5082
  8
0
 10
789.484615384618
 20
418.56410256410192
 30
0.0
 11
789.13589743589989
 21
418.56410256410192
 31
0.0
  0
LINE
  5
5083
  8
0
 10
789.56666666666933
 20
419.41074592115052
 30
0.0
 11
789.56666666666933
 21
419.38461538461507
 31
0.0
  0
ARC
  5
5084
  8
0
 10
792.00765674806985
 20
418.81030381595758
 30
0.0
 40
0.4102564102566264
 50
194.95437033353079
 51
216.87817385345619
  0
ARC
  5
5085
  8
0
 10
791.33076923077283
 20
419.67179487179482
 30
0.0
 40
0.4102564102566264
 50
235.43967822000999
 51
326.63298703076282
  0
ARC
  5
5086
  8
0
 10
791.33076923077283
 20
419.67179487179482
 30
0.0
 40
0.4102564102566264
 50
40.541601873496887
 51
90.0
  0
ARC
  5
5087
  8
0
 10
791.13295075362407
 20
419.38461538461507
 30
0.0
 40
0.061538461538494
 50
90.0
 51
235.43967822000999
  0
LINE
  5
5088
  8
0
 10
786.36666666666758
 20
418.97435897435838
 30
0.0
 11
786.36666666666758
 21
418.85128205128149
 31
0.0
  0
ARC
  5
5089
  8
0
 10
786.07948717948807
 20
418.85128205128149
 30
0.0
 40
0.2871794871796385
 50
270.0
 51
0.0
  0
LINE
  5
508A
  8
0
 10
789.05384615384855
 20
418.97435897435838
 30
0.0
 11
789.05384615384855
 21
418.85128205128149
 31
0.0
  0
ARC
  5
508B
  8
0
 10
788.76666666666893
 20
418.85128205128149
 30
0.0
 40
0.2871794871796385
 50
270.0
 51
0.0
  0
CIRCLE
  5
508C
  8
0
 10
788.50000000000011
 20
428.50000000000011
 30
0.0
 40
30.0
  0
CIRCLE
  5
508D
  8
0
 10
788.50000000000011
 20
428.50000000000011
 30
0.0
 40
34.25
  0
LINE
  5
508E
  8
0
 10
792.3029558134657
 20
425.37678539168928
 30
0.0
 11
792.6281201293566
 21
425.31274033100527
 31
0.0
  0
LINE
  5
508F
  8
0
 10
792.68278103240823
 20
425.91336254041983
 30
0.0
 11
793.13566257846423
 21
430.8896929632545
 31
0.0
  0
LINE
  5
5090
  8
0
 10
785.20613936253437
 20
430.78693166981702
 30
0.0
 11
766.09260103114082
 21
430.53923305445011
 31
0.0
  0
LINE
  5
5091
  8
0
 10
786.98974706206059
 20
425.52885588509531
 30
0.0
 11
791.71854683885795
 21
427.634253192806
 31
0.0
  0
LINE
  5
5092
  8
0
 10
786.92522820240185
 20
425.71905749373309
 30
0.0
 11
791.62037104128626
 21
427.80946976722521
 31
0.0
  0
LINE
  5
5093
  8
0
 10
785.69936986888888
 20
429.33288805785151
 30
0.0
 11
789.75503088742335
 21
431.13858468119071
 31
0.0
  0
LINE
  5
5094
  8
0
 10
785.63485100923026
 20
429.52308966648923
 30
0.0
 11
789.65685508985155
 21
431.31380125560992
 31
0.0
  0
LINE
  5
5095
  8
0
 10
792.6281201293566
 20
425.31274033100527
 30
0.0
 11
792.64792655042243
 21
425.53037625937452
 31
0.0
  0
LINE
  5
5096
  8
0
 10
766.09260103114082
 20
430.53923305445011
 30
0.0
 11
786.6646223323429
 21
426.48732364053109
 31
0.0
  0
LINE
  5
5097
  8
0
 10
793.13566257846412
 20
430.8896929632545
 30
0.0
 11
789.91785302668745
 21
430.84799231334512
 31
0.0
  0
LINE
  5
5098
  8
0
 10
787.73171394813426
 20
423.34153738576038
 30
0.0
 11
792.84756851093277
 21
425.6192625869848
 31
0.0
  0
POLYLINE
  5
5099
  8
0
 66
     1
 10
0.0
 20
0.0
 30
0.0
 70
     1
 40
1.0
 41
1.0
  0
VERTEX
  5
509A
  8
0
 10
789.00000000000011
 20
428.50000000000011
 30
0.0
 42
-1.0
  0
VERTEX
  5
509B
  8
0
 10
788.00000000000011
 20
428.50000000000011
 30
0.0
 42
-1.0
  0
SEQEND
  5
509C
  8
0
  0
CIRCLE
  5
509D
  8
0
 10
788.50000000000011
 20
428.50000000000011
 30
0.0
 40
1.0
  0
LINE
  5
509E
  8
0
 10
777.92484728002933
 20
452.2521818987077
 30
0.0
 11
787.73171394813426
 21
423.34153738576038
 31
0.0
  0
LINE
  5
509F
  8
0
 10
792.84756851093277
 20
425.6192625869848
 30
0.0
 11
777.92484728002933
 21
452.2521818987077
 31
0.0
  0
SOLID
  5
50A0
  8
0
 10
793.13566257846423
 20
430.8896929632545
 30
0.0
 11
792.68278103240823
 21
425.91336254041983
 31
0.0
 12
789.91785302668745
 22
430.84799231334512
 32
0.0
 13
789.91785302668745
 23
430.84799231334512
 33
0.0
  0
SOLID
  5
50A1
  8
0
 10
792.64792655042243
 20
425.53037625937452
 30
0.0
 11
792.6281201293566
 21
425.31274033100527
 31
0.0
 12
792.3029558134657
 22
425.37678539168928
 32
0.0
 13
792.3029558134657
 23
425.37678539168928
 33
0.0
  0
SOLID
  5
50A2
  8
0
 10
785.20613936253437
 20
430.78693166981702
 30
0.0
 11
786.66462233234279
 21
426.48732364053109
 31
0.0
 12
766.09260103114082
 22
430.53923305445011
 32
0.0
 13
766.09260103114082
 23
430.53923305445011
 33
0.0
  0
ARC
  5
50F1
  8
0
 10
-614.38190077178649
 20
432.36602436521667
 30
0.0
 40
792.00000000043156
 50
2.263770462275974
 51
6.4531867825620761
  0
ENDSEC
  0
EOF
