  0
SECTION
  2
HEADER
  9
$ACADVER
  1
AC1009
  9
$INSBASE
 10
0.0
 20
0.0
 30
0.0
  9
$EXTMIN
 10
0.0
 20
-2.960436562073669
 30
0.0
  9
$EXTMAX
 10
941.99999999999636
 20
465.99999999999778
 30
63.0
  9
$LIMMIN
 10
0.0
 20
0.0
  9
$LIMMAX
 10
750.0
 20
540.0
  9
$ORTHOMODE
 70
     1
  9
$REGENMODE
 70
     1
  9
$FILLMODE
 70
     1
  9
$QTEXTMODE
 70
     0
  9
$MIRRTEXT
 70
     0
  9
$DRAGMODE
 70
     2
  9
$LTSCALE
 40
20.0
  9
$OSMODE
 70
    37
  9
$ATTMODE
 70
     1
  9
$TEXTSIZE
 40
2.0
  9
$TRACEWID
 40
0.05
  9
$TEXTSTYLE
  7
K50
  9
$CLAYER
  8
0
  9
$CELTYPE
  6
BYLAYER
  9
$CECOLOR
 62
   256
  9
$DIMSCALE
 40
2.0
  9
$DIMASZ
 40
3.0
  9
$DIMEXO
 40
2.0
  9
$DIMDLI
 40
0.38
  9
$DIMRND
 40
0.0
  9
$DIMDLE
 40
0.0
  9
$DIMEXE
 40
2.0
  9
$DIMTP
 40
0.0
  9
$DIMTM
 40
0.0
  9
$DIMTXT
 40
3.2000000000000002
  9
$DIMCEN
 40
0.0
  9
$DIMTSZ
 40
0.0
  9
$DIMTOL
 70
     0
  9
$DIMLIM
 70
     0
  9
$DIMTIH
 70
     0
  9
$DIMTOH
 70
     0
  9
$DIMSE1
 70
     0
  9
$DIMSE2
 70
     0
  9
$DIMTAD
 70
     1
  9
$DIMZIN
 70
     8
  9
$DIMBLK
  1

  9
$DIMASO
 70
     0
  9
$DIMSHO
 70
     0
  9
$DIMPOST
  1

  9
$DIMAPOST
  1

  9
$DIMALT
 70
     0
  9
$DIMALTD
 70
     2
  9
$DIMALTF
 40
25.399999999999999
  9
$DIMLFAC
 40
1.0
  9
$DIMTOFL
 70
     1
  9
$DIMTVP
 40
1.6000000000000001
  9
$DIMTIX
 70
     0
  9
$DIMSOXD
 70
     0
  9
$DIMSAH
 70
     0
  9
$DIMBLK1
  1

  9
$DIMBLK2
  1

  9
$DIMSTYLE
  2
STANDARD
  9
$DIMCLRD
 70
     0
  9
$DIMCLRE
 70
     0
  9
$DIMCLRT
 70
     0
  9
$DIMTFAC
 40
1.0
  9
$DIMGAP
 40
0.5
  9
$LUNITS
 70
     2
  9
$LUPREC
 70
     1
  9
$SKETCHINC
 40
0.1
  9
$FILLETRAD
 40
0.6
  9
$AUNITS
 70
     0
  9
$AUPREC
 70
     1
  9
$MENU
  1
E:\r13\win\SUPPORT\ACAD
  9
$ELEVATION
 40
0.0
  9
$PELEVATION
 40
0.0
  9
$THICKNESS
 40
0.0
  9
$LIMCHECK
 70
     0
  9
$BLIPMODE
 70
     0
  9
$CHAMFERA
 40
0.0
  9
$CHAMFERB
 40
0.0
  9
$SKPOLY
 70
     0
  9
$TDCREATE
 40
2449839.7920023152
  9
$TDUPDATE
 40
2457534.4792282409
  9
$TDINDWG
 40
0.1158203935
  9
$TDUSRTIMER
 40
0.1158203935
  9
$USRTIMER
 70
     1
  9
$ANGBASE
 50
0.0
  9
$ANGDIR
 70
     0
  9
$PDMODE
 70
     0
  9
$PDSIZE
 40
0.0
  9
$PLINEWID
 40
0.0
  9
$COORDS
 70
     1
  9
$SPLFRAME
 70
     0
  9
$SPLINETYPE
 70
     6
  9
$SPLINESEGS
 70
     8
  9
$ATTDIA
 70
     0
  9
$ATTREQ
 70
     1
  9
$HANDLING
 70
     1
  9
$HANDSEED
  5
285D
  9
$SURFTAB1
 70
     6
  9
$SURFTAB2
 70
     6
  9
$SURFTYPE
 70
     6
  9
$SURFU
 70
     6
  9
$SURFV
 70
     6
  9
$UCSNAME
  2

  9
$UCSORG
 10
0.0
 20
0.0
 30
0.0
  9
$UCSXDIR
 10
1.0
 20
0.0
 30
0.0
  9
$UCSYDIR
 10
0.0
 20
1.0
 30
0.0
  9
$PUCSNAME
  2

  9
$PUCSORG
 10
0.0
 20
0.0
 30
0.0
  9
$PUCSXDIR
 10
1.0
 20
0.0
 30
0.0
  9
$PUCSYDIR
 10
0.0
 20
1.0
 30
0.0
  9
$USERI1
 70
     0
  9
$USERI2
 70
     1
  9
$USERI3
 70
     0
  9
$USERI4
 70
     0
  9
$USERI5
 70
     0
  9
$USERR1
 40
0.0
  9
$USERR2
 40
0.0
  9
$USERR3
 40
0.0
  9
$USERR4
 40
0.0
  9
$USERR5
 40
0.0
  9
$WORLDVIEW
 70
     1
  9
$SHADEDGE
 70
     3
  9
$SHADEDIF
 70
    70
  9
$TILEMODE
 70
     1
  9
$MAXACTVP
 70
    16
  9
$PLIMCHECK
 70
     0
  9
$PEXTMIN
 10
1.0000000000000000E+020
 20
1.0000000000000000E+020
 30
1.0000000000000000E+020
  9
$PEXTMAX
 10
-1.0000000000000000E+020
 20
-1.0000000000000000E+020
 30
-1.0000000000000000E+020
  9
$PLIMMIN
 10
0.0
 20
0.0
  9
$PLIMMAX
 10
12.0
 20
9.0
  9
$UNITMODE
 70
     0
  9
$VISRETAIN
 70
     0
  9
$PLINEGEN
 70
     0
  9
$PSLTSCALE
 70
     0
  0
ENDSEC
  0
SECTION
  2
TABLES
  0
TABLE
  2
VPORT
 70
     1
  0
VPORT
  2
*ACTIVE
 70
     0
 10
0.0
 20
0.0
 11
1.0
 21
1.0
 12
544.8717948717948
 22
300.0
 13
0.0
 23
0.0
 14
20.0
 24
20.0
 15
20.0
 25
20.0
 16
0.0
 26
0.0
 36
1.0
 17
0.0
 27
0.0
 37
0.0
 40
600.0
 41
1.816239316239316
 42
50.0
 43
0.0
 44
0.0
 50
0.0
 51
0.0
 71
     0
 72
   500
 73
     1
 74
     0
 75
     0
 76
     0
 77
     0
 78
     2
  0
ENDTAB
  0
TABLE
  2
LTYPE
 70
     4
  0
LTYPE
  2
CONTINUOUS
 70
     0
  3
Solid Line
 72
    65
 73
     0
 40
0.0
  0
LTYPE
  2
CENTER
 70
     0
  3
____ _ ____ _ ____ _ ____ _ ____ _ ____ _ ____
 72
    65
 73
     4
 40
2.0
 49
1.25
 49
-0.25
 49
0.25
 49
-0.25
  0
LTYPE
  2
PHANTOM2
 70
     0
  3
___ _ _ ___ _ _ ___ _ _ ___ _ _
 72
    65
 73
     6
 40
1.25
 49
0.625
 49
-0.125
 49
0.125
 49
-0.125
 49
0.125
 49
-0.125
  0
LTYPE
  2
HIDDEN
 70
     0
  3
_ _ _ _ _ _ _ _ _ _ _ _ _ _ _ _ _ _ _ _ _ _ _
 72
    65
 73
     2
 40
0.375
 49
0.25
 49
-0.125
  0
ENDTAB
  0
TABLE
  2
LAYER
 70
     5
  0
LAYER
  2
0
 70
     0
 62
     7
  6
CONTINUOUS
  0
LAYER
  2
1
 70
     0
 62
     1
  6
CENTER
  0
LAYER
  2
3
 70
     0
 62
     3
  6
CONTINUOUS
  0
LAYER
  2
2
 70
     0
 62
     2
  6
HIDDEN
  0
LAYER
  2
DEFPOINTS
 70
     0
 62
     7
  6
CONTINUOUS
  0
ENDTAB
  0
TABLE
  2
STYLE
 70
     6
  0
STYLE
  2
STANDARD
 70
     0
 40
0.0
 41
1.0
 50
0.0
 71
     0
 42
0.2
  3
romans.shx
  4

  0
STYLE
  2
06500
 70
     0
 40
0.0
 41
1.0
 50
0.0
 71
     0
 42
1.0
  3
romans.shx
  4

  0
STYLE
  2
08000
 70
     0
 40
0.0
 41
1.0
 50
0.0
 71
     0
 42
2.0
  3
romans.shx
  4

  0
STYLE
  2
K50
 70
     0
 40
0.0
 41
1.0
 50
0.0
 71
     0
 42
2.0
  3
romans.shx
  4

  0
STYLE
  2
STANDARD1
 70
     0
 40
0.0
 41
1.0
 50
0.0
 71
     0
 42
3.0
  3
txt
  4

  0
STYLE
  2
07500
 70
     0
 40
0.0
 41
1.0
 50
0.0
 71
     0
 42
3.0000000000000502
  3
romans.shx
  4

  0
ENDTAB
  0
TABLE
  2
VIEW
 70
     1
  0
VIEW
  2
ALL
 70
     0
 40
540.0
 10
441.98319327731087
 20
270.0
 41
0.0
 11
0.0
 21
0.0
 31
1.0
 12
0.0
 22
0.0
 32
0.0
 42
0.0
 43
0.0
 44
0.0
 50
0.0
 71
     0
  0
ENDTAB
  0
TABLE
  2
UCS
 70
     0
  0
ENDTAB
  0
TABLE
  2
APPID
 70
    11
  0
APPID
  2
ACAD
 70
     0
  0
APPID
  2
ACAD_MLEADERVER
 70
     0
  0
APPID
  2
ACAD_EXEMPT_FROM_CAD_STANDARDS
 70
     0
  0
APPID
  2
ACAD_NAV_VCDISPLAY
 70
     0
  0
APPID
  2
ACAD_DSTYLE_DIMJAG
 70
     0
  0
APPID
  2
ACAD_DSTYLE_DIMTALN
 70
     0
  0
APPID
  2
GENIUS_GENODEF_13
 70
     0
  0
APPID
  2
GENIUS_GENOBJ-N-FIL_13
 70
     0
  0
APPID
  2
GENIUS_GENOREF_13
 70
     0
  0
APPID
  2
ACAD_PSEXT
 70
     0
  0
APPID
  2
ACAD_DSTYLE_DIMRADIAL_EXTENSION
 70
     0
  0
ENDTAB
  0
TABLE
  2
DIMSTYLE
 70
     1
  0
DIMSTYLE
  2
STANDARD
 70
     0
  3

  4

  5

  6

  7

 40
1.0
 41
0.18
 42
0.0625
 43
0.38
 44
0.18
 45
0.0
 46
0.0
 47
0.0
 48
0.0
140
0.18
141
0.09
142
0.0
143
25.399999999999999
144
1.0
145
0.0
146
1.0
147
0.09
 71
     0
 72
     0
 73
     1
 74
     1
 75
     0
 76
     0
 77
     0
 78
     0
170
     0
171
     2
172
     0
173
     0
174
     0
175
     0
176
     0
177
     0
178
     0
  0
ENDTAB
  0
ENDSEC
  0
SECTION
  2
BLOCKS
  0
BLOCK
  8
0
  2
$MODEL_SPACE
 70
     0
 10
0.0
 20
0.0
 30
0.0
  3
$MODEL_SPACE
  1

  0
ENDBLK
  5
1C6
  8
0
  0
BLOCK
 67
     1
  8
0
  2
$PAPER_SPACE
 70
     0
 10
0.0
 20
0.0
 30
0.0
  3
$PAPER_SPACE
  1

  0
ENDBLK
  5
1C4
 67
     1
  8
0
  0
ENDSEC
  0
SECTION
  2
ENTITIES
  0
TEXT
  5
297
  8
0
 62
     3
 10
0.0
 20
0.0
 30
0.0
 40
10.0
  1
PDHF160R-1/20
  7
STANDARD1
  0
LINE
  5
632
  8
1
 10
375.99999999999909
 20
90.0
 30
63.0
 11
375.99999999999909
 21
235.99999999999989
 31
63.0
  0
LINE
  5
633
  8
0
 10
368.79999999999899
 20
181.4823085463758
 30
63.0
 11
368.79999999999899
 21
166.3600000000001
 31
63.0
  0
LINE
  5
634
  8
0
 10
383.19999999999908
 20
166.3600000000001
 30
63.0
 11
383.19999999999908
 21
181.4823085463758
 31
63.0
  0
LINE
  5
635
  8
0
 10
382.83999999999901
 20
166.0
 30
63.0
 11
383.19999999999908
 21
166.3600000000001
 31
63.0
  0
LINE
  5
636
  8
0
 10
368.79999999999899
 20
166.3600000000001
 30
63.0
 11
369.15999999999917
 21
166.0
 31
63.0
  0
LINE
  5
637
  8
0
 10
383.19999999999908
 20
166.3600000000001
 30
63.0
 11
368.79999999999899
 21
166.3600000000001
 31
63.0
  0
LINE
  5
638
  8
0
 10
366.99999999999909
 20
217.0
 30
63.0
 11
366.99999999999909
 21
184.59999999999991
 31
63.0
  0
LINE
  5
639
  8
0
 10
384.99999999999909
 20
184.59999999999991
 30
63.0
 11
384.99999999999909
 21
217.0
 31
63.0
  0
ARC
  5
63A
  8
0
 10
375.99999999999892
 20
217.0
 30
63.0
 40
8.9999999999999503
 50
0.0
 51
180.0
  0
LINE
  5
63B
  8
0
 10
384.99999999999881
 20
217.0
 30
63.0
 11
366.99999999999909
 21
217.0
 31
63.0
  0
ARC
  5
63C
  8
0
 10
370.599999999999
 20
184.59999999999991
 30
63.0
 40
3.5999999999999561
 50
180.0
 51
240.0
  0
ARC
  5
63D
  8
0
 10
381.3999999999989
 20
184.59999999999991
 30
63.0
 40
3.5999999999999508
 50
300.0
 51
0.0
  0
LINE
  5
63E
  8
0
 10
384.99999999999909
 20
184.59999999999991
 30
63.0
 11
366.99999999999909
 21
184.59999999999991
 31
63.0
  0
LINE
  5
63F
  8
0
 10
383.19999999999908
 20
181.4823085463758
 30
63.0
 11
368.79999999999899
 21
181.4823085463758
 31
63.0
  0
LINE
  5
640
  8
0
 10
362.99999999999909
 20
100.0
 30
63.0
 11
388.99999999999909
 21
100.0
 31
63.0
  0
LINE
  5
641
  8
0
 10
388.99999999999909
 20
100.0
 30
63.0
 11
388.99999999999909
 21
100.2999999999999
 31
63.0
  0
LINE
  5
642
  8
0
 10
362.99999999999909
 20
100.2999999999999
 30
63.0
 11
362.99999999999909
 21
100.0
 31
63.0
  0
LINE
  5
643
  8
0
 10
358.24999999999909
 20
100.2999999999999
 30
63.0
 11
393.74999999999909
 21
100.2999999999999
 31
63.0
  0
LINE
  5
644
  8
0
 10
393.74999999999909
 20
100.2999999999999
 30
63.0
 11
395.24999999999909
 21
101.7999999999999
 31
63.0
  0
LINE
  5
645
  8
0
 10
356.74999999999909
 20
101.7999999999999
 30
63.0
 11
358.24999999999909
 21
100.2999999999999
 31
63.0
  0
LINE
  5
646
  8
0
 10
356.74999999999909
 20
101.7999999999999
 30
63.0
 11
395.24999999999909
 21
101.7999999999999
 31
63.0
  0
LINE
  5
647
  8
0
 10
395.24999999999909
 20
101.7999999999999
 30
63.0
 11
395.24999999999909
 21
122.9999999999991
 31
63.0
  0
LINE
  5
648
  8
0
 10
356.74999999999909
 20
122.9999999999991
 30
63.0
 11
356.74999999999909
 21
101.7999999999999
 31
63.0
  0
ARC
  5
64A
  8
0
 10
397.75000000000023
 20
122.99999999999859
 30
63.0
 40
2.5000000000012572
 50
90.0
 51
180.0
  0
ARC
  5
64B
  8
0
 10
354.24999999999773
 20
122.99999999999859
 30
63.0
 40
2.5000000000012572
 50
0.0
 51
90.0
  0
LINE
  5
64C
  8
0
 10
414.49999999999898
 20
127.0
 30
63.0
 11
414.49999999999898
 21
133.0
 31
63.0
  0
LINE
  5
64D
  8
0
 10
337.49999999999909
 20
133.0
 30
63.0
 11
337.49999999999909
 21
127.0
 31
63.0
  0
LINE
  5
64E
  8
0
 10
338.99999999999909
 20
125.5
 30
63.0
 11
412.99999999999909
 21
125.5
 31
63.0
  0
LINE
  5
64F
  8
0
 10
337.49999999999909
 20
127.0
 30
63.0
 11
414.49999999999898
 21
127.0
 31
63.0
  0
LINE
  5
650
  8
0
 10
412.99999999999909
 20
125.5
 30
63.0
 11
414.49999999999898
 21
127.0
 31
63.0
  0
LINE
  5
651
  8
0
 10
337.49999999999909
 20
127.0
 30
63.0
 11
338.99999999999909
 21
125.5
 31
63.0
  0
ARC
  5
652
  8
0
 10
376.00000000058782
 20
-454.59999999386912
 30
63.0
 40
621.69999999384743
 50
83.213873033186076
 51
86.591152329626397
  0
ARC
  5
653
  8
0
 10
375.99999999942793
 20
-454.59999999406608
 30
63.0
 40
621.69999999404513
 50
93.408847670373603
 51
96.78612696681391
  0
LINE
  5
654
  8
0
 10
339.0333934475571
 20
166.0
 30
63.0
 11
412.96660655244091
 21
166.0
 31
63.0
  0
LINE
  5
655
  8
0
 10
302.53772842930613
 20
162.74446191382799
 30
63.0
 11
449.46227157069302
 21
162.74446191382799
 31
63.0
  0
ARC
  5
656
  8
0
 10
449.01325012631401
 20
158.971084150801
 30
63.0
 40
3.8000000000023531
 50
16.628741718126818
 51
83.213873033159857
  0
ARC
  5
657
  8
0
 10
302.986749873684
 20
158.971084150801
 30
63.0
 40
3.8000000000023411
 50
96.786126966840143
 51
163.37125828187311
  0
LINE
  5
658
  8
0
 10
300.00017911205208
 20
133.0
 30
63.0
 11
451.99982088767109
 21
133.0
 31
63.0
  0
ARC
  5
659
  8
0
 10
451.99982088794559
 20
137.0000000000006
 30
63.0
 40
4.0000000000006324
 50
270.0
 51
359.8756077493864
  0
ARC
  5
65A
  8
0
 10
300.00017911205259
 20
137.0000000000006
 30
63.0
 40
4.000000000000635
 50
180.1243922506136
 51
270.0
  0
ARC
  5
65D
  8
0
 10
376.00000000002137
 20
137.165000000004
 30
63.0
 40
79.999999999976652
 50
0.0
 51
16.628742928713251
  0
ARC
  5
65E
  8
0
 10
376.0000000000382
 20
137.164999999994
 30
63.0
 40
80.000000000038554
 50
163.37125707128669
 51
180.12439225060061
  0
LINE
  5
6D7
  8
1
 10
236.0
 20
438.99999999999892
 30
0.0
 11
152.74446191382799
 21
438.99999999999892
 31
0.0
  0
LINE
  5
6D9
  8
1
 10
90.0
 20
375.99999999999892
 30
0.0
 11
175.9999999999998
 21
375.99999999999892
 31
0.0
  0
LINE
  5
6DA
  8
0
 10
181.4823085463758
 20
431.79999999999887
 30
0.0
 11
166.3600000000001
 21
431.79999999999887
 31
0.0
  0
LINE
  5
6DB
  8
0
 10
166.3600000000001
 20
446.19999999999891
 30
0.0
 11
181.4823085463758
 21
446.19999999999891
 31
0.0
  0
LINE
  5
6DC
  8
0
 10
166.0
 20
446.29999999999899
 30
0.0
 11
166.0
 21
431.69999999999891
 31
0.0
  0
LINE
  5
6DD
  8
0
 10
166.3600000000001
 20
446.19999999999891
 30
0.0
 11
166.3600000000001
 21
431.79999999999887
 31
0.0
  0
LINE
  5
6DE
  8
0
 10
166.0
 20
445.83999999999889
 30
0.0
 11
166.3600000000001
 21
446.19999999999891
 31
0.0
  0
LINE
  5
6DF
  8
0
 10
166.3600000000001
 20
431.79999999999887
 30
0.0
 11
166.0
 21
432.15999999999877
 31
0.0
  0
LINE
  5
6E0
  8
0
 10
181.4823085463758
 20
446.19999999999891
 30
0.0
 11
181.4823085463758
 21
431.79999999999887
 31
0.0
  0
ARC
  5
6E1
  8
0
 10
184.59999999999991
 20
433.59999999999877
 30
0.0
 40
3.5999999999999091
 50
209.99999999999241
 51
270.0
  0
ARC
  5
6E2
  8
0
 10
184.59999999999991
 20
444.3999999999989
 30
0.0
 40
3.5999999999999499
 50
90.0
 51
150.00000000000759
  0
LINE
  5
6E3
  8
0
 10
184.59999999999991
 20
447.99999999999881
 30
0.0
 11
184.59999999999991
 21
429.99999999999892
 31
0.0
  0
LINE
  5
6E4
  8
0
 10
217.0
 20
429.99999999999892
 30
0.0
 11
184.59999999999991
 21
429.99999999999892
 31
0.0
  0
LINE
  5
6E5
  8
0
 10
184.59999999999991
 20
447.99999999999881
 30
0.0
 11
217.0
 21
447.99999999999881
 31
0.0
  0
LINE
  5
6E6
  8
0
 10
217.0
 20
447.99999999999881
 30
0.0
 11
217.0
 21
429.99999999999892
 31
0.0
  0
ARC
  5
6E7
  8
0
 10
217.0
 20
438.99999999999892
 30
0.0
 40
9.0
 50
270.0
 51
90.0
  0
LINE
  5
6F1
  8
0
 10
166.0
 20
431.69999999999891
 30
0.0
 11
165.2999999999999
 21
430.99999999999881
 31
0.0
  0
LINE
  5
6F2
  8
0
 10
165.2999999999999
 20
446.99999999999892
 30
0.0
 11
166.0
 21
446.29999999999887
 31
0.0
  0
LINE
  5
6F7
  8
0
 10
165.2999999999999
 20
430.99999999999881
 30
0.0
 11
164.66237573422791
 21
430.99999999999881
 31
0.0
  0
LINE
  5
6F8
  8
0
 10
163.03248781133789
 20
446.99999999999892
 30
0.0
 11
165.2999999999999
 21
446.99999999999892
 31
0.0
  0
LINE
  5
6F9
  8
0
 10
165.2999999999999
 20
446.99999999999892
 30
0.0
 11
165.2999999999999
 21
430.99999999999881
 31
0.0
  0
LINE
  5
6FA
  8
0
 10
100.0
 20
388.99999999999892
 30
0.0
 11
100.2999999999999
 21
388.99999999999892
 31
0.0
  0
LINE
  5
6FB
  8
0
 10
100.2999999999999
 20
362.99999999999892
 30
0.0
 11
100.0
 21
362.99999999999892
 31
0.0
  0
LINE
  5
6FC
  8
0
 10
100.0
 20
362.99999999999892
 30
0.0
 11
100.0
 21
388.99999999999892
 31
0.0
  0
LINE
  5
6FD
  8
0
 10
100.2999999999999
 20
393.74999999999892
 30
0.0
 11
101.7999999999999
 21
395.24999999999892
 31
0.0
  0
LINE
  5
6FE
  8
0
 10
101.7999999999999
 20
356.74999999999892
 30
0.0
 11
100.2999999999999
 21
358.24999999999892
 31
0.0
  0
LINE
  5
6FF
  8
0
 10
100.2999999999999
 20
358.24999999999892
 30
0.0
 11
100.2999999999999
 21
393.74999999999892
 31
0.0
  0
LINE
  5
700
  8
0
 10
101.7999999999999
 20
395.24999999999892
 30
0.0
 11
122.9999999999991
 21
395.24999999999892
 31
0.0
  0
LINE
  5
701
  8
0
 10
122.9999999999991
 20
356.74999999999892
 30
0.0
 11
101.7999999999999
 21
356.74999999999892
 31
0.0
  0
LINE
  5
702
  8
0
 10
101.7999999999999
 20
356.74999999999892
 30
0.0
 11
101.7999999999999
 21
395.24999999999892
 31
0.0
  0
ARC
  5
703
  8
0
 10
122.99999999999859
 20
397.75000000000023
 30
0.0
 40
2.5000000000012572
 50
270.0
 51
0.0
  0
ARC
  5
704
  8
0
 10
122.99999999999859
 20
354.24999999999773
 30
0.0
 40
2.5000000000012572
 50
0.0
 51
90.0
  0
LINE
  5
706
  8
0
 10
125.5
 20
412.99999999999892
 30
0.0
 11
127.0
 21
414.49999999999881
 31
0.0
  0
LINE
  5
707
  8
0
 10
127.0
 20
337.49999999999892
 30
0.0
 11
125.5
 21
338.99999999999892
 31
0.0
  0
LINE
  5
708
  8
0
 10
125.5
 20
338.99999999999892
 30
0.0
 11
125.5
 21
412.99999999999892
 31
0.0
  0
LINE
  5
709
  8
0
 10
127.0
 20
414.49999999999881
 30
0.0
 11
133.0
 21
414.49999999999881
 31
0.0
  0
LINE
  5
70A
  8
0
 10
133.0
 20
337.49999999999892
 30
0.0
 11
127.0
 21
337.49999999999892
 31
0.0
  0
LINE
  5
70B
  8
0
 10
127.0
 20
337.49999999999892
 30
0.0
 11
127.0
 21
414.49999999999881
 31
0.0
  0
LINE
  5
710
  8
0
 10
166.0
 20
339.03339344759792
 30
0.0
 11
166.0
 21
412.96660655248081
 31
0.0
  0
ARC
  5
713
  8
0
 10
-454.60000000091389
 20
376.00000000007958
 30
0.0
 40
621.70000000091704
 50
353.21387303320518
 51
356.5911523296071
  0
ARC
  5
716
  8
0
 10
158.971084150801
 20
449.01325012631401
 30
0.0
 40
3.8000000000023531
 50
6.7861269668396291
 51
73.371258281860804
  0
ARC
  5
717
  8
0
 10
158.971084150801
 20
302.98674987368378
 30
0.0
 40
3.8000000000023411
 50
286.62874171813911
 51
353.21387303316033
  0
LINE
  5
718
  8
0
 10
162.74446191382799
 20
302.53772842930488
 30
0.0
 11
162.74446191382799
 21
449.46227157069279
 31
0.0
  0
LINE
  5
719
  8
0
 10
133.0
 20
300.00017911205191
 30
0.0
 11
133.0
 21
451.99982088794587
 31
0.0
  0
ARC
  5
71A
  8
0
 10
137.0000000000006
 20
451.99982088794542
 30
0.0
 40
4.0000000000006324
 50
90.124392250613624
 51
180.0
  0
ARC
  5
71B
  8
0
 10
137.0000000000006
 20
300.00017911205242
 30
0.0
 40
4.000000000000635
 50
180.0
 51
269.8756077493864
  0
ARC
  5
71C
  8
0
 10
137.164999999994
 20
376.00000000003718
 30
0.0
 40
80.000000000038554
 50
269.87560774941238
 51
286.62874292871362
  0
ARC
  5
71D
  8
0
 10
137.16499999998061
 20
375.9999999998671
 30
0.0
 40
80.00000000013118
 50
73.371257071286379
 51
90.124392250613624
  0
LINE
  5
764
  8
1
 10
389.99999999999949
 20
439.00000000000011
 30
0.0
 11
361.9999999999996
 21
439.00000000000011
 31
0.0
  0
LINE
  5
768
  8
1
 10
465.99999999999812
 20
375.99999999999892
 30
0.0
 11
286.0
 21
375.99999999999892
 31
0.0
  0
LINE
  5
769
  8
1
 10
375.99999999999909
 20
465.99999999999778
 30
0.0
 11
375.99999999999909
 21
285.99999999999989
 31
0.0
  0
CIRCLE
  5
76A
  8
0
 10
375.99999999999949
 20
439.00000000000011
 30
0.0
 40
9.0
  0
CIRCLE
  5
76F
  8
0
 10
375.99999999999909
 20
375.99999999999892
 30
0.0
 40
79.999999999999005
  0
CIRCLE
  5
772
  8
0
 10
375.99999999999909
 20
376.00000000000011
 30
0.0
 40
73.462271570693005
  0
POLYLINE
  5
773
  8
0
 66
     1
 10
0.0
 20
0.0
 30
0.0
  0
VERTEX
  5
2804
  8
0
 10
439.02959464784908
 20
397.7062934755462
 30
0.0
  0
VERTEX
  5
2805
  8
0
 10
440.41346700557091
 20
396.35991269525908
 30
0.0
  0
VERTEX
  5
2806
  8
0
 10
441.55500729229402
 20
394.80138727816211
 30
0.0
  0
VERTEX
  5
2807
  8
0
 10
442.41791892143408
 20
393.07159050544311
 30
0.0
  0
VERTEX
  5
2808
  8
0
 10
442.98119334543998
 20
391.22197017956108
 30
0.0
  0
VERTEX
  5
2809
  8
0
 10
443.22416663731008
 20
389.3073676518361
 30
0.0
  0
VERTEX
  5
280A
  8
0
 10
443.14588741630718
 20
387.3794754526221
 30
0.0
  0
VERTEX
  5
280B
  8
0
 10
442.74437763415688
 20
385.49312158677861
 30
0.0
  0
VERTEX
  5
280C
  8
0
 10
442.03589486058007
 20
383.70058613717282
 30
0.0
  0
VERTEX
  5
280D
  8
0
 10
441.03385329494898
 20
382.04976566183382
 30
0.0
  0
VERTEX
  5
280E
  8
0
 10
439.77235137173801
 20
380.58934060831638
 30
0.0
  0
VERTEX
  5
280F
  8
0
 10
438.2774998951021
 20
379.35842181909078
 30
0.0
  0
VERTEX
  5
2810
  8
0
 10
436.5992602551471
 20
378.39419897926979
 30
0.0
  0
VERTEX
  5
2811
  8
0
 10
434.775838711831
 20
377.72547545439897
 30
0.0
  0
VERTEX
  5
2812
  8
0
 10
432.86640742896401
 20
377.37091044999528
 30
0.0
  0
VERTEX
  5
2813
  8
0
 10
430.92068504882718
 20
377.34529894939129
 30
0.0
  0
VERTEX
  5
2814
  8
0
 10
428.99740701640002
 20
377.64601185793202
 30
0.0
  0
VERTEX
  5
2815
  8
0
 10
427.153823740615
 20
378.26873984703781
 30
0.0
  0
VERTEX
  5
2816
  8
0
 10
425.43944530461698
 20
379.19204818426692
 30
0.0
  0
VERTEX
  5
2817
  8
0
 10
423.65588194840302
 20
380.63205575215341
 30
0.0
  0
SEQEND
  5
2818
  8
0
  0
LINE
  5
774
  8
0
 10
423.65588194840302
 20
380.63205575215341
 30
0.0
 11
373.20783984906711
 21
430.44407563780811
 31
0.0
  0
LINE
  5
775
  8
0
 10
384.21719390353968
 20
442.67120203089007
 30
0.0
 11
439.02959464784908
 21
397.7062934755462
 31
0.0
  0
CIRCLE
  5
1AD5
  8
0
 10
655.99999999999716
 20
375.99999999999773
 30
0.0
 40
79.999999999999091
  0
LINE
  5
1AD8
  8
0
 10
668.58054717404139
 20
415.5617298785512
 30
0.0
 11
692.65843951950956
 21
393.88189823252389
 31
0.0
  0
LINE
  5
1AD9
  8
0
 10
704.7027904339692
 20
407.25850509111689
 30
0.0
 11
680.62489808850114
 21
428.9383367371442
 31
0.0
  0
ARC
  5
1ADA
  8
0
 10
670.98941735693359
 20
418.23705125026981
 30
0.0
 40
3.599999999999973
 50
167.9999999999996
 51
227.99999999999091
  0
ARC
  5
1ADB
  8
0
 10
678.21602790560883
 20
426.2630153654257
 30
0.0
 40
3.6000000000000001
 50
47.999999999990891
 51
107.999999999992
  0
ARC
  5
1ADC
  8
0
 10
698.68061497673898
 20
400.57020166182042
 30
0.0
 40
9.0000000000000089
 50
227.99999999999091
 51
318.00000000000313
  0
ARC
  5
1ADD
  8
0
 10
698.68061497673898
 20
400.57020166182042
 30
0.0
 40
9.0000000000000089
 50
318.00000000000313
 51
47.999999999990891
  0
LINE
  5
1ADE
  8
0
 10
656.23002064877971
 20
429.10433282439612
 30
0.0
 11
667.46808599429187
 21
418.98553333721378
 31
0.0
  0
LINE
  5
1ADF
  8
0
 10
677.10356672585931
 20
429.68681882408828
 30
0.0
 11
665.86550138034715
 21
439.80561831127051
 31
0.0
  0
LINE
  5
1AE0
  8
0
 10
665.86550138034715
 20
439.80561831127051
 30
0.0
 11
665.35708222488665
 21
439.77897319238798
 31
0.0
  0
LINE
  5
1AE1
  8
0
 10
656.20337552989713
 20
429.61275197985668
 30
0.0
 11
656.23002064877971
 21
429.10433282439612
 31
0.0
  0
LINE
  5
1AE2
  8
0
 10
664.18954015319378
 20
438.48228635597633
 30
0.0
 11
663.99079509345017
 21
438.61634159145399
 31
0.0
  0
LINE
  5
1AE3
  8
0
 10
657.21682221904121
 20
431.09308254202318
 30
0.0
 11
657.37091760159001
 21
430.90943881626839
 31
0.0
  0
LINE
  5
1AE4
  8
0
 10
661.10561291592865
 20
445.223762266721
 30
0.0
 11
719.02959464784715
 21
397.70629347554518
 31
0.0
  0
ARC
  5
1AE5
  8
0
 10
655.99999999999716
 20
438.99999999999892
 30
0.0
 40
8.050000000000141
 50
50.636536234112988
 51
225.36346376589231
  0
ARC
  5
1AE9
  8
0
 10
711.73586191080165
 20
388.81520452308501
 30
0.0
 40
11.50000000000038
 50
225.36346376589231
 51
50.636536234112988
  0
CIRCLE
  5
1AEA
  8
0
 10
655.99999999999716
 20
375.99999999999892
 30
0.0
 40
73.46227157069319
  0
POLYLINE
  5
1AF1
  8
0
 66
     1
 10
0.0
 20
0.0
 30
0.0
 70
   128
  0
VERTEX
  5
2819
  8
0
 10
663.29129406387426
 20
439.35641390834269
 30
0.0
  0
VERTEX
  5
281A
  8
0
 10
663.31535268069365
 20
439.02989157940692
 30
0.0
  0
VERTEX
  5
281B
  8
0
 10
663.3606638899837
 20
438.70440812223768
 30
0.0
  0
VERTEX
  5
281C
  8
0
 10
663.44275424724026
 20
438.38206971584049
 30
0.0
  0
VERTEX
  5
281D
  8
0
 10
663.58289318481275
 20
438.10716362992042
 30
0.0
  0
VERTEX
  5
281E
  8
0
 10
663.73156798535183
 20
437.97380055282059
 30
0.0
  0
VERTEX
  5
281F
  8
0
 10
663.73166921065331
 20
437.97376915701398
 30
0.0
  0
SEQEND
  5
2820
  8
0
  0
ARC
  5
1AF2
  8
0
 10
655.99999999999716
 20
438.99999999999892
 30
0.0
 40
7.2999999999999199
 50
2.7985115855840972
 51
273.20148841440732
  0
POLYLINE
  5
1AF3
  8
0
 66
     1
 10
0.0
 20
0.0
 30
0.0
 70
   128
  0
VERTEX
  5
2821
  8
0
 10
657.82316000502624
 20
431.4117048892623
 30
0.0
  0
VERTEX
  5
2822
  8
0
 10
657.72977164438896
 20
431.51845142343501
 30
0.0
  0
VERTEX
  5
2823
  8
0
 10
657.53875450217765
 20
431.61939644401718
 30
0.0
  0
VERTEX
  5
2824
  8
0
 10
657.17071379250865
 20
431.700225589924
 30
0.0
  0
VERTEX
  5
2825
  8
0
 10
656.45426014300665
 20
431.71384822209927
 30
0.0
  0
VERTEX
  5
2826
  8
0
 10
656.40768632806521
 20
431.71139300977728
 30
0.0
  0
SEQEND
  5
2827
  8
0
  0
ARC
  5
1AF4
  8
0
 10
655.99999999999716
 20
438.99999999999892
 30
0.0
 40
7.9999999999999929
 50
354.48100125918342
 51
281.51899874081079
  0
LINE
  5
1AF5
  8
0
 10
661.3789315819331
 20
437.23252020300828
 30
0.0
 11
663.29129406387426
 21
439.35641390834269
 31
0.0
  0
ARC
  5
1AF8
  8
0
 10
655.99999999999716
 20
438.99999999999892
 30
0.0
 40
5.095135752874957
 50
344.65435465808878
 51
291.34564534191099
  0
ARC
  5
1AF9
  8
0
 10
655.99999999999716
 20
438.99999999999892
 30
0.0
 40
4.7999999999999696
 50
346.436890148857
 51
289.56310985115522
  0
LINE
  5
1AFC
  8
0
 10
656.40768632806521
 20
431.71139300977728
 30
0.0
 11
658.32004881000728
 21
433.83528671511181
 31
0.0
  0
ARC
  5
1B01
  8
0
 10
654.62453222724434
 20
442.0839159174181
 30
0.0
 40
0.9142857142858401
 50
47.999999999990891
 51
138.00000000000301
  0
LINE
  5
1B02
  8
0
 10
653.94508552966545
 20
442.69569247180328
 30
0.0
 11
652.10975586650954
 21
440.65735237906529
 31
0.0
  0
ARC
  5
1B03
  8
0
 10
652.78920256408855
 20
440.0455758246801
 30
0.0
 40
0.9142857142857302
 50
138.00000000000301
 51
228.00000000002601
  0
LINE
  5
1B04
  8
0
 10
652.17742600970359
 20
439.36612912710081
 30
0.0
 11
659.25078749142904
 21
432.99724584217512
 31
0.0
  0
LINE
  5
1B05
  8
0
 10
662.3096702633552
 20
436.39447933007142
 30
0.0
 11
655.23630878163021
 21
442.7633626149975
 31
0.0
  0
LINE
  5
1B08
  8
0
 10
667.46808599429187
 20
418.98553333721378
 30
0.0
 11
677.10356672585931
 21
429.68681882408828
 31
0.0
  0
LINE
  5
1B09
  8
0
 10
656.23002064877971
 20
429.10433282439612
 30
0.0
 11
665.86550138034715
 21
439.80561831127051
 31
0.0
  0
LINE
  5
1B0C
  8
0
 10
656.20337552989656
 20
429.61275197985748
 30
0.0
 11
665.35708222488665
 21
439.77897319238781
 31
0.0
  0
LINE
  5
1B0D
  8
0
 10
657.6901833579268
 20
434.40242011552772
 30
0.0
 11
660.74906612985251
 21
437.7996536034243
 31
0.0
  0
LINE
  5
1B0E
  8
0
 10
653.60288681780094
 20
438.08263845050129
 30
0.0
 11
656.66176958972756
 21
441.47987193839799
 31
0.0
  0
LINE
  5
1B0F
  8
0
 10
653.48446406721166
 20
440.34227914143929
 30
0.0
 11
654.40212889878865
 21
441.36144918780832
 31
0.0
  0
ARC
  5
1B10
  8
0
 10
655.59116061955319
 20
440.29084021763418
 30
0.0
 40
1.600000000000088
 50
47.999999999990891
 51
138.00000000000301
  0
ARC
  5
1B11
  8
0
 10
654.67349578797621
 20
439.27167017126521
 30
0.0
 40
1.6000000000008401
 50
138.0000000000322
 51
227.9999999999558
  0
LINE
  5
1B12
  8
0
 10
692.65843951950956
 20
393.88189823252389
 30
0.0
 11
704.7027904339692
 21
407.258505091117
 31
0.0
  0
LINE
  5
1B13
  8
0
 10
668.58054717404139
 20
415.5617298785512
 30
0.0
 11
680.62489808850114
 21
428.9383367371442
 31
0.0
  0
ARC
  5
1CEB
  8
0
 10
894.8349999999964
 20
375.99999999999773
 30
0.0
 40
80.000000000000298
 50
89.875607749386376
 51
106.62874292871361
  0
ARC
  5
1CEC
  8
0
 10
894.8349999999964
 20
375.99999999999773
 30
0.0
 40
79.999999999999076
 50
253.37125707128641
 51
270.1243922506136
  0
ARC
  5
1CED
  8
0
 10
894.99999999999625
 20
300.00017911205242
 30
0.0
 40
4.0000000000005684
 50
270.1243922506136
 51
0.0
  0
ARC
  5
1CEE
  8
0
 10
894.99999999999625
 20
451.99982088794548
 30
0.0
 40
4.000000000000635
 50
0.0
 51
89.875607749386376
  0
ARC
  5
1CEF
  8
0
 10
873.02891584919416
 20
302.98674987368258
 30
0.0
 40
3.800000000000721
 50
186.7861269668137
 51
253.371258281888
  0
ARC
  5
1CF0
  8
0
 10
873.02891584919416
 20
449.0132501263152
 30
0.0
 40
3.8000000000007308
 50
106.6287417181119
 51
173.21387303318619
  0
ARC
  5
1CF1
  8
0
 10
1486.600000000919
 20
376.00000000008032
 30
0.0
 40
621.70000000092534
 50
173.21387303320881
 51
173.43784981031439
  0
ARC
  5
1CF2
  8
0
 10
1486.600000000919
 20
376.00000000008032
 30
0.0
 40
621.70000000092546
 50
183.4088476703929
 51
186.78612696679741
  0
LINE
  5
1CF3
  8
0
 10
904.99999999999625
 20
337.49999999999898
 30
0.0
 11
906.49999999999625
 21
338.99999999999898
 31
0.0
  0
LINE
  5
1CF4
  8
0
 10
906.49999999999625
 20
412.99999999999881
 30
0.0
 11
904.99999999999625
 21
414.49999999999881
 31
0.0
  0
LINE
  5
1CF5
  8
0
 10
898.99999999999636
 20
337.49999999999898
 30
0.0
 11
904.99999999999625
 21
337.49999999999898
 31
0.0
  0
LINE
  5
1CF6
  8
0
 10
904.99999999999625
 20
414.49999999999881
 30
0.0
 11
898.99999999999636
 21
414.49999999999881
 31
0.0
  0
ARC
  5
1CF7
  8
0
 10
908.99999999999818
 20
354.24999999999773
 30
0.0
 40
2.5000000000013638
 50
90.0
 51
179.99999999998369
  0
ARC
  5
1CF8
  8
0
 10
908.99999999999818
 20
397.75000000000023
 30
0.0
 40
2.5000000000013638
 50
180.00000000001631
 51
270.0
  0
LINE
  5
1CF9
  8
0
 10
930.19999999999709
 20
356.74999999999892
 30
0.0
 11
931.69999999999709
 21
358.24999999999892
 31
0.0
  0
LINE
  5
1CFA
  8
0
 10
931.69999999999709
 20
393.74999999999892
 30
0.0
 11
930.19999999999709
 21
395.24999999999892
 31
0.0
  0
LINE
  5
1CFB
  8
0
 10
908.99999999999818
 20
356.74999999999892
 30
0.0
 11
930.19999999999709
 21
356.74999999999892
 31
0.0
  0
LINE
  5
1CFC
  8
0
 10
930.19999999999709
 20
395.24999999999892
 30
0.0
 11
908.99999999999818
 21
395.24999999999892
 31
0.0
  0
LINE
  5
1CFD
  8
0
 10
931.69999999999709
 20
362.99999999999892
 30
0.0
 11
931.99999999999625
 21
362.99999999999892
 31
0.0
  0
LINE
  5
1CFE
  8
0
 10
931.99999999999625
 20
388.99999999999892
 30
0.0
 11
931.69999999999709
 21
388.99999999999892
 31
0.0
  0
LINE
  5
1CFF
  8
0
 10
868.96751218865847
 20
446.99999999999892
 30
0.0
 11
866.69999999999709
 21
446.99999999999892
 31
0.0
  0
LINE
  5
1D00
  8
0
 10
866.69999999999709
 20
446.99999999999892
 30
0.0
 11
865.99999999999636
 21
446.29999999999887
 31
0.0
  0
ARC
  5
1D01
  8
0
 10
872.43243243242887
 20
400.57020166182042
 30
0.0
 40
9.0
 50
180.0
 51
245.4643079370525
  0
LINE
  5
1D02
  8
0
 10
863.43243243242887
 20
422.25003330784779
 30
0.0
 11
863.43243243242796
 21
400.57020166182042
 31
0.0
  0
ARC
  5
1D03
  8
0
 10
870.74988037961612
 20
422.1021444156126
 30
0.0
 40
7.2998469634658321
 50
115.10397667529161
 51
176.53608138492919
  0
LINE
  5
1D04
  8
0
 10
865.23243243242905
 20
434.45497556783329
 30
0.0
 11
865.23243243242905
 21
426.88184459868899
 31
0.0
  0
LINE
  5
1D05
  8
0
 10
898.99999999999636
 20
300.00017911205231
 30
0.0
 11
898.99999999999636
 21
451.9998208879457
 31
0.0
  0
ARC
  5
1D06
  8
0
 10
1116.939900444055
 20
419.8833090763801
 30
0.0
 40
249.44337382466139
 50
174.1693781440031
 51
185.1006738992611
  0
POLYLINE
  5
1D07
  8
0
 66
     1
 10
0.0
 20
0.0
 30
0.0
 70
   128
  0
VERTEX
  5
2828
  8
0
 10
868.97307386685316
 20
447.04815567398072
 30
0.0
  0
VERTEX
  5
2829
  8
0
 10
868.97324854649275
 20
447.0498681667849
 30
0.0
  0
VERTEX
  5
282A
  8
0
 10
868.97007118744841
 20
447.01871853197491
 30
0.0
  0
VERTEX
  5
282B
  8
0
 10
868.94649378156112
 20
446.78756949282081
 30
0.0
  0
VERTEX
  5
282C
  8
0
 10
868.92585406387195
 20
446.58521382620791
 30
0.0
  0
VERTEX
  5
282D
  8
0
 10
868.89978074552164
 20
446.32957645235388
 30
0.0
  0
VERTEX
  5
282E
  8
0
 10
868.86809560926395
 20
446.01890315730759
 30
0.0
  0
VERTEX
  5
282F
  8
0
 10
868.83030140304982
 20
445.64830948777592
 30
0.0
  0
VERTEX
  5
2830
  8
0
 10
868.78700770021078
 20
445.223762266721
 30
0.0
  0
SEQEND
  5
2831
  8
0
  0
LINE
  5
1D08
  8
0
 10
865.99999999999636
 20
339.03339344759883
 30
0.0
 11
865.99999999999636
 21
394.27545678992988
 31
0.0
  0
ARC
  5
1D09
  8
0
 10
1172.9153192016031
 20
402.1878079194467
 30
0.0
 40
306.92668688609621
 50
181.49470872109589
 51
184.02725220689649
  0
POLYLINE
  5
1D0A
  8
0
 66
     1
 10
0.0
 20
0.0
 30
0.0
 70
   128
  0
VERTEX
  5
2832
  8
0
 10
868.48431744365189
 20
397.70629347554518
 30
0.0
  0
VERTEX
  5
2833
  8
0
 10
868.58008321378657
 20
396.38152168790242
 30
0.0
  0
VERTEX
  5
2834
  8
0
 10
868.61937361013031
 20
395.61918537993711
 30
0.0
  0
VERTEX
  5
2835
  8
0
 10
868.65183157861611
 20
394.8013872781612
 30
0.0
  0
VERTEX
  5
2836
  8
0
 10
868.69360091582337
 20
393.09137956730399
 30
0.0
  0
VERTEX
  5
2837
  8
0
 10
868.70371311889539
 20
392.17562961277508
 30
0.0
  0
VERTEX
  5
2838
  8
0
 10
868.70623780305777
 20
391.22197017956012
 30
0.0
  0
VERTEX
  5
2839
  8
0
 10
868.68889884133932
 20
389.32811641957318
 30
0.0
  0
VERTEX
  5
283A
  8
0
 10
868.66901824775232
 20
388.35909943937139
 30
0.0
  0
VERTEX
  5
283B
  8
0
 10
868.64140321416551
 20
387.37947545262091
 30
0.0
  0
VERTEX
  5
283C
  8
0
 10
868.56711058461133
 20
385.51250267983733
 30
0.0
  0
VERTEX
  5
283D
  8
0
 10
868.51957429594586
 20
384.59774250455217
 30
0.0
  0
VERTEX
  5
283E
  8
0
 10
868.46502156638769
 20
383.70058613717202
 30
0.0
  0
VERTEX
  5
283F
  8
0
 10
868.34195966773757
 20
382.0657218188482
 30
0.0
  0
VERTEX
  5
2840
  8
0
 10
868.27199026097696
 20
381.30564092040981
 30
0.0
  0
VERTEX
  5
2841
  8
0
 10
868.19647870236429
 20
380.58934060831552
 30
0.0
  0
VERTEX
  5
2842
  8
0
 10
868.03807203456199
 20
379.36923240276519
 30
0.0
  0
VERTEX
  5
2843
  8
0
 10
867.95331164606159
 20
378.84905093671671
 30
0.0
  0
VERTEX
  5
2844
  8
0
 10
867.86509111915245
 20
378.39419897926871
 30
0.0
  0
VERTEX
  5
2845
  8
0
 10
867.77809634536334
 20
378.02664911114238
 30
0.0
  0
VERTEX
  5
2846
  8
0
 10
867.68893474880122
 20
377.72987860350781
 30
0.0
  0
VERTEX
  5
2847
  8
0
 10
867.59882514113542
 20
377.51044786150061
 30
0.0
  0
VERTEX
  5
2848
  8
0
 10
867.50774329614239
 20
377.37091044999431
 30
0.0
  0
VERTEX
  5
2849
  8
0
 10
867.42065138084297
 20
377.31654518430719
 30
0.0
  0
VERTEX
  5
284A
  8
0
 10
867.33450820501105
 20
377.34218907792672
 30
0.0
  0
VERTEX
  5
284B
  8
0
 10
867.248721117885
 20
377.45156797984669
 30
0.0
  0
VERTEX
  5
284C
  8
0
 10
867.1652128799077
 20
377.646011857931
 30
0.0
  0
VERTEX
  5
284D
  8
0
 10
867.08807297441115
 20
377.91216766810231
 30
0.0
  0
VERTEX
  5
284E
  8
0
 10
867.0142579762213
 20
378.25648876453982
 30
0.0
  0
VERTEX
  5
284F
  8
0
 10
866.94336987088275
 20
378.6850298770882
 30
0.0
  0
VERTEX
  5
2850
  8
0
 10
866.87712477561945
 20
379.19204818426601
 30
0.0
  0
VERTEX
  5
2851
  8
0
 10
866.80799826319151
 20
379.86374521376172
 30
0.0
  0
VERTEX
  5
2852
  8
0
 10
866.74650845926396
 20
380.63205575215238
 30
0.0
  0
SEQEND
  5
2853
  8
0
  0
LINE
  5
1D0B
  8
0
 10
904.99999999999625
 20
337.49999999999892
 30
0.0
 11
904.99999999999625
 21
414.49999999999892
 31
0.0
  0
LINE
  5
1D0C
  8
0
 10
906.49999999999625
 20
338.99999999999898
 30
0.0
 11
906.49999999999625
 21
412.99999999999881
 31
0.0
  0
LINE
  5
1D0D
  8
0
 10
930.19999999999709
 20
356.74999999999892
 30
0.0
 11
930.19999999999709
 21
395.24999999999892
 31
0.0
  0
LINE
  5
1D0E
  8
0
 10
931.69999999999709
 20
358.24999999999892
 30
0.0
 11
931.69999999999709
 21
393.74999999999892
 31
0.0
  0
LINE
  5
1D0F
  8
0
 10
931.99999999999625
 20
362.99999999999892
 30
0.0
 11
931.99999999999625
 21
388.99999999999892
 31
0.0
  0
LINE
  5
1D10
  8
0
 10
866.69999999999709
 20
437.91792557440931
 30
0.0
 11
866.78361528145967
 21
437.81596243526911
 31
0.0
  0
LINE
  5
1D11
  8
0
 10
866.69999999999709
 20
446.99999999999892
 30
0.0
 11
866.69999999999709
 21
437.91792557440931
 31
0.0
  0
POLYLINE
  5
1D12
  8
0
 66
     1
 10
0.0
 20
0.0
 30
0.0
 70
   128
  0
VERTEX
  5
2854
  8
0
 10
865.99999999999636
 20
439.35641390834269
 30
0.0
  0
VERTEX
  5
2855
  8
0
 10
866.01541375107706
 20
439.02989157940692
 30
0.0
  0
VERTEX
  5
2856
  8
0
 10
866.06659673523063
 20
438.70440812223768
 30
0.0
  0
VERTEX
  5
2857
  8
0
 10
866.16836184319425
 20
438.38206971584049
 30
0.0
  0
VERTEX
  5
2858
  8
0
 10
866.3352750989078
 20
438.10716362992042
 30
0.0
  0
VERTEX
  5
2859
  8
0
 10
866.49937361699631
 20
437.97380055282059
 30
0.0
  0
VERTEX
  5
285A
  8
0
 10
866.68064248594135
 20
437.91934596497748
 30
0.0
  0
VERTEX
  5
285B
  8
0
 10
866.69999999999709
 20
437.91792557440931
 30
0.0
  0
SEQEND
  5
285C
  8
0
  0
LINE
  5
1D13
  8
0
 10
865.99999999999636
 20
446.29999999999887
 30
0.0
 11
865.99999999999636
 21
439.35641390834269
 31
0.0
  0
LINE
  5
1D15
  8
0
 10
865.99999999999636
 20
436.84786229283122
 30
0.0
 11
865.99999999999636
 21
439.35641390834269
 31
0.0
  0
ARC
  5
1D17
  8
0
 10
870.33986569072295
 20
434.13621133637662
 30
0.0
 40
5.1173709190546672
 50
114.5385883012304
 51
176.42869804189189
  0
LINE
  5
1D1A
  8
0
 10
869.25553808616849
 20
302.53772842930539
 30
0.0
 11
869.25553808616849
 21
449.46227157069239
 31
0.0
  0
ARC
  5
1D1D
  8
0
 10
870.14592879722204
 20
399.99271549082749
 30
0.0
 40
6.7382878921717193
 50
109.7866404535597
 51
175.0835940473996
  0
ARC
  5
1D1E
  8
0
 10
870.08888880916948
 20
421.69580503665497
 30
0.0
 40
6.6794895367870506
 50
111.6416170762174
 51
175.2404309195237
  0
LINE
  5
1D8C
  8
2
 10
901.99999999999636
 20
369.99999999999892
 30
0.0
 11
931.99999999999625
 21
369.99999999999898
 31
0.0
  0
LINE
  5
1D8D
  8
2
 10
931.99999999999625
 20
381.99999999999892
 30
0.0
 11
901.99999999999636
 21
381.99999999999892
 31
0.0
  0
ARC
  5
1DC5
  8
0
 10
655.99999999999716
 20
137.16499999999991
 30
0.0
 40
79.999999999999673
 50
359.87560774938959
 51
0.0
  0
ARC
  5
1DC6
  8
0
 10
655.99999999999716
 20
137.16499999999991
 30
0.0
 40
79.99999999999973
 50
163.37125707128109
 51
180.1243922506103
  0
ARC
  5
1DC7
  8
0
 10
655.99999999999716
 20
137.16499999999991
 30
0.0
 40
79.999999999999602
 50
0.0
 51
16.628742928717632
  0
ARC
  5
1DC8
  8
0
 10
580.00017911205123
 20
137.0000000000002
 30
0.0
 40
4.0000000000006253
 50
180.1243922506136
 51
270.0
  0
ARC
  5
1DC9
  8
0
 10
731.99982088794422
 20
137.0000000000008
 30
0.0
 40
4.0000000000005782
 50
270.0
 51
359.8756077493864
  0
ARC
  5
1DCA
  8
0
 10
582.98674987368111
 20
158.97108415080211
 30
0.0
 40
3.8000000000007468
 50
96.78612696681391
 51
163.3712582818842
  0
ARC
  5
1DCB
  8
0
 10
729.01325012631332
 20
158.97108415080271
 30
0.0
 40
3.8000000000007002
 50
16.628741718115759
 51
83.213873033186076
  0
ARC
  5
1DCC
  8
0
 10
655.99999999999898
 20
-454.60000000092208
 30
0.0
 40
621.70000000092273
 50
93.408847670399709
 51
96.786126966787677
  0
ARC
  5
1DCD
  8
0
 10
655.99999999999898
 20
-454.60000000092208
 30
0.0
 40
621.70000000092273
 50
83.213873033212323
 51
86.591152329600291
  0
LINE
  5
1DCE
  8
0
 10
617.49999999999727
 20
126.9999999999998
 30
0.0
 11
618.99999999999716
 21
125.4999999999998
 31
0.0
  0
LINE
  5
1DCF
  8
0
 10
692.99999999999727
 20
125.5
 30
0.0
 11
694.49999999999716
 21
127.0
 31
0.0
  0
LINE
  5
1DD0
  8
0
 10
617.49999999999727
 20
132.9999999999998
 30
0.0
 11
617.49999999999727
 21
126.9999999999998
 31
0.0
  0
LINE
  5
1DD1
  8
0
 10
694.49999999999716
 20
127.0
 30
0.0
 11
694.49999999999716
 21
133.00000000000011
 31
0.0
  0
ARC
  5
1DD2
  8
0
 10
634.24999999999625
 20
122.99999999999849
 30
0.0
 40
2.5000000000012639
 50
0.0
 51
89.999999999973952
  0
ARC
  5
1DD3
  8
0
 10
677.74999999999898
 20
122.99999999999881
 30
0.0
 40
2.5000000000012501
 50
90.0
 51
180.0
  0
LINE
  5
1DD4
  8
0
 10
636.74999999999727
 20
101.7999999999999
 30
0.0
 11
638.24999999999716
 21
100.2999999999999
 31
0.0
  0
LINE
  5
1DD5
  8
0
 10
673.74999999999727
 20
100.3
 30
0.0
 11
675.24999999999716
 21
101.8
 31
0.0
  0
LINE
  5
1DD6
  8
0
 10
636.74999999999727
 20
122.99999999999871
 30
0.0
 11
636.74999999999727
 21
101.7999999999999
 31
0.0
  0
LINE
  5
1DD7
  8
0
 10
675.24999999999716
 20
101.8
 30
0.0
 11
675.24999999999716
 21
122.99999999999881
 31
0.0
  0
LINE
  5
1DD8
  8
0
 10
642.99999999999727
 20
100.2999999999999
 30
0.0
 11
642.99999999999727
 21
99.999999999999943
 31
0.0
  0
LINE
  5
1DD9
  8
0
 10
668.99999999999716
 20
100.0
 30
0.0
 11
668.99999999999716
 21
100.3
 31
0.0
  0
ARC
  5
1DDA
  8
0
 10
698.68061497673898
 20
159.56756756756781
 30
0.0
 40
8.9999999999999805
 50
37.964654855712311
 51
90.0
  0
LINE
  5
1DDB
  8
0
 10
698.68061497673898
 20
168.56756756756801
 30
0.0
 11
674.60272263127172
 21
168.56756756756789
 31
0.0
  0
ARC
  5
1DDC
  8
0
 10
674.51382117639423
 20
162.3844161590236
 30
0.0
 40
6.1566544829030967
 50
92.114799269393785
 51
144.0368807476483
  0
LINE
  5
1DDD
  8
0
 10
670.19035287517715
 20
166.7675675675678
 30
0.0
 11
661.04776101456355
 21
166.76756756756771
 31
0.0
  0
LINE
  5
1DDE
  8
0
 10
580.00017911205123
 20
132.99999999999969
 30
0.0
 11
731.99982088371326
 21
133.00000000000011
 31
0.0
  0
LINE
  5
1DDF
  8
0
 10
619.0333934475575
 20
165.9999999999998
 30
0.0
 11
692.96660655243704
 21
166.0
 31
0.0
  0
LINE
  5
1DE0
  8
0
 10
617.49999999999727
 20
126.9999999999998
 30
0.0
 11
694.49999999999716
 21
127.0
 31
0.0
  0
LINE
  5
1DE1
  8
0
 10
618.99999999999716
 20
125.4999999999998
 30
0.0
 11
692.99999999999727
 21
125.5
 31
0.0
  0
LINE
  5
1DE2
  8
0
 10
636.74999999999727
 20
101.7999999999999
 30
0.0
 11
675.24999999999716
 21
101.8
 31
0.0
  0
LINE
  5
1DE3
  8
0
 10
638.24999999999716
 20
100.2999999999999
 30
0.0
 11
673.74999999999727
 21
100.3
 31
0.0
  0
LINE
  5
1DE4
  8
0
 10
642.99999999999727
 20
99.999999999999943
 30
0.0
 11
668.99999999999716
 21
100.0
 31
0.0
  0
ARC
  5
1DE5
  8
0
 10
661.1233778298938
 20
163.1186853931105
 30
0.0
 40
3.6496656046592491
 50
91.187186684593442
 51
127.8636551643441
  0
LINE
  5
1DE8
  8
0
 10
582.53772842930437
 20
162.74446191382759
 30
0.0
 11
729.46227157068995
 21
162.7444619138281
 31
0.0
  0
ARC
  5
1DEA
  8
0
 10
699.04723915278817
 20
163.2150151629256
 30
0.0
 40
5.3650937112882726
 50
93.918366037427035
 51
149.81724631989499
  0
ARC
  5
1DEB
  8
0
 10
674.96020816658336
 20
163.24251503871821
 30
0.0
 40
5.337038536769807
 50
93.840661689353325
 51
148.890888773531
  0
LINE
  5
1E53
  8
2
 10
649.99999999999716
 20
130.0
 30
0.0
 11
649.99999999999716
 21
99.999999999999943
 31
0.0
  0
LINE
  5
1E54
  8
2
 10
661.99999999999716
 20
99.999999999999943
 30
0.0
 11
661.99999999999716
 21
130.0
 31
0.0
  0
LINE
  5
201E
  8
2
 10
369.99999999999909
 20
130.0
 30
63.0
 11
381.99999999999909
 21
130.0
 31
63.0
  0
LINE
  5
201F
  8
2
 10
381.99999999999909
 20
100.0
 30
63.0
 11
381.99999999999909
 21
130.0
 31
63.0
  0
LINE
  5
2020
  8
2
 10
369.99999999999909
 20
100.0
 30
63.0
 11
369.99999999999909
 21
130.0
 31
63.0
  0
LINE
  5
2021
  8
2
 10
100.0
 20
381.99999999999892
 30
0.0
 11
130.0
 21
381.99999999999892
 31
0.0
  0
LINE
  5
2022
  8
2
 10
100.0
 20
369.99999999999881
 30
0.0
 11
130.0
 21
369.99999999999892
 31
0.0
  0
LINE
  5
2023
  8
2
 10
130.0
 20
369.99999999999892
 30
0.0
 11
130.0
 21
381.99999999999881
 31
0.0
  0
LINE
  5
206D
  8
2
 10
901.99999999999636
 20
369.99999999999892
 30
0.0
 11
901.99999999999636
 21
381.99999999999892
 31
0.0
  0
LINE
  5
206E
  8
1
 10
745.99999999999625
 20
375.99999999999892
 30
0.0
 11
565.99999999999807
 21
375.99999999999892
 31
0.0
  0
LINE
  5
206F
  8
1
 10
655.99999999999716
 20
465.99999999999778
 30
0.0
 11
655.99999999999716
 21
285.99999999999989
 31
0.0
  0
LINE
  5
20EB
  8
1
 10
941.99999999999636
 20
375.99999999999892
 30
0.0
 11
855.99999999999625
 21
375.99999999999892
 31
0.0
  0
LINE
  5
20EE
  8
1
 10
668.99999999999716
 20
438.99999999999892
 30
0.0
 11
642.99999999999727
 21
438.99999999999892
 31
0.0
  0
LINE
  5
20F0
  8
1
 10
646.33911726879114
 20
447.69869788266391
 30
0.0
 11
709.08464253342299
 21
391.2023731727968
 31
0.0
  0
LINE
  5
20F4
  8
2
 10
649.99999999999716
 20
130.0
 30
0.0
 11
661.99999999999716
 21
130.0
 31
0.0
  0
LINE
  5
20F5
  8
1
 10
655.99999999999716
 20
90.0
 30
0.0
 11
655.99999999999716
 21
175.99999999999989
 31
0.0
  0
ARC
  5
2631
  8
0
 10
376.2666666666679
 20
366.35128205128029
 30
0.0
 40
0.2871794871796385
 50
270.0
 51
0.0
  0
LINE
  5
2632
  8
0
 10
376.55384615384747
 20
366.4743589743573
 30
0.0
 11
376.55384615384747
 21
366.35128205128029
 31
0.0
  0
ARC
  5
2633
  8
0
 10
373.57948717948699
 20
366.35128205128029
 30
0.0
 40
0.2871794871796385
 50
270.0
 51
0.0
  0
LINE
  5
2634
  8
0
 10
373.86666666666667
 20
366.4743589743573
 30
0.0
 11
373.86666666666667
 21
366.35128205128029
 31
0.0
  0
ARC
  5
2635
  8
0
 10
378.63295075362311
 20
366.88461538461399
 30
0.0
 40
0.061538461538494
 50
90.0
 51
235.4396782200088
  0
ARC
  5
2636
  8
0
 10
378.83076923077181
 20
367.17179487179362
 30
0.0
 40
0.4102564102566264
 50
40.5416018734945
 51
90.0
  0
ARC
  5
2637
  8
0
 10
378.83076923077181
 20
367.17179487179362
 30
0.0
 40
0.4102564102566264
 50
235.4396782200088
 51
326.6329870307635
  0
ARC
  5
2638
  8
0
 10
379.50765674806888
 20
366.31030381595639
 30
0.0
 40
0.4102564102566264
 50
194.95437033353079
 51
216.87817385345389
  0
LINE
  5
2639
  8
0
 10
377.06666666666843
 20
366.91074592114933
 30
0.0
 11
377.06666666666843
 21
366.88461538461399
 31
0.0
  0
LINE
  5
263A
  8
0
 10
376.98461538461697
 20
366.06410256410072
 30
0.0
 11
376.63589743589893
 21
366.06410256410072
 31
0.0
  0
LINE
  5
263B
  8
0
 10
378.63295075362311
 20
366.94615384615241
 30
0.0
 11
379.17340088386919
 21
366.94615384615241
 31
0.0
  0
LINE
  5
263C
  8
0
 10
377.99586184680641
 20
367.43846153846039
 30
0.0
 11
379.1425371108453
 21
367.43846153846039
 31
0.0
  0
ARC
  5
263D
  8
0
 10
378.64615384615632
 20
366.9051282051268
 30
0.0
 40
0.8410256410260839
 50
140.6433010727396
 51
303.5774873791874
  0
ARC
  5
263E
  8
0
 10
380.28577995569663
 20
366.3584495346654
 30
0.0
 40
0.4102564102566264
 50
175.26603745311081
 51
225.84605298605601
  0
LINE
  5
263F
  8
0
 10
377.88717948718158
 20
368.32051282051219
 30
0.0
 11
377.45641006473898
 21
368.32051282051219
 31
0.0
  0
ARC
  5
2640
  8
0
 10
378.3794871794895
 20
367.9102564102555
 30
0.0
 40
0.4102564102566264
 50
90.0
 51
180.0
  0
ARC
  5
2641
  8
0
 10
377.14928972308371
 20
367.94088269743378
 30
0.0
 40
0.8205128205132528
 50
334.06662005680403
 51
357.86089300733943
  0
ARC
  5
2642
  8
0
 10
378.88338244061799
 20
367.3243554666746
 30
0.0
 40
0.996224746408062
 50
4.206846717150631
 51
90.666449776468227
  0
LINE
  5
2643
  8
0
 10
379.87692307692618
 20
367.39743589743472
 30
0.0
 11
379.87692307692618
 21
366.39230769230602
 31
0.0
  0
LINE
  5
2644
  8
0
 10
377.88717948718158
 20
367.58205128205032
 30
0.0
 11
378.83076923077181
 21
367.58205128205032
 31
0.0
  0
ARC
  5
2645
  8
0
 10
374.68660771281588
 20
366.44373268717908
 30
0.0
 40
0.8205128205132528
 50
154.066620056804
 51
177.8608930073394
  0
ARC
  5
2646
  8
0
 10
377.3737871999968
 20
366.44373268717908
 30
0.0
 40
0.8205128205132528
 50
154.066620056804
 51
177.8608930073394
  0
LINE
  5
2647
  8
0
 10
376.63589743589893
 20
366.8025641025626
 30
0.0
 11
376.63589743589893
 21
366.06410256410072
 31
0.0
  0
LINE
  5
2648
  8
0
 10
374.23589743589758
 20
366.06410256410072
 30
0.0
 11
375.13846153846208
 21
366.06410256410072
 31
0.0
  0
ARC
  5
2649
  8
0
 10
376.98461538461697
 20
366.91074592114933
 30
0.0
 40
0.0820512820513253
 50
0.0
 51
54.900367804608862
  0
ARC
  5
264A
  8
0
 10
376.98461538461697
 20
366.88461538461399
 30
0.0
 40
0.0820512820513253
 50
270.0
 51
0.0
  0
ARC
  5
264B
  8
0
 10
377.45641025641208
 20
367.47386946346359
 30
0.0
 40
0.0820512820513253
 50
180.0
 51
234.90036780460451
  0
ARC
  5
264C
  8
0
 10
377.45641025641208
 20
367.49999999999881
 30
0.0
 40
0.0820512820513253
 50
90.0
 51
180.0
  0
LINE
  5
264D
  8
0
 10
377.3743589743608
 20
367.47386946346359
 30
0.0
 11
377.3743589743608
 21
367.49999999999881
 31
0.0
  0
ARC
  5
264E
  8
0
 10
376.98461538461697
 20
366.8025641025626
 30
0.0
 40
0.7384615384619276
 50
270.0
 51
54.900367804608862
  0
ARC
  5
264F
  8
0
 10
377.45641025641208
 20
367.58205128205032
 30
0.0
 40
0.7384615384619276
 50
90.0
 51
234.90036780460889
  0
LINE
  5
2650
  8
0
 10
377.45641025641208
 20
367.58205128205032
 30
0.0
 11
377.88717948718158
 21
367.58205128205032
 31
0.0
  0
LINE
  5
2651
  8
0
 10
377.88717948718158
 20
367.58205128205032
 30
0.0
 11
377.88717948718158
 21
368.32051282051219
 31
0.0
  0
ARC
  5
2652
  8
0
 10
375.89743589743699
 20
367.19230769230637
 30
0.0
 40
1.1282051282057219
 50
90.0
 51
270.0
  0
LINE
  5
2653
  8
0
 10
376.63589743589893
 20
367.58205128205032
 30
0.0
 11
376.63589743589893
 21
368.32051282051219
 31
0.0
  0
ARC
  5
2654
  8
0
 10
375.89743589743699
 20
367.19230769230637
 30
0.0
 40
0.389743589743795
 50
90.0
 51
140.8332892838786
  0
LINE
  5
2655
  8
0
 10
376.55384615384747
 20
366.94615384615241
 30
0.0
 11
376.55384615384747
 21
367.43846153846039
 31
0.0
  0
LINE
  5
2656
  8
0
 10
375.5952631823053
 20
367.43846153846039
 30
0.0
 11
376.55384615384747
 21
367.43846153846039
 31
0.0
  0
LINE
  5
2657
  8
0
 10
375.5952631823053
 20
366.94615384615241
 30
0.0
 11
376.55384615384747
 21
366.94615384615241
 31
0.0
  0
LINE
  5
2658
  8
0
 10
375.89743589743699
 20
367.58205128205032
 30
0.0
 11
376.63589743589893
 21
367.58205128205032
 31
0.0
  0
LINE
  5
2659
  8
0
 10
375.89743589743699
 20
366.8025641025626
 30
0.0
 11
376.98461538461697
 21
366.8025641025626
 31
0.0
  0
ARC
  5
265A
  8
0
 10
375.89743589743699
 20
367.19230769230637
 30
0.0
 40
0.389743589743795
 50
219.16671071612129
 51
270.0
  0
LINE
  5
265B
  8
0
 10
376.2666666666679
 20
366.06410256410072
 30
0.0
 11
375.89743589743699
 21
366.06410256410072
 31
0.0
  0
LINE
  5
265C
  8
0
 10
376.63589743589893
 20
368.32051282051219
 30
0.0
 11
375.89743589743699
 21
368.32051282051219
 31
0.0
  0
LINE
  5
265D
  8
0
 10
373.86666666666667
 20
368.32051282051219
 30
0.0
 11
373.12820512820468
 21
368.32051282051219
 31
0.0
  0
ARC
  5
265E
  8
0
 10
376.12079540378068
 20
367.1113950845874
 30
0.0
 40
1.435897435898192
 50
176.76968023270729
 51
226.83313873999711
  0
ARC
  5
265F
  8
0
 10
375.99848225536658
 20
367.11341319880029
 30
0.0
 40
2.0512820512831311
 50
177.79579960996469
 51
210.76639186197079
  0
LINE
  5
2660
  8
0
 10
374.68717948717989
 20
367.19230769230637
 30
0.0
 11
374.68717948717989
 21
368.93589743589712
 31
0.0
  0
LINE
  5
2661
  8
0
 10
373.94871794871801
 20
367.19230769230637
 30
0.0
 11
373.94871794871801
 21
368.93589743589712
 31
0.0
  0
LINE
  5
2662
  8
0
 10
373.57948717948699
 20
366.06410256410072
 30
0.0
 11
373.12820512820468
 21
366.06410256410072
 31
0.0
  0
ARC
  5
2663
  8
0
 10
373.12820512820468
 20
367.19230769230637
 30
0.0
 40
0.389743589743795
 50
219.16671071612129
 51
270.0
  0
LINE
  5
2664
  8
0
 10
373.12820512820468
 20
366.8025641025626
 30
0.0
 11
373.94871794871801
 21
366.8025641025626
 31
0.0
  0
LINE
  5
2665
  8
0
 10
373.12820512820468
 20
367.58205128205032
 30
0.0
 11
373.86666666666667
 21
367.58205128205032
 31
0.0
  0
LINE
  5
2666
  8
0
 10
372.82603241307311
 20
366.94615384615241
 30
0.0
 11
373.78461538461528
 21
366.94615384615241
 31
0.0
  0
LINE
  5
2667
  8
0
 10
372.82603241307311
 20
367.43846153846039
 30
0.0
 11
373.78461538461528
 21
367.43846153846039
 31
0.0
  0
LINE
  5
2668
  8
0
 10
373.78461538461528
 20
366.94615384615241
 30
0.0
 11
373.78461538461528
 21
367.43846153846039
 31
0.0
  0
ARC
  5
2669
  8
0
 10
373.12820512820468
 20
367.19230769230637
 30
0.0
 40
0.389743589743795
 50
90.0
 51
140.8332892838786
  0
LINE
  5
266A
  8
0
 10
373.86666666666667
 20
367.58205128205032
 30
0.0
 11
373.86666666666667
 21
368.32051282051219
 31
0.0
  0
ARC
  5
266B
  8
0
 10
373.12820512820468
 20
367.19230769230637
 30
0.0
 40
1.1282051282057219
 50
90.0
 51
270.0
  0
LINE
  5
266C
  8
0
 10
378.87179487179742
 20
368.32051282051219
 30
0.0
 11
378.3794871794895
 21
368.32051282051219
 31
0.0
  0
LINE
  5
266D
  8
0
 10
380.00000000000318
 20
366.06410256410072
 30
0.0
 11
379.17948717948991
 21
366.06410256410072
 31
0.0
  0
LINE
  5
266E
  8
0
 10
373.94871794871801
 20
368.93589743589712
 30
0.0
 11
374.68717948717989
 21
368.93589743589712
 31
0.0
  0
TEXT
  5
266F
  8
0
 10
372.91249999999911
 20
363.49999999999892
 30
0.0
 40
1.5
  1
CLAYTON
 41
0.65
  7
06500
 72
     1
 11
375.99999999999909
 21
363.49999999999892
 31
0.0
  0
LINE
  5
2670
  8
3
 10
357.79711762656279
 20
362.77483182341831
 30
0.0
 11
351.72949016875077
 21
358.36644243122481
 31
0.0
  0
LINE
  5
2671
  8
0
 10
354.6012283833582
 20
369.04711762656262
 30
0.0
 11
347.46830451114442
 21
366.72949016875049
 31
0.0
  0
LINE
  5
2672
  8
3
 10
349.99999999999881
 20
375.99999999999892
 30
0.0
 11
345.99999999999909
 21
375.99999999999892
 31
0.0
  0
LINE
  5
2673
  8
0
 10
354.60122838335798
 20
382.95288237343527
 30
0.0
 11
347.46830451114448
 21
385.2705098312473
 31
0.0
  0
LINE
  5
2674
  8
3
 10
357.79711762656262
 20
389.2251681765797
 30
0.0
 11
351.72949016875071
 21
393.63355756877303
 31
0.0
  0
LINE
  5
2675
  8
0
 10
362.77483182341848
 20
394.2028823734351
 30
0.0
 11
358.36644243122493
 21
400.2705098312473
 31
0.0
  0
LINE
  5
2676
  8
3
 10
369.04711762656279
 20
397.39877161663992
 30
0.0
 11
366.7294901687506
 21
404.53169548885359
 31
0.0
  0
LINE
  5
2677
  8
0
 10
375.99999999999909
 20
398.49999999999892
 30
0.0
 11
375.99999999999909
 21
405.99999999999881
 31
0.0
  0
LINE
  5
2678
  8
3
 10
382.95288237343539
 20
397.39877161663992
 30
0.0
 11
385.27050983124752
 21
404.53169548885347
 31
0.0
  0
LINE
  5
2679
  8
0
 10
389.22516817657981
 20
394.20288237343522
 30
0.0
 11
393.63355756877331
 21
400.2705098312473
 31
0.0
  0
LINE
  5
267A
  8
3
 10
394.20288237343539
 20
389.2251681765797
 30
0.0
 11
400.27050983124752
 21
393.63355756877303
 31
0.0
  0
LINE
  5
267B
  8
0
 10
397.39877161663998
 20
382.95288237343522
 30
0.0
 11
404.5316954888537
 21
385.2705098312473
 31
0.0
  0
LINE
  5
267C
  8
3
 10
398.49999999999909
 20
375.99999999999892
 30
0.0
 11
405.99999999999898
 21
375.99999999999892
 31
0.0
  0
LINE
  5
267D
  8
0
 10
397.39877161663992
 20
369.04711762656262
 30
0.0
 11
404.5316954888537
 21
366.72949016875049
 31
0.0
  0
LINE
  5
267E
  8
3
 10
394.2028823734355
 20
362.7748318234182
 30
0.0
 11
400.27050983124758
 21
358.36644243122458
 31
0.0
  0
LINE
  5
267F
  8
0
 10
389.22516817657981
 20
357.79711762656251
 30
0.0
 11
393.6335575687732
 21
351.72949016875049
 31
0.0
  0
CIRCLE
  5
2680
  8
0
 10
375.99999999999909
 20
375.99999999999892
 30
0.0
 40
34.25
  0
CIRCLE
  5
2681
  8
0
 10
375.99999999999909
 20
375.99999999999892
 30
0.0
 40
30.0
  0
LINE
  5
2682
  8
0
 10
375.99999999999909
 20
353.49999999999892
 30
0.0
 11
375.99999999999909
 21
345.99999999999892
 31
0.0
  0
LINE
  5
2683
  8
3
 10
369.04711762656268
 20
354.60122838335792
 30
0.0
 11
366.7294901687506
 21
347.46830451114442
 31
0.0
  0
LINE
  5
2684
  8
3
 10
382.95288237343539
 20
354.60122838335798
 30
0.0
 11
385.27050983124752
 21
347.46830451114442
 31
0.0
  0
LINE
  5
2685
  8
0
 10
397.74999999999909
 20
365.49999999999892
 30
0.0
 11
397.74999999999909
 21
362.52098005422528
 31
0.0
  0
LINE
  5
2686
  8
0
 10
397.24999999999909
 20
365.49999999999892
 30
0.0
 11
397.24999999999909
 21
362.52098005422403
 31
0.0
  0
LINE
  5
2687
  8
0
 10
354.24999999999909
 20
365.49999999999892
 30
0.0
 11
354.24999999999909
 21
362.52098005422403
 31
0.0
  0
LINE
  5
2688
  8
0
 10
354.74999999999909
 20
365.49999999999892
 30
0.0
 11
354.74999999999909
 21
362.52098005422511
 31
0.0
  0
CIRCLE
  5
2689
  8
0
 10
354.49999999999909
 20
363.99999999999892
 30
0.0
 40
1.5
  0
CIRCLE
  5
268A
  8
0
 10
397.49999999999909
 20
363.99999999999892
 30
0.0
 40
1.5
  0
TEXT
  5
268B
  8
0
 10
374.47619047618957
 20
383.5499999999991
 30
0.0
 40
2.0
  1
20
 41
0.8
  7
08000
 72
     1
 11
375.99999999999909
 21
383.5499999999991
 31
0.0
  0
TEXT
  5
268C
  8
0
 10
375.19047619047529
 20
385.74999999999909
 30
0.0
 40
2.0
  1
1
 72
     1
 11
375.99999999999909
 21
385.74999999999909
 31
0.0
  0
LINE
  5
268D
  8
0
 10
377.49999999999909
 20
385.74999999999909
 30
0.0
 11
374.49999999999909
 21
385.74999999999909
 31
0.0
  0
TEXT
  5
268E
  8
0
 10
372.92857142857048
 20
355.24999999999892
 30
0.0
 40
4.0
  1
10
 41
0.75
  7
07500
 72
     4
 11
375.99999999999909
 21
357.24999999999892
 31
0.0
  0
TEXT
  5
268F
  8
0
 10
361.90759794808679
 20
389.16906864452898
 30
0.0
 40
4.0
  1
18
 41
0.75
  7
07500
 72
     4
 11
364.9790265195154
 21
391.16906864452898
 31
0.0
  0
TEXT
  5
2690
  8
0
 10
355.09626174803651
 20
379.7940686445292
 30
0.0
 40
4.0
  1
16
 41
0.75
  7
07500
 72
     4
 11
358.16769031946501
 21
381.7940686445292
 31
0.0
  0
TEXT
  5
2691
  8
0
 10
355.02483317660779
 20
368.20593135546858
 30
0.0
 40
4.0
  1
14
 41
0.75
  7
07500
 72
     4
 11
358.1676903194649
 21
370.20593135546858
 31
0.0
  0
TEXT
  5
2692
  8
0
 10
361.90759794808662
 20
358.83093135546858
 30
0.0
 40
4.0
  1
12
 41
0.75
  7
07500
 72
     4
 11
364.97902651951517
 21
360.83093135546858
 31
0.0
  0
TEXT
  5
2693
  8
0
 10
385.11621157572091
 20
358.83093135546892
 30
0.0
 40
4.0
  1
8
 72
     4
 11
387.02097348048278
 21
360.83093135546892
 31
0.0
  0
TEXT
  5
2694
  8
0
 10
391.83230968053323
 20
368.20593135546858
 30
0.0
 40
4.0
  1
6
 72
     4
 11
393.83230968053323
 21
370.20593135546858
 31
0.0
  0
TEXT
  5
2695
  8
0
 10
391.8323096805334
 20
379.7940686445292
 30
0.0
 40
4.0
  1
4
 72
     4
 11
393.8323096805334
 21
381.7940686445292
 31
0.0
  0
TEXT
  5
2696
  8
0
 10
385.11621157572102
 20
389.1690686445292
 30
0.0
 40
4.0
  1
2
 72
     4
 11
387.02097348048289
 21
391.1690686445292
 31
0.0
  0
TEXT
  5
2697
  8
0
 10
374.09523809523722
 20
392.74999999999892
 30
0.0
 40
4.0
  1
0
 72
     4
 11
375.99999999999909
 21
394.74999999999892
 31
0.0
  0
LINE
  5
2698
  8
0
 10
362.77483182341842
 20
357.79711762656251
 30
0.0
 11
358.36644243122498
 21
351.72949016875049
 31
0.0
  0
SOLID
  5
2699
  8
0
 10
380.39999999999912
 20
378.79999999999899
 30
0.0
 11
380.39235267020388
 21
375.72995499110141
 31
0.0
 12
396.78728948150308
 22
384.61037722821339
 32
0.0
 13
396.78728948150308
 23
384.61037722821339
 33
0.0
  0
SOLID
  5
269A
  8
0
 10
372.07984810532508
 20
373.96632977977163
 30
0.0
 11
373.00644366757177
 21
371.72933020656092
 31
0.0
 12
376.40149801461109
 22
373.56828307760048
 32
0.0
 13
376.40149801461109
 23
373.56828307760048
 33
0.0
  0
SOLID
  5
269B
  8
0
 10
375.84035844833539
 20
378.38273004695083
 30
0.0
 11
380.39999999999912
 21
378.79999999999899
 31
0.0
 12
396.78728948150342
 22
384.61037722821351
 32
0.0
 13
396.78728948150342
 23
384.61037722821351
 33
0.0
  0
LINE
  5
269C
  8
0
 10
376.40149801461109
 20
373.56828307760048
 30
0.0
 11
373.00644366757177
 21
371.72933020656092
 31
0.0
  0
LINE
  5
269D
  8
0
 10
375.84035844833539
 20
378.38273004695083
 30
0.0
 11
396.78728948150308
 21
384.61037722821339
 31
0.0
  0
LINE
  5
269E
  8
0
 10
378.09999999999911
 20
378.58815789473579
 30
0.0
 11
378.09999999999911
 21
373.41184210526211
 31
0.0
  0
LINE
  5
269F
  8
0
 10
377.89999999999918
 20
378.56973684210419
 30
0.0
 11
377.89999999999918
 21
373.43026315789371
 31
0.0
  0
LINE
  5
26A0
  8
0
 10
374.09999999999911
 20
378.21973684210423
 30
0.0
 11
374.09999999999923
 21
373.78026315789361
 31
0.0
  0
LINE
  5
26A1
  8
0
 10
373.89999999999912
 20
378.20131578947257
 30
0.0
 11
373.89999999999912
 21
373.79868421052521
 31
0.0
  0
LINE
  5
26A2
  8
0
 10
373.00644366757177
 20
371.72933020656092
 30
0.0
 11
372.07984810532508
 21
373.96632977977163
 31
0.0
  0
LINE
  5
26A3
  8
0
 10
396.78728948150308
 20
384.61037722821339
 30
0.0
 11
380.39235267020388
 21
375.72995499110141
 31
0.0
  0
LINE
  5
26A4
  8
0
 10
349.99999999999909
 20
375.99999999999892
 30
0.0
 11
380.39999999999912
 21
378.79999999999899
 31
0.0
  0
LINE
  5
26A5
  8
0
 10
380.39999999999912
 20
373.19999999999891
 30
0.0
 11
349.99999999999909
 21
375.99999999999892
 31
0.0
  0
LINE
  5
26A6
  8
0
 10
380.39999999999912
 20
378.79999999999899
 30
0.0
 11
380.39999999999912
 21
373.19999999999891
 31
0.0
  0
POLYLINE
  5
26A7
  8
0
 66
     1
 10
0.0
 20
0.0
 30
0.0
 70
     1
 40
1.0
 41
1.0
  0
VERTEX
  5
26A8
  8
0
 10
375.49999999999909
 20
375.99999999999892
 30
0.0
 42
1.0
  0
VERTEX
  5
26A9
  8
0
 10
376.49999999999909
 20
375.99999999999892
 30
0.0
 42
1.0
  0
SEQEND
  5
26AA
  8
0
  0
CIRCLE
  5
26AB
  8
0
 10
375.99999999999909
 20
375.99999999999892
 30
0.0
 40
1.0
  0
LINE
  5
26AC
  8
0
 10
703.65588194840075
 20
380.63205575215221
 30
0.0
 11
650.34401402631704
 21
433.27179586034538
 31
0.0
  0
ARC
  5
26AE
  8
0
 10
656.26666666666597
 20
366.35128205128029
 30
0.0
 40
0.2871794871796385
 50
270.0
 51
0.0
  0
LINE
  5
26AF
  8
0
 10
656.55384615384571
 20
366.4743589743573
 30
0.0
 11
656.55384615384571
 21
366.35128205128029
 31
0.0
  0
ARC
  5
26B0
  8
0
 10
653.57948717948523
 20
366.35128205128029
 30
0.0
 40
0.2871794871796385
 50
270.0
 51
0.0
  0
LINE
  5
26B1
  8
0
 10
653.86666666666486
 20
366.4743589743573
 30
0.0
 11
653.86666666666486
 21
366.35128205128029
 31
0.0
  0
ARC
  5
26B2
  8
0
 10
658.63295075362134
 20
366.88461538461399
 30
0.0
 40
0.061538461538494
 50
90.0
 51
235.43967822000971
  0
ARC
  5
26B3
  8
0
 10
658.83076923076999
 20
367.17179487179362
 30
0.0
 40
0.4102564102566264
 50
40.541601873493697
 51
90.0
  0
ARC
  5
26B4
  8
0
 10
658.83076923076999
 20
367.17179487179362
 30
0.0
 40
0.4102564102566264
 50
235.43967822000971
 51
326.63298703076271
  0
ARC
  5
26B5
  8
0
 10
659.50765674806712
 20
366.31030381595639
 30
0.0
 40
0.4102564102566264
 50
194.95437033353079
 51
216.87817385345309
  0
LINE
  5
26B6
  8
0
 10
657.06666666666649
 20
366.91074592114933
 30
0.0
 11
657.06666666666649
 21
366.88461538461399
 31
0.0
  0
LINE
  5
26B7
  8
0
 10
656.98461538461515
 20
366.06410256410072
 30
0.0
 11
656.63589743589705
 21
366.06410256410072
 31
0.0
  0
LINE
  5
26B8
  8
0
 10
658.63295075362134
 20
366.94615384615241
 30
0.0
 11
659.17340088386743
 21
366.94615384615241
 31
0.0
  0
LINE
  5
26B9
  8
0
 10
657.99586184680459
 20
367.43846153846039
 30
0.0
 11
659.14253711084336
 21
367.43846153846039
 31
0.0
  0
ARC
  5
26BA
  8
0
 10
658.64615384615445
 20
366.9051282051268
 30
0.0
 40
0.8410256410260839
 50
140.6433010727404
 51
303.57748737918712
  0
ARC
  5
26BB
  8
0
 10
660.28577995569469
 20
366.3584495346654
 30
0.0
 40
0.4102564102566264
 50
175.2660374531107
 51
225.84605298605661
  0
LINE
  5
26BC
  8
0
 10
657.88717948717976
 20
368.32051282051219
 30
0.0
 11
657.45641006473716
 21
368.32051282051219
 31
0.0
  0
ARC
  5
26BD
  8
0
 10
658.37948717948768
 20
367.9102564102555
 30
0.0
 40
0.4102564102566264
 50
90.0
 51
180.0
  0
ARC
  5
26BE
  8
0
 10
657.14928972308178
 20
367.94088269743378
 30
0.0
 40
0.8205128205132528
 50
334.06662005680408
 51
357.86089300733948
  0
ARC
  5
26BF
  8
0
 10
658.88338244061617
 20
367.3243554666746
 30
0.0
 40
0.996224746408062
 50
4.206846717150639
 51
90.666449776468255
  0
LINE
  5
26C0
  8
0
 10
659.87692307692441
 20
367.39743589743472
 30
0.0
 11
659.87692307692441
 21
366.39230769230602
 31
0.0
  0
LINE
  5
26C1
  8
0
 10
657.88717948717976
 20
367.58205128205032
 30
0.0
 11
658.83076923076999
 21
367.58205128205032
 31
0.0
  0
ARC
  5
26C2
  8
0
 10
654.68660771281395
 20
366.44373268717908
 30
0.0
 40
0.8205128205132528
 50
154.06662005680411
 51
177.86089300733951
  0
ARC
  5
26C3
  8
0
 10
657.37378719999492
 20
366.44373268717908
 30
0.0
 40
0.8205128205132528
 50
154.06662005680411
 51
177.86089300733951
  0
LINE
  5
26C4
  8
0
 10
656.63589743589705
 20
366.8025641025626
 30
0.0
 11
656.63589743589705
 21
366.06410256410072
 31
0.0
  0
LINE
  5
26C5
  8
0
 10
654.23589743589582
 20
366.06410256410072
 30
0.0
 11
655.13846153846032
 21
366.06410256410072
 31
0.0
  0
ARC
  5
26C6
  8
0
 10
656.98461538461515
 20
366.91074592114933
 30
0.0
 40
0.0820512820513253
 50
0.0
 51
54.900367804607797
  0
ARC
  5
26C7
  8
0
 10
656.98461538461515
 20
366.88461538461399
 30
0.0
 40
0.0820512820513253
 50
270.0
 51
0.0
  0
ARC
  5
26C8
  8
0
 10
657.45641025641032
 20
367.47386946346359
 30
0.0
 40
0.0820512820513253
 50
180.0
 51
234.90036780460369
  0
ARC
  5
26C9
  8
0
 10
657.45641025641032
 20
367.49999999999881
 30
0.0
 40
0.0820512820513253
 50
90.0
 51
180.0
  0
LINE
  5
26CA
  8
0
 10
657.37435897435898
 20
367.47386946346359
 30
0.0
 11
657.37435897435898
 21
367.49999999999881
 31
0.0
  0
ARC
  5
26CB
  8
0
 10
656.98461538461515
 20
366.8025641025626
 30
0.0
 40
0.7384615384619276
 50
270.0
 51
54.900367804607797
  0
ARC
  5
26CC
  8
0
 10
657.45641025641032
 20
367.58205128205032
 30
0.0
 40
0.7384615384619276
 50
90.0
 51
234.90036780460781
  0
LINE
  5
26CD
  8
0
 10
657.45641025641032
 20
367.58205128205032
 30
0.0
 11
657.88717948717976
 21
367.58205128205032
 31
0.0
  0
LINE
  5
26CE
  8
0
 10
657.88717948717976
 20
367.58205128205032
 30
0.0
 11
657.88717948717976
 21
368.32051282051219
 31
0.0
  0
ARC
  5
26CF
  8
0
 10
655.89743589743512
 20
367.19230769230637
 30
0.0
 40
1.1282051282057219
 50
90.0
 51
270.0
  0
LINE
  5
26D0
  8
0
 10
656.63589743589705
 20
367.58205128205032
 30
0.0
 11
656.63589743589705
 21
368.32051282051219
 31
0.0
  0
ARC
  5
26D1
  8
0
 10
655.89743589743512
 20
367.19230769230637
 30
0.0
 40
0.389743589743795
 50
90.0
 51
140.83328928387951
  0
LINE
  5
26D2
  8
0
 10
656.55384615384571
 20
366.94615384615241
 30
0.0
 11
656.55384615384571
 21
367.43846153846039
 31
0.0
  0
LINE
  5
26D3
  8
0
 10
655.59526318230348
 20
367.43846153846039
 30
0.0
 11
656.55384615384571
 21
367.43846153846039
 31
0.0
  0
LINE
  5
26D4
  8
0
 10
655.59526318230348
 20
366.94615384615241
 30
0.0
 11
656.55384615384571
 21
366.94615384615241
 31
0.0
  0
LINE
  5
26D5
  8
0
 10
655.89743589743512
 20
367.58205128205032
 30
0.0
 11
656.63589743589705
 21
367.58205128205032
 31
0.0
  0
LINE
  5
26D6
  8
0
 10
655.89743589743512
 20
366.8025641025626
 30
0.0
 11
656.98461538461515
 21
366.8025641025626
 31
0.0
  0
ARC
  5
26D7
  8
0
 10
655.89743589743512
 20
367.19230769230637
 30
0.0
 40
0.389743589743795
 50
219.16671071612049
 51
270.0
  0
LINE
  5
26D8
  8
0
 10
656.26666666666597
 20
366.06410256410072
 30
0.0
 11
655.89743589743512
 21
366.06410256410072
 31
0.0
  0
LINE
  5
26D9
  8
0
 10
656.63589743589705
 20
368.32051282051219
 30
0.0
 11
655.89743589743512
 21
368.32051282051219
 31
0.0
  0
LINE
  5
26DA
  8
0
 10
653.86666666666486
 20
368.32051282051219
 30
0.0
 11
653.12820512820292
 21
368.32051282051219
 31
0.0
  0
ARC
  5
26DB
  8
0
 10
656.12079540377886
 20
367.1113950845874
 30
0.0
 40
1.435897435898192
 50
176.7696802327072
 51
226.83313873999671
  0
ARC
  5
26DC
  8
0
 10
655.99848225536482
 20
367.11341319880029
 30
0.0
 40
2.0512820512831311
 50
177.79579960996469
 51
210.76639186197119
  0
LINE
  5
26DD
  8
0
 10
654.68717948717813
 20
367.19230769230637
 30
0.0
 11
654.68717948717813
 21
368.93589743589712
 31
0.0
  0
LINE
  5
26DE
  8
0
 10
653.94871794871619
 20
367.19230769230637
 30
0.0
 11
653.94871794871619
 21
368.93589743589712
 31
0.0
  0
LINE
  5
26DF
  8
0
 10
653.57948717948523
 20
366.06410256410072
 30
0.0
 11
653.12820512820292
 21
366.06410256410072
 31
0.0
  0
ARC
  5
26E0
  8
0
 10
653.12820512820292
 20
367.19230769230637
 30
0.0
 40
0.389743589743795
 50
219.16671071612049
 51
270.0
  0
LINE
  5
26E1
  8
0
 10
653.12820512820292
 20
366.8025641025626
 30
0.0
 11
653.94871794871619
 21
366.8025641025626
 31
0.0
  0
LINE
  5
26E2
  8
0
 10
653.12820512820292
 20
367.58205128205032
 30
0.0
 11
653.86666666666486
 21
367.58205128205032
 31
0.0
  0
LINE
  5
26E3
  8
0
 10
652.82603241307118
 20
366.94615384615241
 30
0.0
 11
653.7846153846134
 21
366.94615384615241
 31
0.0
  0
LINE
  5
26E4
  8
0
 10
652.82603241307118
 20
367.43846153846039
 30
0.0
 11
653.7846153846134
 21
367.43846153846039
 31
0.0
  0
LINE
  5
26E5
  8
0
 10
653.7846153846134
 20
366.94615384615241
 30
0.0
 11
653.7846153846134
 21
367.43846153846039
 31
0.0
  0
ARC
  5
26E6
  8
0
 10
653.12820512820292
 20
367.19230769230637
 30
0.0
 40
0.389743589743795
 50
90.0
 51
140.83328928387951
  0
LINE
  5
26E7
  8
0
 10
653.86666666666486
 20
367.58205128205032
 30
0.0
 11
653.86666666666486
 21
368.32051282051219
 31
0.0
  0
ARC
  5
26E8
  8
0
 10
653.12820512820292
 20
367.19230769230637
 30
0.0
 40
1.1282051282057219
 50
90.0
 51
270.0
  0
LINE
  5
26E9
  8
0
 10
658.8717948717956
 20
368.32051282051219
 30
0.0
 11
658.37948717948768
 21
368.32051282051219
 31
0.0
  0
LINE
  5
26EA
  8
0
 10
660.00000000000125
 20
366.06410256410072
 30
0.0
 11
659.17948717948798
 21
366.06410256410072
 31
0.0
  0
LINE
  5
26EB
  8
0
 10
653.94871794871619
 20
368.93589743589712
 30
0.0
 11
654.68717948717813
 21
368.93589743589712
 31
0.0
  0
TEXT
  5
26EC
  8
0
 10
652.91249999999718
 20
363.49999999999892
 30
0.0
 40
1.5
  1
CLAYTON
 41
0.65
  7
06500
 72
     1
 11
655.99999999999716
 21
363.49999999999892
 31
0.0
  0
LINE
  5
26ED
  8
3
 10
637.79711762656086
 20
362.77483182341831
 30
0.0
 11
631.72949016874895
 21
358.36644243122481
 31
0.0
  0
LINE
  5
26EE
  8
0
 10
634.60122838335633
 20
369.04711762656262
 30
0.0
 11
627.46830451114261
 21
366.72949016875049
 31
0.0
  0
LINE
  5
26EF
  8
3
 10
629.99999999999693
 20
375.99999999999892
 30
0.0
 11
625.99999999999727
 21
375.99999999999892
 31
0.0
  0
LINE
  5
26F0
  8
0
 10
634.6012283833561
 20
382.95288237343527
 30
0.0
 11
627.46830451114261
 21
385.2705098312473
 31
0.0
  0
LINE
  5
26F1
  8
3
 10
637.79711762656075
 20
389.2251681765797
 30
0.0
 11
631.72949016874884
 21
393.63355756877303
 31
0.0
  0
LINE
  5
26F2
  8
0
 10
642.77483182341655
 20
394.2028823734351
 30
0.0
 11
638.36644243122305
 21
400.2705098312473
 31
0.0
  0
LINE
  5
26F3
  8
3
 10
649.04711762656086
 20
397.39877161663992
 30
0.0
 11
646.72949016874884
 21
404.53169548885359
 31
0.0
  0
LINE
  5
26F4
  8
0
 10
655.99999999999716
 20
398.49999999999892
 30
0.0
 11
655.99999999999716
 21
405.99999999999881
 31
0.0
  0
LINE
  5
26F5
  8
3
 10
662.95288237343345
 20
397.39877161663992
 30
0.0
 11
665.27050983124559
 21
404.53169548885347
 31
0.0
  0
LINE
  5
26F6
  8
0
 10
669.22516817657799
 20
394.20288237343522
 30
0.0
 11
673.63355756877138
 21
400.2705098312473
 31
0.0
  0
LINE
  5
26F7
  8
3
 10
674.20288237343357
 20
389.2251681765797
 30
0.0
 11
680.2705098312457
 21
393.63355756877303
 31
0.0
  0
LINE
  5
26F8
  8
0
 10
677.39877161663821
 20
382.95288237343522
 30
0.0
 11
684.53169548885194
 21
385.2705098312473
 31
0.0
  0
LINE
  5
26F9
  8
3
 10
678.49999999999716
 20
375.99999999999892
 30
0.0
 11
685.99999999999716
 21
375.99999999999892
 31
0.0
  0
LINE
  5
26FA
  8
0
 10
677.3987716166381
 20
369.04711762656262
 30
0.0
 11
684.53169548885194
 21
366.72949016875049
 31
0.0
  0
LINE
  5
26FB
  8
3
 10
674.20288237343368
 20
362.7748318234182
 30
0.0
 11
680.27050983124582
 21
358.36644243122458
 31
0.0
  0
LINE
  5
26FC
  8
0
 10
669.22516817657799
 20
357.79711762656251
 30
0.0
 11
673.63355756877127
 21
351.72949016875049
 31
0.0
  0
CIRCLE
  5
26FD
  8
0
 10
655.99999999999716
 20
375.99999999999892
 30
0.0
 40
34.25
  0
CIRCLE
  5
26FE
  8
0
 10
655.99999999999716
 20
375.99999999999892
 30
0.0
 40
30.0
  0
LINE
  5
26FF
  8
0
 10
655.99999999999716
 20
353.49999999999892
 30
0.0
 11
655.99999999999716
 21
345.99999999999892
 31
0.0
  0
LINE
  5
2700
  8
3
 10
649.04711762656086
 20
354.60122838335792
 30
0.0
 11
646.72949016874884
 21
347.46830451114442
 31
0.0
  0
LINE
  5
2701
  8
3
 10
662.95288237343345
 20
354.60122838335798
 30
0.0
 11
665.27050983124559
 21
347.46830451114442
 31
0.0
  0
LINE
  5
2702
  8
0
 10
677.74999999999727
 20
365.49999999999892
 30
0.0
 11
677.74999999999727
 21
362.52098005422528
 31
0.0
  0
LINE
  5
2703
  8
0
 10
677.24999999999716
 20
365.49999999999892
 30
0.0
 11
677.24999999999716
 21
362.52098005422403
 31
0.0
  0
LINE
  5
2704
  8
0
 10
634.24999999999716
 20
365.49999999999892
 30
0.0
 11
634.24999999999716
 21
362.52098005422403
 31
0.0
  0
LINE
  5
2705
  8
0
 10
634.74999999999716
 20
365.49999999999892
 30
0.0
 11
634.74999999999716
 21
362.52098005422511
 31
0.0
  0
CIRCLE
  5
2706
  8
0
 10
634.49999999999727
 20
363.99999999999892
 30
0.0
 40
1.5
  0
CIRCLE
  5
2707
  8
0
 10
677.49999999999716
 20
363.99999999999892
 30
0.0
 40
1.5
  0
TEXT
  5
2708
  8
0
 10
654.47619047618775
 20
383.5499999999991
 30
0.0
 40
2.0
  1
20
 41
0.8
  7
08000
 72
     1
 11
655.99999999999716
 21
383.5499999999991
 31
0.0
  0
TEXT
  5
2709
  8
0
 10
655.19047619047342
 20
385.74999999999909
 30
0.0
 40
2.0
  1
1
 72
     1
 11
655.99999999999716
 21
385.74999999999909
 31
0.0
  0
LINE
  5
270A
  8
0
 10
657.49999999999716
 20
385.74999999999909
 30
0.0
 11
654.49999999999727
 21
385.74999999999909
 31
0.0
  0
TEXT
  5
270B
  8
0
 10
652.92857142856872
 20
355.24999999999892
 30
0.0
 40
4.0
  1
10
 41
0.75
  7
07500
 72
     4
 11
655.99999999999716
 21
357.24999999999892
 31
0.0
  0
TEXT
  5
270C
  8
0
 10
641.90759794808503
 20
389.16906864452898
 30
0.0
 40
4.0
  1
18
 41
0.75
  7
07500
 72
     4
 11
644.97902651951358
 21
391.16906864452898
 31
0.0
  0
TEXT
  5
270D
  8
0
 10
635.09626174803464
 20
379.7940686445292
 30
0.0
 40
4.0
  1
16
 41
0.75
  7
07500
 72
     4
 11
638.16769031946308
 21
381.7940686445292
 31
0.0
  0
TEXT
  5
270E
  8
0
 10
635.02483317660585
 20
368.20593135546858
 30
0.0
 40
4.0
  1
14
 41
0.75
  7
07500
 72
     4
 11
638.16769031946296
 21
370.20593135546858
 31
0.0
  0
TEXT
  5
270F
  8
0
 10
641.90759794808469
 20
358.83093135546858
 30
0.0
 40
4.0
  1
12
 41
0.75
  7
07500
 72
     4
 11
644.97902651951335
 21
360.83093135546858
 31
0.0
  0
TEXT
  5
2710
  8
0
 10
665.11621157571903
 20
358.83093135546892
 30
0.0
 40
4.0
  1
8
 72
     4
 11
667.02097348048085
 21
360.83093135546892
 31
0.0
  0
TEXT
  5
2711
  8
0
 10
671.83230968053135
 20
368.20593135546858
 30
0.0
 40
4.0
  1
6
 72
     4
 11
673.83230968053135
 21
370.20593135546858
 31
0.0
  0
TEXT
  5
2712
  8
0
 10
671.83230968053147
 20
379.7940686445292
 30
0.0
 40
4.0
  1
4
 72
     4
 11
673.83230968053158
 21
381.7940686445292
 31
0.0
  0
TEXT
  5
2713
  8
0
 10
665.11621157571915
 20
389.1690686445292
 30
0.0
 40
4.0
  1
2
 72
     4
 11
667.02097348048096
 21
391.1690686445292
 31
0.0
  0
TEXT
  5
2714
  8
0
 10
654.09523809523535
 20
392.74999999999892
 30
0.0
 40
4.0
  1
0
 72
     4
 11
655.99999999999716
 21
394.74999999999892
 31
0.0
  0
LINE
  5
2715
  8
0
 10
642.77483182341655
 20
357.79711762656251
 30
0.0
 11
638.36644243122316
 21
351.72949016875049
 31
0.0
  0
SOLID
  5
2716
  8
0
 10
660.39999999999725
 20
378.79999999999899
 30
0.0
 11
660.39235267020194
 21
375.72995499110141
 31
0.0
 12
676.78728948150115
 22
384.61037722821339
 32
0.0
 13
676.78728948150115
 23
384.61037722821339
 33
0.0
  0
SOLID
  5
2717
  8
0
 10
652.07984810532321
 20
373.96632977977163
 30
0.0
 11
653.00644366757001
 21
371.72933020656092
 31
0.0
 12
656.40149801460916
 22
373.56828307760048
 32
0.0
 13
656.40149801460916
 23
373.56828307760048
 33
0.0
  0
SOLID
  5
2718
  8
0
 10
655.84035844833363
 20
378.38273004695083
 30
0.0
 11
660.39999999999725
 21
378.79999999999899
 31
0.0
 12
676.7872894815016
 22
384.61037722821351
 32
0.0
 13
676.7872894815016
 23
384.61037722821351
 33
0.0
  0
LINE
  5
2719
  8
0
 10
656.40149801460916
 20
373.56828307760048
 30
0.0
 11
653.00644366757001
 21
371.72933020656092
 31
0.0
  0
LINE
  5
271A
  8
0
 10
655.84035844833363
 20
378.38273004695083
 30
0.0
 11
676.78728948150115
 21
384.61037722821339
 31
0.0
  0
LINE
  5
271B
  8
0
 10
658.09999999999707
 20
378.58815789473579
 30
0.0
 11
658.09999999999718
 21
373.41184210526211
 31
0.0
  0
LINE
  5
271C
  8
0
 10
657.89999999999725
 20
378.56973684210419
 30
0.0
 11
657.89999999999725
 21
373.43026315789371
 31
0.0
  0
LINE
  5
271D
  8
0
 10
654.09999999999718
 20
378.21973684210423
 30
0.0
 11
654.09999999999741
 21
373.78026315789361
 31
0.0
  0
LINE
  5
271E
  8
0
 10
653.89999999999725
 20
378.20131578947257
 30
0.0
 11
653.89999999999725
 21
373.79868421052521
 31
0.0
  0
LINE
  5
271F
  8
0
 10
653.00644366757001
 20
371.72933020656092
 30
0.0
 11
652.07984810532321
 21
373.96632977977163
 31
0.0
  0
LINE
  5
2720
  8
0
 10
676.78728948150115
 20
384.61037722821339
 30
0.0
 11
660.39235267020194
 21
375.72995499110141
 31
0.0
  0
LINE
  5
2721
  8
0
 10
629.99999999999727
 20
375.99999999999892
 30
0.0
 11
660.39999999999725
 21
378.79999999999899
 31
0.0
  0
LINE
  5
2722
  8
0
 10
660.39999999999725
 20
373.19999999999891
 30
0.0
 11
629.99999999999727
 21
375.99999999999892
 31
0.0
  0
LINE
  5
2723
  8
0
 10
660.39999999999725
 20
378.79999999999899
 30
0.0
 11
660.39999999999725
 21
373.19999999999891
 31
0.0
  0
POLYLINE
  5
2724
  8
0
 66
     1
 10
0.0
 20
0.0
 30
0.0
 70
     1
 40
1.0
 41
1.0
  0
VERTEX
  5
2725
  8
0
 10
655.49999999999727
 20
375.99999999999892
 30
0.0
 42
1.0
  0
VERTEX
  5
2726
  8
0
 10
656.49999999999716
 20
375.99999999999892
 30
0.0
 42
1.0
  0
SEQEND
  5
2727
  8
0
  0
CIRCLE
  5
2728
  8
0
 10
655.99999999999716
 20
375.99999999999892
 30
0.0
 40
1.0
  0
ARC
  5
2777
  8
0
 10
-454.60000000091389
 20
375.99999999992201
 30
0.0
 40
621.70000000091704
 50
3.4088476703931772
 51
6.7861269667942397
  0
ENDSEC
  0
EOF
