  0
SECTION
  2
HEADER
  9
$ACADVER
  1
AC1009
  9
$INSBASE
 10
0.0
 20
0.0
 30
0.0
  9
$EXTMIN
 10
0.0
 20
-2.960436562073669
 30
0.0
  9
$EXTMAX
 10
305.0
 20
248.5
 30
0.0
  9
$LIMMIN
 10
0.0
 20
0.0
  9
$LIMMAX
 10
375.0
 20
270.0
  9
$ORTHOMODE
 70
     1
  9
$REGENMODE
 70
     1
  9
$FILLMODE
 70
     1
  9
$QTEXTMODE
 70
     0
  9
$MIRRTEXT
 70
     0
  9
$DRAGMODE
 70
     2
  9
$LTSCALE
 40
10.0
  9
$OSMODE
 70
    37
  9
$ATTMODE
 70
     1
  9
$TEXTSIZE
 40
1.0
  9
$TRACEWID
 40
0.05
  9
$TEXTSTYLE
  7
K50
  9
$CLAYER
  8
0
  9
$CELTYPE
  6
BYLAYER
  9
$CECOLOR
 62
   256
  9
$DIMSCALE
 40
1.0
  9
$DIMASZ
 40
3.0
  9
$DIMEXO
 40
2.0
  9
$DIMDLI
 40
0.38
  9
$DIMRND
 40
0.0
  9
$DIMDLE
 40
0.0
  9
$DIMEXE
 40
2.0
  9
$DIMTP
 40
0.0
  9
$DIMTM
 40
0.0
  9
$DIMTXT
 40
3.2000000000000002
  9
$DIMCEN
 40
0.0
  9
$DIMTSZ
 40
0.0
  9
$DIMTOL
 70
     0
  9
$DIMLIM
 70
     0
  9
$DIMTIH
 70
     0
  9
$DIMTOH
 70
     0
  9
$DIMSE1
 70
     0
  9
$DIMSE2
 70
     0
  9
$DIMTAD
 70
     1
  9
$DIMZIN
 70
     0
  9
$DIMBLK
  1

  9
$DIMASO
 70
     0
  9
$DIMSHO
 70
     0
  9
$DIMPOST
  1

  9
$DIMAPOST
  1

  9
$DIMALT
 70
     0
  9
$DIMALTD
 70
     2
  9
$DIMALTF
 40
25.399999999999999
  9
$DIMLFAC
 40
1.0
  9
$DIMTOFL
 70
     1
  9
$DIMTVP
 40
1.6000000000000001
  9
$DIMTIX
 70
     1
  9
$DIMSOXD
 70
     0
  9
$DIMSAH
 70
     0
  9
$DIMBLK1
  1

  9
$DIMBLK2
  1

  9
$DIMSTYLE
  2
STANDARD
  9
$DIMCLRD
 70
     0
  9
$DIMCLRE
 70
     0
  9
$DIMCLRT
 70
     0
  9
$DIMTFAC
 40
1.0
  9
$DIMGAP
 40
0.09
  9
$LUNITS
 70
     2
  9
$LUPREC
 70
     1
  9
$SKETCHINC
 40
0.1
  9
$FILLETRAD
 40
0.5
  9
$AUNITS
 70
     0
  9
$AUPREC
 70
     1
  9
$MENU
  1
E:\r13\win\SUPPORT\ACAD
  9
$ELEVATION
 40
0.0
  9
$PELEVATION
 40
0.0
  9
$THICKNESS
 40
0.0
  9
$LIMCHECK
 70
     0
  9
$BLIPMODE
 70
     0
  9
$CHAMFERA
 40
0.0
  9
$CHAMFERB
 40
0.0
  9
$SKPOLY
 70
     0
  9
$TDCREATE
 40
2449839.7915162039
  9
$TDUPDATE
 40
2457897.4091407638
  9
$TDINDWG
 40
0.0079740509
  9
$TDUSRTIMER
 40
0.0079740509
  9
$USRTIMER
 70
     1
  9
$ANGBASE
 50
0.0
  9
$ANGDIR
 70
     0
  9
$PDMODE
 70
     0
  9
$PDSIZE
 40
0.0
  9
$PLINEWID
 40
0.0
  9
$COORDS
 70
     1
  9
$SPLFRAME
 70
     0
  9
$SPLINETYPE
 70
     6
  9
$SPLINESEGS
 70
     8
  9
$ATTDIA
 70
     0
  9
$ATTREQ
 70
     1
  9
$HANDLING
 70
     1
  9
$HANDSEED
  5
56D
  9
$SURFTAB1
 70
     6
  9
$SURFTAB2
 70
     6
  9
$SURFTYPE
 70
     6
  9
$SURFU
 70
     6
  9
$SURFV
 70
     6
  9
$UCSNAME
  2

  9
$UCSORG
 10
0.0
 20
0.0
 30
0.0
  9
$UCSXDIR
 10
1.0
 20
0.0
 30
0.0
  9
$UCSYDIR
 10
0.0
 20
1.0
 30
0.0
  9
$PUCSNAME
  2

  9
$PUCSORG
 10
0.0
 20
0.0
 30
0.0
  9
$PUCSXDIR
 10
1.0
 20
0.0
 30
0.0
  9
$PUCSYDIR
 10
0.0
 20
1.0
 30
0.0
  9
$USERI1
 70
     0
  9
$USERI2
 70
     1
  9
$USERI3
 70
     0
  9
$USERI4
 70
     0
  9
$USERI5
 70
     0
  9
$USERR1
 40
0.0
  9
$USERR2
 40
0.0
  9
$USERR3
 40
0.0
  9
$USERR4
 40
0.0
  9
$USERR5
 40
0.0
  9
$WORLDVIEW
 70
     1
  9
$SHADEDGE
 70
     3
  9
$SHADEDIF
 70
    70
  9
$TILEMODE
 70
     1
  9
$MAXACTVP
 70
    16
  9
$PLIMCHECK
 70
     0
  9
$PEXTMIN
 10
1.0000000000000000E+020
 20
1.0000000000000000E+020
 30
1.0000000000000000E+020
  9
$PEXTMAX
 10
-1.0000000000000000E+020
 20
-1.0000000000000000E+020
 30
-1.0000000000000000E+020
  9
$PLIMMIN
 10
0.0
 20
0.0
  9
$PLIMMAX
 10
12.0
 20
9.0
  9
$UNITMODE
 70
     0
  9
$VISRETAIN
 70
     0
  9
$PLINEGEN
 70
     0
  9
$PSLTSCALE
 70
     0
  0
ENDSEC
  0
SECTION
  2
TABLES
  0
TABLE
  2
VPORT
 70
     1
  0
VPORT
  2
*ACTIVE
 70
     0
 10
0.0
 20
0.0
 11
1.0
 21
1.0
 12
272.4358974358974
 22
150.0
 13
0.0
 23
0.0
 14
10.0
 24
10.0
 15
10.0
 25
10.0
 16
0.0
 26
0.0
 36
1.0
 17
0.0
 27
0.0
 37
0.0
 40
300.0
 41
1.816239316239316
 42
50.0
 43
0.0
 44
0.0
 50
0.0
 51
0.0
 71
     0
 72
   500
 73
     1
 74
     0
 75
     0
 76
     0
 77
     0
 78
     2
  0
ENDTAB
  0
TABLE
  2
LTYPE
 70
     3
  0
LTYPE
  2
CONTINUOUS
 70
     0
  3
Solid Line
 72
    65
 73
     0
 40
0.0
  0
LTYPE
  2
CENTER
 70
     0
  3
____ _ ____ _ ____ _ ____ _ ____ _ ____ _ ____
 72
    65
 73
     4
 40
2.0
 49
1.25
 49
-0.25
 49
0.25
 49
-0.25
  0
LTYPE
  2
PHANTOM2
 70
     0
  3
___ _ _ ___ _ _ ___ _ _ ___ _ _
 72
    65
 73
     6
 40
1.25
 49
0.625
 49
-0.125
 49
0.125
 49
-0.125
 49
0.125
 49
-0.125
  0
ENDTAB
  0
TABLE
  2
LAYER
 70
     3
  0
LAYER
  2
0
 70
     0
 62
     7
  6
CONTINUOUS
  0
LAYER
  2
1
 70
     0
 62
     1
  6
CENTER
  0
LAYER
  2
3
 70
     0
 62
     3
  6
CONTINUOUS
  0
ENDTAB
  0
TABLE
  2
STYLE
 70
     4
  0
STYLE
  2
STANDARD
 70
     0
 40
0.0
 41
1.0
 50
0.0
 71
     0
 42
4.000000000000048
  3
romans.shx
  4

  0
STYLE
  2
06500
 70
     0
 40
0.0
 41
1.0
 50
0.0
 71
     0
 42
1.0
  3
romans.shx
  4

  0
STYLE
  2
K50
 70
     0
 40
0.0
 41
1.0
 50
0.0
 71
     0
 42
1.0
  3
romans.shx
  4

  0
STYLE
  2
STANDARD1
 70
     0
 40
0.0
 41
1.0
 50
0.0
 71
     0
 42
3.0
  3
txt
  4

  0
ENDTAB
  0
TABLE
  2
VIEW
 70
     1
  0
VIEW
  2
ALL
 70
     0
 40
270.0
 10
220.99159663865549
 20
135.0
 41
0.0
 11
0.0
 21
0.0
 31
1.0
 12
0.0
 22
0.0
 32
0.0
 42
0.0
 43
0.0
 44
0.0
 50
0.0
 71
     0
  0
ENDTAB
  0
TABLE
  2
UCS
 70
     0
  0
ENDTAB
  0
TABLE
  2
APPID
 70
     8
  0
APPID
  2
ACAD
 70
     0
  0
APPID
  2
ACAD_MLEADERVER
 70
     0
  0
APPID
  2
ACAD_NAV_VCDISPLAY
 70
     0
  0
APPID
  2
GRADIENTCOLOR1ACI
 70
     0
  0
APPID
  2
GRADIENTCOLOR2ACI
 70
     0
  0
APPID
  2
ACAD_EXEMPT_FROM_CAD_STANDARDS
 70
     0
  0
APPID
  2
ACAD_DSTYLE_DIMJAG
 70
     0
  0
APPID
  2
ACAD_DSTYLE_DIMTALN
 70
     0
  0
ENDTAB
  0
TABLE
  2
DIMSTYLE
 70
     1
  0
DIMSTYLE
  2
STANDARD
 70
     0
  3

  4

  5

  6

  7

 40
1.0
 41
0.18
 42
0.0625
 43
0.38
 44
0.18
 45
0.0
 46
0.0
 47
0.0
 48
0.0
140
0.18
141
0.09
142
0.0
143
25.399999999999999
144
1.0
145
0.0
146
1.0
147
0.09
 71
     0
 72
     0
 73
     1
 74
     1
 75
     0
 76
     0
 77
     0
 78
     0
170
     0
171
     2
172
     0
173
     0
174
     0
175
     0
176
     0
177
     0
178
     0
  0
ENDTAB
  0
ENDSEC
  0
SECTION
  2
BLOCKS
  0
BLOCK
  8
0
  2
$MODEL_SPACE
 70
     0
 10
0.0
 20
0.0
 30
0.0
  3
$MODEL_SPACE
  1

  0
ENDBLK
  5
186
  8
0
  0
BLOCK
 67
     1
  8
0
  2
$PAPER_SPACE
 70
     0
 10
0.0
 20
0.0
 30
0.0
  3
$PAPER_SPACE
  1

  0
ENDBLK
  5
184
 67
     1
  8
0
  0
BLOCK
  8
0
  2
*U0
 70
     1
 10
0.0
 20
0.0
 30
0.0
  3
*U0
  1

  0
SOLID
  5
545
  8
0
  6
CONTINUOUS
 10
133.36509786282551
 20
206.8098574960932
 30
0.0
 11
121.5776009838564
 21
202.80000000000001
 31
0.0
 12
127.6834534803245
 22
202.80000000000001
 32
0.0
 13
127.6834534803245
 23
202.80000000000001
 33
0.0
210
0.0
220
0.0
230
1.0
  0
SOLID
  5
546
  8
0
  6
CONTINUOUS
 10
-120.0
 20
202.2633334629129
 30
0.0
 11
-120.1066677033036
 21
202.2633334629129
 31
0.0
 12
-120.0
 22
202.24999999999989
 32
0.0
 13
-120.0
 23
202.24999999999989
 33
0.0
210
0.0
220
0.0
230
-1.0
  0
SOLID
  5
547
  8
0
  6
CONTINUOUS
 10
121.5776009838564
 20
202.80000000000001
 30
0.0
 11
120.0
 21
202.2633334629129
 31
0.0
 12
120.1066677033036
 22
202.2633334629129
 32
0.0
 13
120.1066677033036
 23
202.2633334629129
 33
0.0
210
0.0
220
0.0
230
1.0
  0
SOLID
  5
548
  8
0
  6
CONTINUOUS
 10
-121.5776009838564
 20
202.80000000000001
 30
0.0
 11
-124.40000000000001
 21
202.80000000000001
 31
0.0
 12
-120.1066677033036
 22
202.2633334629129
 32
0.0
 13
-120.1066677033036
 23
202.2633334629129
 33
0.0
210
0.0
220
0.0
230
-1.0
  0
SOLID
  5
549
  8
0
  6
CONTINUOUS
 10
-124.40000000000001
 20
202.24999999999989
 30
0.0
 11
-126.9041478782127
 21
202.24999999999989
 31
0.0
 12
-124.40000000000001
 22
200.4826813392786
 32
0.0
 13
-124.40000000000001
 23
200.4826813392786
 33
0.0
210
0.0
220
0.0
230
-1.0
  0
SOLID
  5
54A
  8
0
  6
CONTINUOUS
 10
124.40000000000001
 20
202.80000000000001
 30
0.0
 11
124.40000000000001
 21
202.24999999999989
 31
0.0
 12
126.9041478782127
 22
202.24999999999989
 32
0.0
 13
126.9041478782127
 23
202.24999999999989
 33
0.0
210
0.0
220
0.0
230
1.0
  0
SOLID
  5
54B
  8
0
  6
CONTINUOUS
 10
-124.40000000000001
 20
202.80000000000001
 30
0.0
 11
-127.6834534803245
 21
202.80000000000001
 31
0.0
 12
-126.9041478782127
 22
202.24999999999989
 32
0.0
 13
-126.9041478782127
 23
202.24999999999989
 33
0.0
210
0.0
220
0.0
230
-1.0
  0
LINE
  5
54C
  8
0
  6
CONTINUOUS
 10
133.36509786282551
 20
206.8098574960932
 30
0.0
 11
121.5776009838564
 21
202.80000000000001
 31
0.0
  0
LINE
  5
54D
  8
0
  6
CONTINUOUS
 10
127.6834534803245
 20
202.80000000000001
 30
0.0
 11
133.36509786282551
 21
206.8098574960932
 31
0.0
  0
LINE
  5
54E
  8
0
  6
CONTINUOUS
 10
120.1066677033036
 20
202.2633334629129
 30
0.0
 11
120.0
 21
202.24999999999989
 31
0.0
  0
LINE
  5
54F
  8
0
  6
CONTINUOUS
 10
120.0
 20
202.24999999999989
 30
0.0
 11
120.0
 21
202.2633334629129
 31
0.0
  0
LINE
  5
550
  8
0
  6
CONTINUOUS
 10
121.5776009838564
 20
202.80000000000001
 30
0.0
 11
120.0
 21
202.2633334629129
 31
0.0
  0
LINE
  5
551
  8
0
  6
CONTINUOUS
 10
124.40000000000001
 20
202.80000000000001
 30
0.0
 11
120.1066677033036
 21
202.2633334629129
 31
0.0
  0
LINE
  5
552
  8
0
  6
CONTINUOUS
 10
126.9041478782127
 20
202.24999999999989
 30
0.0
 11
124.40000000000001
 21
200.4826813392786
 31
0.0
  0
LINE
  5
553
  8
0
  6
CONTINUOUS
 10
124.40000000000001
 20
200.4826813392786
 30
0.0
 11
124.40000000000001
 21
202.24999999999989
 31
0.0
  0
LINE
  5
554
  8
0
  6
CONTINUOUS
 10
124.40000000000001
 20
202.80000000000001
 30
0.0
 11
124.40000000000001
 21
202.24999999999989
 31
0.0
  0
LINE
  5
555
  8
0
  6
CONTINUOUS
 10
127.6834534803245
 20
202.80000000000001
 30
0.0
 11
126.9041478782127
 21
202.24999999999989
 31
0.0
  0
ENDBLK
  5
557
  8
0
  0
BLOCK
  8
0
  2
*U1
 70
     1
 10
0.0
 20
0.0
 30
0.0
  3
*U1
  1

  0
SOLID
  5
559
  8
0
  6
CONTINUOUS
 10
115.950266532608
 20
198.2562166834239
 30
0.0
 11
116.2081968157712
 21
197.74999999999989
 31
0.0
 12
120.0
 22
197.74999999999989
 32
0.0
 13
120.0
 23
197.74999999999989
 33
0.0
  0
SOLID
  5
55A
  8
0
  6
CONTINUOUS
 10
120.0
 20
197.74999999999989
 30
0.0
 11
120.0
 21
197.6939295253411
 31
0.0
 12
120.44856379727089
 22
197.6939295253411
 32
0.0
 13
120.44856379727089
 23
197.6939295253411
 33
0.0
210
0.0
220
0.0
230
1.0
  0
SOLID
  5
55B
  8
0
  6
CONTINUOUS
 10
-120.0
 20
197.6939295253411
 30
0.0
 11
-120.44856379727089
 21
197.6939295253411
 31
0.0
 12
-120.0
 22
197.37735270640059
 32
0.0
 13
-120.0
 23
197.37735270640059
 33
0.0
210
0.0
220
0.0
230
-1.0
  0
SOLID
  5
55C
  8
0
  6
CONTINUOUS
 10
116.2081968157712
 20
197.74999999999989
 30
0.0
 11
116.2367661495751
 21
197.6939295253411
 31
0.0
 12
120.0
 22
197.6939295253411
 32
0.0
 13
120.0
 23
197.6939295253411
 33
0.0
210
0.0
220
0.0
230
1.0
  0
SOLID
  5
55D
  8
0
  6
CONTINUOUS
 10
-116.2081968157712
 20
197.74999999999989
 30
0.0
 11
-120.0
 21
197.74999999999989
 31
0.0
 12
-120.0
 22
197.6939295253411
 32
0.0
 13
-120.0
 23
197.6939295253411
 33
0.0
210
0.0
220
0.0
230
-1.0
  0
SOLID
  5
55E
  8
0
  6
CONTINUOUS
 10
-116.39807009554529
 20
197.37735270640059
 30
0.0
 11
-120.0
 21
197.37735270640059
 31
0.0
 12
-117.3507446928419
 22
195.5076235334185
 32
0.0
 13
-117.3507446928419
 23
195.5076235334185
 33
0.0
210
0.0
220
0.0
230
-1.0
  0
SOLID
  5
55F
  8
0
  6
CONTINUOUS
 10
116.2367661495751
 20
197.6939295253411
 30
0.0
 11
116.39807009554529
 21
197.37735270640059
 31
0.0
 12
120.0
 22
197.37735270640059
 32
0.0
 13
120.0
 23
197.37735270640059
 33
0.0
  0
SOLID
  5
560
  8
0
  6
CONTINUOUS
 10
-116.2367661495751
 20
197.6939295253411
 30
0.0
 11
-120.0
 21
197.6939295253411
 31
0.0
 12
-120.0
 22
197.37735270640059
 32
0.0
 13
-120.0
 23
197.37735270640059
 33
0.0
210
0.0
220
0.0
230
-1.0
  0
LINE
  5
561
  8
0
  6
CONTINUOUS
 10
115.950266532608
 20
198.2562166834239
 30
0.0
 11
116.2081968157712
 21
197.74999999999989
 31
0.0
  0
LINE
  5
562
  8
0
  6
CONTINUOUS
 10
120.0
 20
197.74999999999989
 30
0.0
 11
115.950266532608
 21
198.2562166834239
 31
0.0
  0
LINE
  5
563
  8
0
  6
CONTINUOUS
 10
120.0
 20
197.74999999999989
 30
0.0
 11
120.0
 21
197.6939295253411
 31
0.0
  0
LINE
  5
564
  8
0
  6
CONTINUOUS
 10
120.44856379727089
 20
197.6939295253411
 30
0.0
 11
120.0
 21
197.37735270640059
 31
0.0
  0
LINE
  5
565
  8
0
  6
CONTINUOUS
 10
120.0
 20
197.37735270640059
 30
0.0
 11
120.0
 21
197.6939295253411
 31
0.0
  0
LINE
  5
566
  8
0
  6
CONTINUOUS
 10
116.2081968157712
 20
197.74999999999989
 30
0.0
 11
116.2367661495751
 21
197.6939295253411
 31
0.0
  0
LINE
  5
567
  8
0
  6
CONTINUOUS
 10
120.0
 20
197.37735270640059
 30
0.0
 11
117.3507446928419
 21
195.5076235334185
 31
0.0
  0
LINE
  5
568
  8
0
  6
CONTINUOUS
 10
117.3507446928419
 20
195.5076235334185
 30
0.0
 11
116.39807009554529
 21
197.37735270640059
 31
0.0
  0
LINE
  5
569
  8
0
  6
CONTINUOUS
 10
116.2367661495751
 20
197.6939295253411
 30
0.0
 11
116.39807009554529
 21
197.37735270640059
 31
0.0
  0
LINE
  5
56A
  8
0
  6
CONTINUOUS
 10
120.0
 20
197.6939295253411
 30
0.0
 11
120.0
 21
197.37735270640059
 31
0.0
  0
ENDBLK
  5
56C
  8
0
  0
ENDSEC
  0
SECTION
  2
ENTITIES
  0
LINE
  5
35
  8
0
 10
77.999999999999972
 20
73.0
 30
0.0
 11
161.99999999999989
 21
73.0
 31
0.0
  0
LINE
  5
36
  8
0
 10
132.5
 20
31.0
 30
0.0
 11
107.5
 21
31.0
 31
0.0
  0
LINE
  5
37
  8
0
 10
163.49999999999989
 20
74.499999999999972
 30
0.0
 11
76.499999999999972
 21
74.500000000000014
 31
0.0
  0
LINE
  5
38
  8
0
 10
163.49999999999989
 20
85.499999999999943
 30
0.0
 11
76.499999999999986
 21
85.500000000000014
 31
0.0
  0
ARC
  5
39
  8
0
 10
88.999999999999986
 20
71.0
 30
0.0
 40
2.0
 50
360.0
 51
89.999999999999915
  0
ARC
  5
3A
  8
0
 10
150.99999999999989
 20
71.0
 30
0.0
 40
2.0
 50
89.999999999999986
 51
180.0
  0
ARC
  5
3B
  8
0
 10
97.999999999999972
 20
47.300000000000068
 30
0.0
 40
2.0
 50
359.99999999999989
 51
90.000000000000085
  0
ARC
  5
3C
  8
0
 10
142.0
 20
47.300000000000011
 30
0.0
 40
2.0
 50
89.999999999999986
 51
179.9999999999998
  0
ARC
  5
3D
  8
0
 10
102.0
 20
43.0
 30
0.0
 40
2.0
 50
179.9999999999998
 51
269.99999999999989
  0
ARC
  5
3E
  8
0
 10
137.99999999999989
 20
43.0
 30
0.0
 40
2.0
 50
269.99999999999989
 51
359.99999999999989
  0
LINE
  5
3F
  8
0
 10
108.5
 20
30.0
 30
0.0
 11
107.5
 21
31.0
 31
0.0
  0
LINE
  5
40
  8
0
 10
132.49999999999989
 20
31.0
 30
0.0
 11
131.49999999999989
 21
30.0
 31
0.0
  0
LINE
  5
41
  8
0
 10
76.499999999999986
 20
85.5
 30
0.0
 11
77.999999999999986
 21
87.0
 31
0.0
  0
LINE
  5
42
  8
0
 10
77.999999999999972
 20
73.0
 30
0.0
 11
76.499999999999972
 21
74.5
 31
0.0
  0
LINE
  5
43
  8
0
 10
163.49999999999989
 20
74.5
 30
0.0
 11
161.99999999999989
 21
73.0
 31
0.0
  0
LINE
  5
44
  8
0
 10
163.49999999999989
 20
85.5
 30
0.0
 11
161.99999999999989
 21
87.0
 31
0.0
  0
LINE
  5
45
  8
0
 10
149.0
 20
71.0
 30
0.0
 11
149.0
 21
50.800000000000068
 31
0.0
  0
LINE
  5
46
  8
0
 10
90.999999999999986
 20
71.0
 30
0.0
 11
90.999999999999986
 21
50.800000000000082
 31
0.0
  0
LINE
  5
47
  8
0
 10
99.999999999999986
 20
47.300000000000068
 30
0.0
 11
99.999999999999986
 21
43.0
 31
0.0
  0
LINE
  5
48
  8
0
 10
140.0
 20
47.300000000000011
 30
0.0
 11
139.99999999999989
 21
43.0
 31
0.0
  0
LINE
  5
49
  8
0
 10
107.5
 20
41.0
 30
0.0
 11
107.5
 21
31.0
 31
0.0
  0
LINE
  5
4A
  8
0
 10
132.49999999999989
 20
41.0
 30
0.0
 11
132.49999999999989
 21
31.0
 31
0.0
  0
LINE
  5
4B
  8
0
 10
147.5
 20
49.300000000000061
 30
0.0
 11
92.5
 21
49.300000000000068
 31
0.0
  0
LINE
  5
4C
  8
0
 10
137.99999999999989
 20
41.0
 30
0.0
 11
102.0
 21
41.0
 31
0.0
  0
LINE
  5
4D
  8
0
 10
76.499999999999972
 20
74.5
 30
0.0
 11
76.499999999999986
 21
85.5
 31
0.0
  0
LINE
  5
4E
  8
0
 10
131.49999999999989
 20
30.0
 30
0.0
 11
108.5
 21
30.0
 31
0.0
  0
LINE
  5
4F
  8
0
 10
163.49999999999989
 20
85.5
 30
0.0
 11
163.49999999999989
 21
74.5
 31
0.0
  0
LINE
  5
50
  8
0
 10
77.999999999999986
 20
87.0
 30
0.0
 11
161.99999999999989
 21
87.0
 31
0.0
  0
CIRCLE
  5
51
  8
0
 10
120.0
 20
234.5
 30
0.0
 40
9.0
  0
LINE
  5
52
  8
1
 10
134.0
 20
234.5
 30
0.0
 11
106.0
 21
234.5
 31
0.0
  0
ARC
  5
53
  8
0
 10
120.0
 20
200.0
 30
0.0
 40
26.75
 50
98.638234705919672
 51
81.361765294080385
  0
ARC
  5
54
  8
0
 10
120.0
 20
200.0
 30
0.0
 40
42.0
 50
97.493515548787286
 51
82.506484451212685
  0
CIRCLE
  5
55
  8
0
 10
120.0
 20
200.0
 30
0.0
 40
43.5
  0
LINE
  5
CF
  8
1
 10
168.5
 20
200.0
 30
0.0
 11
71.5
 21
200.0
 31
0.0
  0
LINE
  5
D0
  8
1
 10
120.0
 20
248.5
 30
0.0
 11
120.0
 21
151.5
 31
0.0
  0
LINE
  5
D6
  8
1
 10
120.0
 20
132.0
 30
0.0
 11
119.9999999999999
 21
25.0
 31
0.0
  0
LINE
  5
D7
  8
0
 10
149.0
 20
50.800000000000068
 30
0.0
 11
147.5
 21
49.300000000000061
 31
0.0
  0
LINE
  5
D8
  8
0
 10
92.499999999999986
 20
49.300000000000068
 30
0.0
 11
90.999999999999986
 21
50.800000000000082
 31
0.0
  0
LINE
  5
D9
  8
0
 10
149.0
 20
50.800000000000011
 30
0.0
 11
91.000000000000057
 21
50.800000000000011
 31
0.0
  0
LINE
  5
DA
  8
0
 10
129.00000000000011
 20
124.4954568671334
 30
0.0
 11
129.00000000000011
 21
103.0801493145883
 31
0.0
  0
LINE
  5
DB
  8
0
 10
127.5688486307977
 20
88.024294449395157
 30
0.0
 11
129.00000000000011
 21
103.0801493145885
 31
0.0
  0
ARC
  5
DC
  8
0
 10
126.77243876796879
 20
88.100000000000122
 30
0.0
 40
0.8000000000000002
 50
270.00000000000011
 51
354.57000000000011
  0
ARC
  5
DD
  8
0
 10
127.5
 20
124.495454169735
 30
0.0
 40
1.5
 50
360.0
 51
74.742476709543624
  0
ARC
  5
DE
  8
0
 10
112.5
 20
124.495454169735
 30
0.0
 40
1.5
 50
105.25752329045631
 51
180.0
  0
ARC
  5
DF
  8
0
 10
120.0
 20
96.999999999999986
 30
0.0
 40
30.0
 50
74.742477020172984
 51
105.2575230708082
  0
ARC
  5
E0
  8
0
 10
113.22756123203121
 20
88.100000000000122
 30
0.0
 40
0.8000000000000002
 50
185.43000000000001
 51
270.0
  0
LINE
  5
E1
  8
0
 10
112.43115118952061
 20
88.024296339663934
 30
0.0
 11
111.0000000000001
 21
103.0801493145885
 31
0.0
  0
LINE
  5
E2
  8
0
 10
115.0
 20
87.299999999999997
 30
0.0
 11
113.22756123203131
 21
87.299999999999997
 31
0.0
  0
LINE
  5
E3
  8
0
 10
115.0
 20
86.999999999999986
 30
0.0
 11
115.0
 21
87.299999999999997
 31
0.0
  0
LINE
  5
E4
  8
0
 10
111.0000000000001
 20
124.4954541697351
 30
0.0
 11
110.9999999999999
 21
103.0801493145883
 31
0.0
  0
LINE
  5
E5
  8
0
 10
111.0000000000001
 20
103.0801493145883
 30
0.0
 11
129.00000000000011
 21
103.0801493145883
 31
0.0
  0
LINE
  5
E6
  8
0
 10
112.1026360705437
 20
125.40591963773539
 30
0.0
 11
127.8973639294563
 21
125.40591963773539
 31
0.0
  0
LINE
  5
E7
  8
0
 10
126.7724406753174
 20
87.299999999999997
 30
0.0
 11
115.0
 21
87.299999999999997
 31
0.0
  0
LINE
  5
E8
  8
0
 10
125.0
 20
87.000000000000128
 30
0.0
 11
125.0
 21
87.299999999999997
 31
0.0
  0
LINE
  5
E9
  8
0
 10
242.99999999999989
 20
239.5
 30
0.0
 11
242.69999999999999
 21
239.5
 31
0.0
  0
LINE
  5
EA
  8
0
 10
242.69999999999999
 20
241.27244067531751
 30
0.0
 11
242.69999999999999
 21
229.50000000000011
 31
0.0
  0
LINE
  5
EB
  8
0
 10
204.59408036226461
 20
226.60263607054381
 30
0.0
 11
204.59408036226461
 21
242.39736392945639
 31
0.0
  0
LINE
  5
EC
  8
0
 10
226.91985068541169
 20
225.5000000000002
 30
0.0
 11
226.91985068541169
 21
243.50000000000011
 31
0.0
  0
LINE
  5
ED
  8
0
 10
205.5045458302649
 20
225.5000000000002
 30
0.0
 11
226.91985068541169
 21
225.5
 31
0.0
  0
LINE
  5
EE
  8
0
 10
243.00000000000011
 20
229.50000000000011
 30
0.0
 11
242.69999999999999
 21
229.50000000000011
 31
0.0
  0
LINE
  5
EF
  8
0
 10
242.69999999999999
 20
229.50000000000011
 30
0.0
 11
242.69999999999999
 21
227.72756123203141
 31
0.0
  0
LINE
  5
F0
  8
0
 10
241.97570366033611
 20
226.9311511895207
 30
0.0
 11
226.91985068541149
 21
225.5000000000002
 31
0.0
  0
ARC
  5
F1
  8
0
 10
241.89999999999989
 20
227.72756123203129
 30
0.0
 40
0.8000000000000002
 50
275.43000000000001
 51
360.0
  0
ARC
  5
F2
  8
0
 10
233.0
 20
234.50000000000011
 30
0.0
 40
30.0
 50
164.742477020173
 51
195.2575230708083
  0
ARC
  5
F3
  8
0
 10
205.50454583026499
 20
227.0
 30
0.0
 40
1.5
 50
195.25752329045639
 51
270.00000000000011
  0
ARC
  5
F4
  8
0
 10
205.50454583026499
 20
242.00000000000011
 30
0.0
 40
1.5
 50
90.000000000000028
 51
164.74247670954361
  0
ARC
  5
F5
  8
0
 10
241.89999999999989
 20
241.27243876796891
 30
0.0
 40
0.8000000000000002
 50
0.0000000000000763
 51
84.570000000000107
  0
LINE
  5
F6
  8
0
 10
241.97570555060491
 20
242.06884863079779
 30
0.0
 11
226.91985068541149
 21
243.50000000000011
 31
0.0
  0
LINE
  5
F7
  8
0
 10
205.50454313286659
 20
243.50000000000011
 30
0.0
 11
226.91985068541169
 21
243.50000000000011
 31
0.0
  0
LINE
  5
F8
  8
0
 10
279.19999999999999
 20
229.0
 30
0.0
 11
279.19999999999999
 21
171.00000000000011
 31
0.0
  0
LINE
  5
F9
  8
0
 10
280.69999999999999
 20
172.5
 30
0.0
 11
279.19999999999987
 21
171.0
 31
0.0
  0
LINE
  5
FA
  8
0
 10
279.19999999999987
 20
229.0
 30
0.0
 11
280.69999999999999
 21
227.5
 31
0.0
  0
LINE
  5
FB
  8
1
 10
238.0
 20
200.0
 30
0.0
 11
305.0
 21
200.0
 31
0.0
  0
LINE
  5
FC
  8
0
 10
243.0
 20
158.0
 30
0.0
 11
243.0
 21
242.0
 31
0.0
  0
LINE
  5
FD
  8
0
 10
244.5
 20
243.5
 30
0.0
 11
255.5
 21
243.5
 31
0.0
  0
LINE
  5
FE
  8
0
 10
300.0
 20
211.5
 30
0.0
 11
300.0
 21
188.5
 31
0.0
  0
LINE
  5
FF
  8
0
 10
255.5
 20
156.5
 30
0.0
 11
244.5
 21
156.5
 31
0.0
  0
LINE
  5
100
  8
0
 10
289.0
 20
218.0
 30
0.0
 11
289.0
 21
182.0
 31
0.0
  0
LINE
  5
101
  8
0
 10
280.69999999999999
 20
227.5
 30
0.0
 11
280.69999999999999
 21
172.5
 31
0.0
  0
LINE
  5
102
  8
0
 10
289.0
 20
212.5
 30
0.0
 11
299.0
 21
212.5
 31
0.0
  0
LINE
  5
103
  8
0
 10
289.0
 20
187.5
 30
0.0
 11
299.0
 21
187.5
 31
0.0
  0
LINE
  5
104
  8
0
 10
282.69999999999999
 20
220.0
 30
0.0
 11
287.0
 21
220.0
 31
0.0
  0
LINE
  5
105
  8
0
 10
282.69999999999987
 20
180.0
 30
0.0
 11
287.0
 21
180.0
 31
0.0
  0
LINE
  5
106
  8
0
 10
259.0
 20
171.0
 30
0.0
 11
279.19999999999987
 21
171.0
 31
0.0
  0
LINE
  5
107
  8
0
 10
259.0
 20
229.0
 30
0.0
 11
279.19999999999987
 21
229.0
 31
0.0
  0
LINE
  5
108
  8
0
 10
244.5
 20
243.5
 30
0.0
 11
243.0
 21
242.0
 31
0.0
  0
LINE
  5
109
  8
0
 10
255.5
 20
243.5
 30
0.0
 11
257.0
 21
242.0
 31
0.0
  0
LINE
  5
10A
  8
0
 10
257.0
 20
158.0
 30
0.0
 11
255.5
 21
156.5
 31
0.0
  0
LINE
  5
10B
  8
0
 10
244.5
 20
156.5
 30
0.0
 11
243.0
 21
158.0
 31
0.0
  0
LINE
  5
10C
  8
0
 10
299.0
 20
212.5
 30
0.0
 11
300.0
 21
211.5
 31
0.0
  0
LINE
  5
10D
  8
0
 10
300.0
 20
188.5
 30
0.0
 11
299.0
 21
187.5
 31
0.0
  0
ARC
  5
10E
  8
0
 10
287.0
 20
218.0
 30
0.0
 40
2.0
 50
359.99999999999989
 51
89.999999999999915
  0
ARC
  5
10F
  8
0
 10
287.0
 20
182.0
 30
0.0
 40
2.0
 50
269.99999999999989
 51
359.99999999999989
  0
ARC
  5
110
  8
0
 10
282.69999999999999
 20
222.0
 30
0.0
 40
2.0
 50
180.0
 51
269.99999999999977
  0
ARC
  5
111
  8
0
 10
282.69999999999987
 20
178.0
 30
0.0
 40
2.0
 50
89.999999999999872
 51
180.00000000000011
  0
ARC
  5
112
  8
0
 10
259.0
 20
231.0
 30
0.0
 40
2.0
 50
180.0
 51
269.99999999999989
  0
ARC
  5
113
  8
0
 10
259.0
 20
169.0
 30
0.0
 40
2.0
 50
89.999999999999986
 51
179.99999999999989
  0
LINE
  5
114
  8
0
 10
244.50000000000011
 20
243.5
 30
0.0
 11
244.5
 21
156.5
 31
0.0
  0
LINE
  5
115
  8
0
 10
255.5
 20
243.5
 30
0.0
 11
255.5
 21
156.5
 31
0.0
  0
LINE
  5
116
  8
0
 10
299.0
 20
212.5
 30
0.0
 11
299.0
 21
187.5
 31
0.0
  0
LINE
  5
117
  8
0
 10
257.0
 20
158.0
 30
0.0
 11
257.0
 21
242.0
 31
0.0
  0
LINE
  5
118
  8
1
 10
267.69999999999999
 20
168.5
 30
0.0
 11
267.69999999999999
 21
178.5
 31
0.0
  0
LINE
  5
119
  8
1
 10
260.80000000000001
 20
234.50000000000011
 30
0.0
 11
198.0
 21
234.50000000000011
 31
0.0
  0
LINE
  5
123
  8
1
 10
115.5
 20
62.299999999999962
 30
0.0
 11
124.5
 21
62.299999999999962
 31
0.0
  0
CIRCLE
  5
124
  8
3
 10
120.0
 20
62.299999999999947
 30
0.0
 40
1.6209999999999991
  0
CIRCLE
  5
125
  8
0
 10
120.0
 20
62.299999999999947
 30
0.0
 40
2.0
  0
LINE
  5
126
  8
0
 10
118.0226280066715
 20
62.599999999999959
 30
0.0
 11
121.9773719933284
 21
62.599999999999959
 31
0.0
  0
LINE
  5
127
  8
0
 10
118.0226280066715
 20
61.99999999999995
 30
0.0
 11
121.9773719933284
 21
61.999999999999957
 31
0.0
  0
TEXT
  5
258
  8
0
 62
     3
 10
0.0
 20
0.0
 30
0.0
 40
10.0
  1
PDH80R-1/10
  7
STANDARD1
  0
POLYLINE
  5
424
  8
0
 66
     1
 10
0.0
 20
0.0
 30
0.0
 70
     1
 40
1.0
 41
1.0
  0
VERTEX
  5
425
  8
0
 10
119.7061073738537
 20
200.40450849718741
 30
0.0
 42
1.0
 50
306.00000000000011
  0
VERTEX
  5
426
  8
0
 10
120.2938926261462
 20
199.59549150281251
 30
0.0
 42
1.0
 50
306.00000000000011
  0
SEQEND
  5
427
  8
0
  0
LINE
  5
428
  8
3
 10
124.71250916421791
 20
214.503611873501
 30
0.0
 11
126.4893568818739
 21
219.97218684219811
 31
0.0
  0
LINE
  5
429
  8
0
 10
111.03627490254
 20
212.33750916421749
 30
0.0
 11
107.6565097018581
 21
216.98935688187379
 31
0.0
  0
LINE
  5
42A
  8
3
 10
115.28749083578199
 20
214.503611873501
 30
0.0
 11
113.510643118126
 21
219.9721868421982
 31
0.0
  0
LINE
  5
42B
  8
0
 10
105.4963881264989
 20
204.71250916421789
 30
0.0
 11
100.0278131578018
 21
206.48935688187379
 31
0.0
  0
LINE
  5
42C
  8
3
 10
107.66249083578209
 20
208.9637250974601
 30
0.0
 11
103.0106431181262
 21
212.3434902981418
 31
0.0
  0
LINE
  5
42D
  8
0
 10
105.4963881264989
 20
195.28749083578199
 30
0.0
 11
100.0278131578018
 21
193.51064311812601
 31
0.0
  0
LINE
  5
42E
  8
0
 10
111.0362749025397
 20
187.66249083578199
 30
0.0
 11
107.6565097018581
 21
183.01064311812601
 31
0.0
  0
LINE
  5
42F
  8
3
 10
107.66249083578199
 20
191.0362749025397
 30
0.0
 11
107.4976757717349
 21
190.9165297492535
 31
0.0
  0
LINE
  5
430
  8
3
 10
115.28749083578209
 20
185.4963881264988
 30
0.0
 11
113.5106431181261
 21
180.0278131578018
 31
0.0
  0
LINE
  5
431
  8
0
 10
128.9637250974601
 20
187.66249083578199
 30
0.0
 11
132.34349029814189
 21
183.01064311812601
 31
0.0
  0
LINE
  5
432
  8
3
 10
124.71250916421801
 20
185.4963881264988
 30
0.0
 11
126.4893568818739
 21
180.02781315780169
 31
0.0
  0
LINE
  5
433
  8
0
 10
134.50361187350109
 20
195.28749083578191
 30
0.0
 11
139.9721868421984
 21
193.5106431181259
 31
0.0
  0
LINE
  5
434
  8
3
 10
132.33750916421801
 20
191.0362749025397
 30
0.0
 11
132.50232422827011
 21
190.91652974924989
 31
0.0
  0
LINE
  5
435
  8
0
 10
134.503611873501
 20
204.71250916421789
 30
0.0
 11
139.9721868421982
 21
206.48935688187379
 31
0.0
  0
LINE
  5
436
  8
0
 10
128.9637250974603
 20
212.33750916421801
 30
0.0
 11
132.34349029814189
 21
216.9893568818737
 31
0.0
  0
LINE
  5
437
  8
3
 10
132.33750916421789
 20
208.96372509746021
 30
0.0
 11
136.9893568818739
 21
212.34349029814189
 31
0.0
  0
TEXT
  5
438
  8
0
 10
118.5714285714285
 20
210.99999999999989
 30
0.0
 40
3.0
  1
0
 72
     4
 11
120.0
 21
212.5
 31
0.0
  0
TEXT
  5
439
  8
0
 10
126.1330299393701
 20
208.6127124296867
 30
0.0
 40
3.0
  1
1
 72
     4
 11
127.3473156536558
 21
210.1127124296867
 31
0.0
  0
TEXT
  5
43A
  8
0
 10
130.4596350251181
 20
202.36271242968681
 30
0.0
 40
3.0
  1
2
 72
     4
 11
131.88820645368949
 21
203.86271242968681
 31
0.0
  0
TEXT
  5
43B
  8
0
 10
130.45963502511771
 20
194.63728757031311
 30
0.0
 40
3.0
  1
3
 72
     4
 11
131.88820645368909
 21
196.13728757031311
 31
0.0
  0
TEXT
  5
43C
  8
0
 10
125.8473156536559
 20
188.38728757031299
 30
0.0
 40
3.0
  1
4
 72
     4
 11
127.3473156536559
 21
189.88728757031299
 31
0.0
  0
TEXT
  5
43D
  8
0
 10
118.5714285714285
 20
185.99999999999989
 30
0.0
 40
3.0
  1
5
 72
     4
 11
120.0
 21
187.49999999999989
 31
0.0
  0
TEXT
  5
43E
  8
0
 10
111.1526843463441
 20
188.38728757031311
 30
0.0
 40
3.0
  1
6
 72
     4
 11
112.6526843463441
 21
189.88728757031311
 31
0.0
  0
TEXT
  5
43F
  8
0
 10
106.68322211773911
 20
194.63728757031311
 30
0.0
 40
3.0
  1
7
 72
     4
 11
108.11179354631059
 21
196.13728757031311
 31
0.0
  0
TEXT
  5
440
  8
0
 10
106.68322211773911
 20
202.36271242968681
 30
0.0
 40
3.0
  1
8
 72
     4
 11
108.11179354631059
 21
203.86271242968681
 31
0.0
  0
TEXT
  5
441
  8
0
 10
111.2955414892012
 20
208.61271242968681
 30
0.0
 40
3.0
  1
9
 72
     4
 11
112.6526843463441
 21
210.11271242968681
 31
0.0
  0
LINE
  5
442
  8
0
 10
121.5
 20
206.99999999999989
 30
0.0
 11
118.5
 21
206.99999999999989
 31
0.0
  0
TEXT
  5
443
  8
0
 10
119.3928571428571
 20
206.99999999999989
 30
0.0
 40
1.5
  1
1
 72
     1
 11
120.0
 21
206.99999999999989
 31
0.0
  0
TEXT
  5
444
  8
0
 10
118.46428571428569
 20
205.2999999999999
 30
0.0
 40
1.5
  1
10
 72
     1
 11
120.0
 21
205.2999999999999
 31
0.0
  0
TEXT
  5
445
  8
0
 10
117.94166666666661
 20
191.24999999999989
 30
0.0
 40
1.0
  1
CLAYTON
 41
0.65
  7
06500
 72
     1
 11
120.0
 21
191.24999999999989
 31
0.0
  0
ARC
  5
446
  8
0
 10
120.1666666666666
 20
193.53205128205121
 30
0.0
 40
0.1794871794871786
 50
270.0
 51
0.0
  0
LINE
  5
447
  8
0
 10
120.3461538461538
 20
193.60897435897419
 30
0.0
 11
120.3461538461538
 21
193.53205128205121
 31
0.0
  0
ARC
  5
448
  8
0
 10
118.4871794871795
 20
193.53205128205121
 30
0.0
 40
0.1794871794871786
 50
270.0
 51
0.0
  0
LINE
  5
449
  8
0
 10
118.6666666666667
 20
193.60897435897419
 30
0.0
 11
118.6666666666667
 21
193.53205128205121
 31
0.0
  0
ARC
  5
44A
  8
0
 10
121.6455942210129
 20
193.8653846153845
 30
0.0
 40
0.0384615384615383
 50
90.0
 51
235.43967822000931
  0
ARC
  5
44B
  8
0
 10
121.7692307692308
 20
194.04487179487171
 30
0.0
 40
0.2564102564102552
 50
40.541601873498372
 51
90.0
  0
ARC
  5
44C
  8
0
 10
121.7692307692308
 20
194.04487179487171
 30
0.0
 40
0.2564102564102552
 50
235.43967822000931
 51
326.6329870307635
  0
ARC
  5
44D
  8
0
 10
122.1922854675412
 20
193.5064398849737
 30
0.0
 40
0.2564102564102552
 50
194.9543703335342
 51
216.8781738534538
  0
LINE
  5
44E
  8
0
 10
120.6666666666666
 20
193.88171620071901
 30
0.0
 11
120.6666666666666
 21
193.8653846153845
 31
0.0
  0
LINE
  5
44F
  8
0
 10
120.6153846153846
 20
193.352564102564
 30
0.0
 11
120.3974358974359
 21
193.352564102564
 31
0.0
  0
LINE
  5
450
  8
0
 10
121.6455942210129
 20
193.9038461538461
 30
0.0
 11
121.9833755524165
 21
193.9038461538461
 31
0.0
  0
LINE
  5
451
  8
0
 10
121.2474136542526
 20
194.2115384615384
 30
0.0
 11
121.96408569427651
 21
194.2115384615384
 31
0.0
  0
ARC
  5
452
  8
0
 10
121.6538461538461
 20
193.878205128205
 30
0.0
 40
0.5256410256410231
 50
140.64330107273929
 51
303.57748737918729
  0
ARC
  5
453
  8
0
 10
122.6786124723082
 20
193.53653095916681
 30
0.0
 40
0.2564102564102552
 50
175.26603745311411
 51
225.84605298605331
  0
LINE
  5
454
  8
0
 10
121.1794871794872
 20
194.76282051282041
 30
0.0
 11
120.91025629046069
 21
194.76282051282041
 31
0.0
  0
ARC
  5
455
  8
0
 10
121.4871794871795
 20
194.50641025641011
 30
0.0
 40
0.2564102564102552
 50
90.0
 51
180.0
  0
ARC
  5
456
  8
0
 10
120.7183060769262
 20
194.52555168589649
 30
0.0
 40
0.5128205128205106
 50
334.06662005680403
 51
357.86089300734272
  0
ARC
  5
457
  8
0
 10
121.8021140253846
 20
194.14022216667229
 30
0.0
 40
0.622640466504708
 50
4.206846717150631
 51
90.666449776468227
  0
LINE
  5
458
  8
0
 10
122.42307692307691
 20
194.18589743589729
 30
0.0
 11
122.42307692307691
 21
193.55769230769221
 31
0.0
  0
LINE
  5
459
  8
0
 10
121.1794871794872
 20
194.30128205128199
 30
0.0
 11
121.7692307692307
 21
194.30128205128199
 31
0.0
  0
ARC
  5
45A
  8
0
 10
119.1791298205096
 20
193.5898329294879
 30
0.0
 40
0.5128205128205106
 50
154.066620056804
 51
177.8608930073427
  0
ARC
  5
45B
  8
0
 10
120.8586169999968
 20
193.5898329294879
 30
0.0
 40
0.5128205128205106
 50
154.066620056804
 51
177.8608930073427
  0
LINE
  5
45C
  8
0
 10
120.3974358974359
 20
193.81410256410251
 30
0.0
 11
120.3974358974359
 21
193.352564102564
 31
0.0
  0
LINE
  5
45D
  8
0
 10
118.8974358974359
 20
193.352564102564
 30
0.0
 11
119.4615384615384
 21
193.352564102564
 31
0.0
  0
ARC
  5
45E
  8
0
 10
120.6153846153846
 20
193.88171620071901
 30
0.0
 40
0.0512820512820511
 50
0.0
 51
54.90036780460634
  0
ARC
  5
45F
  8
0
 10
120.6153846153846
 20
193.8653846153845
 30
0.0
 40
0.0512820512820511
 50
270.0
 51
0.0
  0
ARC
  5
460
  8
0
 10
120.91025641025639
 20
194.2336684146654
 30
0.0
 40
0.0512820512820511
 50
180.0
 51
234.900367804605
  0
ARC
  5
461
  8
0
 10
120.91025641025639
 20
194.24999999999989
 30
0.0
 40
0.0512820512820511
 50
90.0
 51
180.0
  0
LINE
  5
462
  8
0
 10
120.85897435897429
 20
194.2336684146654
 30
0.0
 11
120.85897435897429
 21
194.24999999999989
 31
0.0
  0
ARC
  5
463
  8
0
 10
120.6153846153846
 20
193.81410256410251
 30
0.0
 40
0.4615384615384594
 50
270.0
 51
54.900367804604983
  0
ARC
  5
464
  8
0
 10
120.91025641025639
 20
194.30128205128199
 30
0.0
 40
0.4615384615384594
 50
90.0
 51
234.9003678046063
  0
LINE
  5
465
  8
0
 10
120.91025641025639
 20
194.30128205128199
 30
0.0
 11
121.1794871794872
 21
194.30128205128199
 31
0.0
  0
LINE
  5
466
  8
0
 10
121.1794871794872
 20
194.30128205128199
 30
0.0
 11
121.1794871794872
 21
194.76282051282041
 31
0.0
  0
ARC
  5
467
  8
0
 10
119.9358974358974
 20
194.05769230769221
 30
0.0
 40
0.7051282051282019
 50
90.0
 51
270.0
  0
LINE
  5
468
  8
0
 10
120.3974358974359
 20
194.30128205128199
 30
0.0
 11
120.3974358974359
 21
194.76282051282041
 31
0.0
  0
ARC
  5
469
  8
0
 10
119.9358974358974
 20
194.05769230769221
 30
0.0
 40
0.2435897435897425
 50
90.0
 51
140.83328928387951
  0
LINE
  5
46A
  8
0
 10
120.3461538461538
 20
193.9038461538461
 30
0.0
 11
120.3461538461538
 21
194.2115384615384
 31
0.0
  0
LINE
  5
46B
  8
0
 10
119.7470394889403
 20
194.2115384615384
 30
0.0
 11
120.3461538461538
 21
194.2115384615384
 31
0.0
  0
LINE
  5
46C
  8
0
 10
119.7470394889403
 20
193.9038461538461
 30
0.0
 11
120.3461538461538
 21
193.9038461538461
 31
0.0
  0
LINE
  5
46D
  8
0
 10
119.9358974358974
 20
194.30128205128199
 30
0.0
 11
120.3974358974359
 21
194.30128205128199
 31
0.0
  0
LINE
  5
46E
  8
0
 10
119.9358974358974
 20
193.81410256410251
 30
0.0
 11
120.6153846153846
 21
193.81410256410251
 31
0.0
  0
ARC
  5
46F
  8
0
 10
119.9358974358974
 20
194.05769230769221
 30
0.0
 40
0.2435897435897425
 50
219.16671071612049
 51
270.0
  0
LINE
  5
470
  8
0
 10
120.1666666666666
 20
193.352564102564
 30
0.0
 11
119.9358974358974
 21
193.352564102564
 31
0.0
  0
LINE
  5
471
  8
0
 10
120.3974358974359
 20
194.76282051282041
 30
0.0
 11
119.9358974358974
 21
194.76282051282041
 31
0.0
  0
LINE
  5
472
  8
0
 10
118.6666666666667
 20
194.76282051282041
 30
0.0
 11
118.2051282051282
 21
194.76282051282041
 31
0.0
  0
ARC
  5
473
  8
0
 10
120.0754971273622
 20
194.00712192786779
 30
0.0
 40
0.8974358974358931
 50
176.76968023270729
 51
226.83313873999651
  0
ARC
  5
474
  8
0
 10
119.9990514096034
 20
194.00838324925101
 30
0.0
 40
1.2820512820512751
 50
177.79579960996469
 51
210.76639186197471
  0
LINE
  5
475
  8
0
 10
119.1794871794872
 20
194.05769230769221
 30
0.0
 11
119.1794871794872
 21
195.1474358974358
 31
0.0
  0
LINE
  5
476
  8
0
 10
118.7179487179487
 20
194.05769230769221
 30
0.0
 11
118.7179487179487
 21
195.1474358974358
 31
0.0
  0
LINE
  5
477
  8
0
 10
118.4871794871795
 20
193.352564102564
 30
0.0
 11
118.2051282051282
 21
193.352564102564
 31
0.0
  0
ARC
  5
478
  8
0
 10
118.2051282051282
 20
194.05769230769221
 30
0.0
 40
0.2435897435897425
 50
219.16671071612049
 51
270.0
  0
LINE
  5
479
  8
0
 10
118.2051282051282
 20
193.81410256410251
 30
0.0
 11
118.7179487179487
 21
193.81410256410251
 31
0.0
  0
LINE
  5
47A
  8
0
 10
118.2051282051282
 20
194.30128205128199
 30
0.0
 11
118.6666666666667
 21
194.30128205128199
 31
0.0
  0
LINE
  5
47B
  8
0
 10
118.01627025817101
 20
193.9038461538461
 30
0.0
 11
118.6153846153846
 21
193.9038461538461
 31
0.0
  0
LINE
  5
47C
  8
0
 10
118.01627025817101
 20
194.2115384615384
 30
0.0
 11
118.6153846153846
 21
194.2115384615384
 31
0.0
  0
LINE
  5
47D
  8
0
 10
118.6153846153846
 20
193.9038461538461
 30
0.0
 11
118.6153846153846
 21
194.2115384615384
 31
0.0
  0
ARC
  5
47E
  8
0
 10
118.2051282051282
 20
194.05769230769221
 30
0.0
 40
0.2435897435897425
 50
90.0
 51
140.83328928387951
  0
LINE
  5
47F
  8
0
 10
118.6666666666667
 20
194.30128205128199
 30
0.0
 11
118.6666666666667
 21
194.76282051282041
 31
0.0
  0
ARC
  5
480
  8
0
 10
118.2051282051282
 20
194.05769230769221
 30
0.0
 40
0.7051282051282019
 50
90.0
 51
270.0
  0
LINE
  5
481
  8
0
 10
121.7948717948717
 20
194.76282051282041
 30
0.0
 11
121.4871794871795
 21
194.76282051282041
 31
0.0
  0
LINE
  5
482
  8
0
 10
122.5
 20
193.352564102564
 30
0.0
 11
121.9871794871794
 21
193.352564102564
 31
0.0
  0
LINE
  5
483
  8
0
 10
118.7179487179487
 20
195.1474358974358
 30
0.0
 11
119.1794871794872
 21
195.1474358974358
 31
0.0
  0
CIRCLE
  5
484
  8
0
 10
106.0
 20
190.99999999999989
 30
0.0
 40
1.5
  0
LINE
  5
485
  8
0
 10
105.75
 20
192.49999999999989
 30
0.0
 11
105.75
 21
189.52098005422499
 31
0.0
  0
LINE
  5
486
  8
0
 10
106.25
 20
192.49999999999989
 30
0.0
 11
106.25
 21
189.52098005422619
 31
0.0
  0
LINE
  5
487
  8
0
 10
133.75
 20
192.49999999999989
 30
0.0
 11
133.75
 21
189.52098005422499
 31
0.0
  0
LINE
  5
488
  8
0
 10
134.25
 20
192.49999999999989
 30
0.0
 11
134.25
 21
189.52098005422619
 31
0.0
  0
CIRCLE
  5
489
  8
0
 10
134.0
 20
190.99999999999989
 30
0.0
 40
1.5
  0
LINE
  5
48A
  8
3
 10
105.6165776603595
 20
189.54983197198871
 30
0.0
 11
103.010643118126
 21
187.65650970185791
 31
0.0
  0
LINE
  5
48B
  8
3
 10
134.3834223396355
 20
189.5498319719924
 30
0.0
 11
136.9893568818739
 21
187.656509701858
 31
0.0
  0
CIRCLE
  5
48C
  8
0
 10
120.0
 20
199.99999999999989
 30
0.0
 40
24.899999999999999
  0
INSERT
  5
48E
  8
0
  6
CONTINUOUS
  2
*U0
 10
0.0
 20
0.0
 30
0.0
1001
GRADIENTCOLOR1ACI
1070
     5
1001
GRADIENTCOLOR2ACI
1070
     2
1001
ACAD
1002
{
1000
R14_HATCH_DATA
1000
48E
1011
1.0
1021
0.0
1031
0.0
1021
0.0
1031
0.0
1011
0.0
1021
0.0
1031
0.0
1021
1.0
1031
0.0
1011
0.0
1021
0.0
1031
0.0
1021
0.0
1031
1.0
1040
0.0
1010
0.0
1020
0.0
1030
1.0
1000
SOLID
1070
     1
1070
     0
1071
        1
1071
        7
1070
     0
1070
     1
1071
        5
1040
133.36509786282551
1040
206.8098574960932
1040
120.0
1040
202.2633334629129
1040
120.0
1040
202.24999999999989
1040
124.40000000000001
1040
202.80000000000001
1040
124.40000000000001
1040
200.4826813392786
1071
        0
1070
     1
1070
     1
1040
0.0316551413203258
1071
        1
1040
125.9649254137183
1040
203.33022692720959
1040
0.0
1002
}
  0
CIRCLE
  5
490
  8
0
 10
120.0
 20
199.99999999999989
 30
0.0
 40
21.0
  0
LINE
  5
491
  8
3
 10
99.0
 20
199.99999999999989
 30
0.0
 11
101.9999999999997
 21
199.99999999999989
 31
0.0
  0
LINE
  5
492
  8
3
 10
135.25
 20
199.99999999999989
 30
0.0
 11
141.0
 21
199.99999999999989
 31
0.0
  0
LINE
  5
493
  8
0
 10
120.0
 20
220.99999999999989
 30
0.0
 11
120.0
 21
215.24999999999989
 31
0.0
  0
LINE
  5
494
  8
0
 10
120.0
 20
184.74999999999989
 30
0.0
 11
120.0
 21
178.99999999999989
 31
0.0
  0
LINE
  5
495
  8
0
 10
121.9499999999999
 20
202.4812499999999
 30
0.0
 11
121.9499999999999
 21
197.5187499999999
 31
0.0
  0
LINE
  5
496
  8
0
 10
121.7499999999999
 20
202.4812499999999
 30
0.0
 11
121.75
 21
197.5187499999999
 31
0.0
  0
LINE
  5
497
  8
0
 10
118.25
 20
202.01875000000001
 30
0.0
 11
118.25
 21
197.9812499999999
 31
0.0
  0
LINE
  5
498
  8
0
 10
118.05
 20
202.01875000000001
 30
0.0
 11
118.05
 21
197.9812499999999
 31
0.0
  0
LINE
  5
499
  8
0
 10
102.0
 20
199.99999999999989
 30
0.0
 11
124.40000000000001
 21
202.80000000000001
 31
0.0
  0
INSERT
  5
49A
  8
0
  6
CONTINUOUS
  2
*U1
 10
0.0
 20
0.0
 30
0.0
1001
GRADIENTCOLOR1ACI
1070
     5
1001
GRADIENTCOLOR2ACI
1070
     2
1001
ACAD
1002
{
1000
R14_HATCH_DATA
1000
49A
1011
1.0
1021
0.0
1031
0.0
1021
0.0
1031
0.0
1011
0.0
1021
0.0
1031
0.0
1021
1.0
1031
0.0
1011
0.0
1021
0.0
1031
0.0
1021
0.0
1031
1.0
1040
0.0
1010
0.0
1020
0.0
1030
1.0
1000
SOLID
1070
     1
1070
     0
1071
        2
1071
        7
1070
     0
1070
     1
1071
        4
1040
120.0
1040
197.37735270640059
1040
120.0
1040
197.74999999999989
1040
115.950266532608
1040
198.2562166834239
1040
117.3507446928419
1040
195.5076235334185
1071
        0
1071
        7
1070
     0
1070
     1
1071
        3
1040
120.44856379727089
1040
197.6939295253411
1040
120.0
1040
197.74999999999989
1040
120.0
1040
197.37735270640059
1071
        0
1070
     1
1070
     1
1040
0.012846470666508
1071
        2
1040
117.8385896034481
1040
197.13647822396021
1040
0.0
1040
120.1558150791321
1040
197.56940859564659
1040
0.0
1002
}
  0
LINE
  5
49B
  8
0
 10
102.0
 20
199.99999999999989
 30
0.0
 11
124.40000000000001
 21
197.1999999999999
 31
0.0
  0
LINE
  5
49C
  8
0
 10
124.40000000000001
 20
202.80000000000001
 30
0.0
 11
124.40000000000001
 21
197.1999999999999
 31
0.0
  0
LINE
  5
49D
  8
0
 10
120.44856379727089
 20
197.6939295253411
 30
0.0
 11
117.3507446928419
 21
195.5076235334185
 31
0.0
  0
LINE
  5
49E
  8
0
 10
119.9380354481747
 20
202.24225443102171
 30
0.0
 11
133.36509786282539
 21
206.80985749609309
 31
0.0
  0
LINE
  5
49F
  8
0
 10
133.36509786282551
 20
206.80985749609309
 30
0.0
 11
124.40000000000001
 21
200.4826813392786
 31
0.0
  0
LINE
  5
4A0
  8
0
 10
117.3507446928419
 20
195.5076235334185
 30
0.0
 11
115.950266532608
 21
198.2562166834239
 31
0.0
  0
ENDSEC
  0
EOF
