  0
SECTION
  2
HEADER
  9
$ACADVER
  1
AC1009
  9
$INSBASE
 10
0.0
 20
0.0
 30
0.0
  9
$EXTMIN
 10
0.0
 20
-2.960436562073669
 30
0.0
  9
$EXTMAX
 10
305.0
 20
248.5
 30
0.0
  9
$LIMMIN
 10
0.0
 20
0.0
  9
$LIMMAX
 10
375.0
 20
270.0
  9
$ORTHOMODE
 70
     1
  9
$REGENMODE
 70
     1
  9
$FILLMODE
 70
     1
  9
$QTEXTMODE
 70
     0
  9
$MIRRTEXT
 70
     0
  9
$DRAGMODE
 70
     2
  9
$LTSCALE
 40
10.0
  9
$OSMODE
 70
  3071
  9
$ATTMODE
 70
     1
  9
$TEXTSIZE
 40
3.0000000000000502
  9
$TRACEWID
 40
0.05
  9
$TEXTSTYLE
  7
K50
  9
$CLAYER
  8
0
  9
$CELTYPE
  6
BYLAYER
  9
$CECOLOR
 62
   256
  9
$DIMSCALE
 40
1.0
  9
$DIMASZ
 40
3.0
  9
$DIMEXO
 40
2.0
  9
$DIMDLI
 40
0.38
  9
$DIMRND
 40
0.0
  9
$DIMDLE
 40
0.0
  9
$DIMEXE
 40
2.0
  9
$DIMTP
 40
0.0
  9
$DIMTM
 40
0.0
  9
$DIMTXT
 40
3.2000000000000002
  9
$DIMCEN
 40
0.0
  9
$DIMTSZ
 40
0.0
  9
$DIMTOL
 70
     0
  9
$DIMLIM
 70
     0
  9
$DIMTIH
 70
     0
  9
$DIMTOH
 70
     0
  9
$DIMSE1
 70
     0
  9
$DIMSE2
 70
     0
  9
$DIMTAD
 70
     1
  9
$DIMZIN
 70
     0
  9
$DIMBLK
  1

  9
$DIMASO
 70
     0
  9
$DIMSHO
 70
     0
  9
$DIMPOST
  1

  9
$DIMAPOST
  1

  9
$DIMALT
 70
     0
  9
$DIMALTD
 70
     2
  9
$DIMALTF
 40
25.399999999999999
  9
$DIMLFAC
 40
1.0
  9
$DIMTOFL
 70
     1
  9
$DIMTVP
 40
1.6000000000000001
  9
$DIMTIX
 70
     1
  9
$DIMSOXD
 70
     0
  9
$DIMSAH
 70
     0
  9
$DIMBLK1
  1

  9
$DIMBLK2
  1

  9
$DIMSTYLE
  2
STANDARD
  9
$DIMCLRD
 70
     0
  9
$DIMCLRE
 70
     0
  9
$DIMCLRT
 70
     0
  9
$DIMTFAC
 40
1.0
  9
$DIMGAP
 40
0.09
  9
$LUNITS
 70
     2
  9
$LUPREC
 70
     4
  9
$SKETCHINC
 40
0.1
  9
$FILLETRAD
 40
0.5
  9
$AUNITS
 70
     0
  9
$AUPREC
 70
     4
  9
$MENU
  1
E:\r13\win\SUPPORT\ACAD
  9
$ELEVATION
 40
0.0
  9
$PELEVATION
 40
0.0
  9
$THICKNESS
 40
0.0
  9
$LIMCHECK
 70
     0
  9
$BLIPMODE
 70
     0
  9
$CHAMFERA
 40
0.0
  9
$CHAMFERB
 40
0.0
  9
$SKPOLY
 70
     0
  9
$TDCREATE
 40
2449839.791643519
  9
$TDUPDATE
 40
2456597.7133711572
  9
$TDINDWG
 40
0.0005571644
  9
$TDUSRTIMER
 40
0.0005571644
  9
$USRTIMER
 70
     1
  9
$ANGBASE
 50
0.0
  9
$ANGDIR
 70
     0
  9
$PDMODE
 70
     0
  9
$PDSIZE
 40
0.0
  9
$PLINEWID
 40
0.0
  9
$COORDS
 70
     1
  9
$SPLFRAME
 70
     0
  9
$SPLINETYPE
 70
     6
  9
$SPLINESEGS
 70
     8
  9
$ATTDIA
 70
     0
  9
$ATTREQ
 70
     1
  9
$HANDLING
 70
     1
  9
$HANDSEED
  5
2F4
  9
$SURFTAB1
 70
     6
  9
$SURFTAB2
 70
     6
  9
$SURFTYPE
 70
     6
  9
$SURFU
 70
     6
  9
$SURFV
 70
     6
  9
$UCSNAME
  2

  9
$UCSORG
 10
0.0
 20
0.0
 30
0.0
  9
$UCSXDIR
 10
1.0
 20
0.0
 30
0.0
  9
$UCSYDIR
 10
0.0
 20
1.0
 30
0.0
  9
$PUCSNAME
  2

  9
$PUCSORG
 10
0.0
 20
0.0
 30
0.0
  9
$PUCSXDIR
 10
1.0
 20
0.0
 30
0.0
  9
$PUCSYDIR
 10
0.0
 20
1.0
 30
0.0
  9
$USERI1
 70
     0
  9
$USERI2
 70
     1
  9
$USERI3
 70
     0
  9
$USERI4
 70
     0
  9
$USERI5
 70
     0
  9
$USERR1
 40
0.0
  9
$USERR2
 40
0.0
  9
$USERR3
 40
0.0
  9
$USERR4
 40
0.0
  9
$USERR5
 40
0.0
  9
$WORLDVIEW
 70
     1
  9
$SHADEDGE
 70
     3
  9
$SHADEDIF
 70
    70
  9
$TILEMODE
 70
     1
  9
$MAXACTVP
 70
    16
  9
$PLIMCHECK
 70
     0
  9
$PEXTMIN
 10
1.0000000000000000E+020
 20
1.0000000000000000E+020
 30
1.0000000000000000E+020
  9
$PEXTMAX
 10
-1.0000000000000000E+020
 20
-1.0000000000000000E+020
 30
-1.0000000000000000E+020
  9
$PLIMMIN
 10
0.0
 20
0.0
  9
$PLIMMAX
 10
12.0
 20
9.0
  9
$UNITMODE
 70
     0
  9
$VISRETAIN
 70
     0
  9
$PLINEGEN
 70
     0
  9
$PSLTSCALE
 70
     0
  0
ENDSEC
  0
SECTION
  2
TABLES
  0
TABLE
  2
VPORT
 70
     1
  0
VPORT
  2
*ACTIVE
 70
     0
 10
0.0
 20
0.0
 11
1.0
 21
1.0
 12
187.49427839065231
 22
134.10366293909439
 13
0.0
 23
0.0
 14
10.0
 24
10.0
 15
10.0
 25
10.0
 16
0.0
 26
0.0
 36
1.0
 17
0.0
 27
0.0
 37
0.0
 40
277.29405978699532
 41
2.304913294797688
 42
50.0
 43
0.0
 44
0.0
 50
0.0
 51
0.0
 71
     0
 72
   500
 73
     1
 74
     0
 75
     0
 76
     0
 77
     0
 78
     2
  0
ENDTAB
  0
TABLE
  2
LTYPE
 70
     3
  0
LTYPE
  2
CONTINUOUS
 70
     0
  3
Solid Line
 72
    65
 73
     0
 40
0.0
  0
LTYPE
  2
CENTER
 70
     0
  3
____ _ ____ _ ____ _ ____ _ ____ _ ____ _ ____
 72
    65
 73
     4
 40
2.0
 49
1.25
 49
-0.25
 49
0.25
 49
-0.25
  0
LTYPE
  2
PHANTOM2
 70
     0
  3
___ _ _ ___ _ _ ___ _ _ ___ _ _
 72
    65
 73
     6
 40
1.25
 49
0.625
 49
-0.125
 49
0.125
 49
-0.125
 49
0.125
 49
-0.125
  0
ENDTAB
  0
TABLE
  2
LAYER
 70
     3
  0
LAYER
  2
0
 70
     0
 62
     7
  6
CONTINUOUS
  0
LAYER
  2
1
 70
     0
 62
     1
  6
CENTER
  0
LAYER
  2
3
 70
     0
 62
     3
  6
CONTINUOUS
  0
ENDTAB
  0
TABLE
  2
STYLE
 70
     5
  0
STYLE
  2
STANDARD
 70
     0
 40
0.0
 41
1.0
 50
0.0
 71
     0
 42
4.000000000000048
  3
romans.shx
  4

  0
STYLE
  2
06500
 70
     0
 40
0.0
 41
1.0
 50
0.0
 71
     0
 42
1.0
  3
romans.shx
  4

  0
STYLE
  2
07500
 70
     0
 40
0.0
 41
1.0
 50
0.0
 71
     0
 42
3.0000000000000502
  3
romans.shx
  4

  0
STYLE
  2
K50
 70
     0
 40
0.0
 41
1.0
 50
0.0
 71
     0
 42
3.0000000000000502
  3
romans.shx
  4

  0
STYLE
  2
STANDARD1
 70
     0
 40
0.0
 41
1.0
 50
0.0
 71
     0
 42
3.0
  3
txt
  4

  0
ENDTAB
  0
TABLE
  2
VIEW
 70
     1
  0
VIEW
  2
ALL
 70
     0
 40
270.0
 10
220.99159663865549
 20
135.0
 41
0.0
 11
0.0
 21
0.0
 31
1.0
 12
0.0
 22
0.0
 32
0.0
 42
0.0
 43
0.0
 44
0.0
 50
0.0
 71
     0
  0
ENDTAB
  0
TABLE
  2
UCS
 70
     0
  0
ENDTAB
  0
TABLE
  2
APPID
 70
     3
  0
APPID
  2
ACAD
 70
     0
  0
APPID
  2
ACAD_MLEADERVER
 70
     0
  0
APPID
  2
ACAD_NAV_VCDISPLAY
 70
     0
  0
ENDTAB
  0
TABLE
  2
DIMSTYLE
 70
     1
  0
DIMSTYLE
  2
STANDARD
 70
     0
  3

  4

  5

  6

  7

 40
1.0
 41
0.18
 42
0.0625
 43
0.38
 44
0.18
 45
0.0
 46
0.0
 47
0.0
 48
0.0
140
0.18
141
0.09
142
0.0
143
25.399999999999999
144
1.0
145
0.0
146
1.0
147
0.09
 71
     0
 72
     0
 73
     1
 74
     1
 75
     0
 76
     0
 77
     0
 78
     0
170
     0
171
     2
172
     0
173
     0
174
     0
175
     0
176
     0
177
     0
178
     0
  0
ENDTAB
  0
ENDSEC
  0
SECTION
  2
BLOCKS
  0
BLOCK
  8
0
  2
$MODEL_SPACE
 70
     0
 10
0.0
 20
0.0
 30
0.0
  3
$MODEL_SPACE
  1

  0
ENDBLK
  5
18D
  8
0
  0
BLOCK
 67
     1
  8
0
  2
$PAPER_SPACE
 70
     0
 10
0.0
 20
0.0
 30
0.0
  3
$PAPER_SPACE
  1

  0
ENDBLK
  5
18B
 67
     1
  8
0
  0
ENDSEC
  0
SECTION
  2
ENTITIES
  0
LINE
  5
35
  8
0
 10
77.999999999999972
 20
73.0
 30
0.0
 11
161.99999999999989
 21
73.0
 31
0.0
  0
LINE
  5
36
  8
0
 10
132.5
 20
31.0
 30
0.0
 11
107.5
 21
31.0
 31
0.0
  0
LINE
  5
37
  8
0
 10
163.49999999999989
 20
74.499999999999972
 30
0.0
 11
76.499999999999972
 21
74.500000000000014
 31
0.0
  0
LINE
  5
38
  8
0
 10
163.49999999999989
 20
85.499999999999943
 30
0.0
 11
76.499999999999986
 21
85.500000000000014
 31
0.0
  0
ARC
  5
39
  8
0
 10
88.999999999999986
 20
71.0
 30
0.0
 40
2.0
 50
360.0
 51
89.999999999999915
  0
ARC
  5
3A
  8
0
 10
150.99999999999989
 20
71.0
 30
0.0
 40
2.0
 50
89.999999999999986
 51
180.0
  0
ARC
  5
3B
  8
0
 10
97.999999999999972
 20
47.300000000000068
 30
0.0
 40
2.0
 50
359.99999999999989
 51
90.000000000000085
  0
ARC
  5
3C
  8
0
 10
142.0
 20
47.300000000000011
 30
0.0
 40
2.0
 50
89.999999999999986
 51
179.9999999999998
  0
ARC
  5
3D
  8
0
 10
102.0
 20
43.0
 30
0.0
 40
2.0
 50
179.9999999999998
 51
269.99999999999989
  0
ARC
  5
3E
  8
0
 10
137.99999999999989
 20
43.0
 30
0.0
 40
2.0
 50
269.99999999999989
 51
359.99999999999989
  0
LINE
  5
3F
  8
0
 10
108.5
 20
30.0
 30
0.0
 11
107.5
 21
31.0
 31
0.0
  0
LINE
  5
40
  8
0
 10
132.49999999999989
 20
31.0
 30
0.0
 11
131.49999999999989
 21
30.0
 31
0.0
  0
LINE
  5
41
  8
0
 10
76.499999999999986
 20
85.5
 30
0.0
 11
77.999999999999986
 21
87.0
 31
0.0
  0
LINE
  5
42
  8
0
 10
77.999999999999972
 20
73.0
 30
0.0
 11
76.499999999999972
 21
74.5
 31
0.0
  0
LINE
  5
43
  8
0
 10
163.49999999999989
 20
74.5
 30
0.0
 11
161.99999999999989
 21
73.0
 31
0.0
  0
LINE
  5
44
  8
0
 10
163.49999999999989
 20
85.5
 30
0.0
 11
161.99999999999989
 21
87.0
 31
0.0
  0
LINE
  5
45
  8
0
 10
149.0
 20
71.0
 30
0.0
 11
149.0
 21
50.800000000000068
 31
0.0
  0
LINE
  5
46
  8
0
 10
90.999999999999986
 20
71.0
 30
0.0
 11
90.999999999999986
 21
50.800000000000082
 31
0.0
  0
LINE
  5
47
  8
0
 10
99.999999999999986
 20
47.300000000000068
 30
0.0
 11
99.999999999999986
 21
43.0
 31
0.0
  0
LINE
  5
48
  8
0
 10
140.0
 20
47.300000000000011
 30
0.0
 11
139.99999999999989
 21
43.0
 31
0.0
  0
LINE
  5
49
  8
0
 10
107.5
 20
41.0
 30
0.0
 11
107.5
 21
31.0
 31
0.0
  0
LINE
  5
4A
  8
0
 10
132.49999999999989
 20
41.0
 30
0.0
 11
132.49999999999989
 21
31.0
 31
0.0
  0
LINE
  5
4B
  8
0
 10
147.5
 20
49.300000000000061
 30
0.0
 11
92.5
 21
49.300000000000068
 31
0.0
  0
LINE
  5
4C
  8
0
 10
137.99999999999989
 20
41.0
 30
0.0
 11
102.0
 21
41.0
 31
0.0
  0
LINE
  5
4D
  8
0
 10
76.499999999999972
 20
74.5
 30
0.0
 11
76.499999999999986
 21
85.5
 31
0.0
  0
LINE
  5
4E
  8
0
 10
131.49999999999989
 20
30.0
 30
0.0
 11
108.5
 21
30.0
 31
0.0
  0
LINE
  5
4F
  8
0
 10
163.49999999999989
 20
85.5
 30
0.0
 11
163.49999999999989
 21
74.5
 31
0.0
  0
LINE
  5
50
  8
0
 10
77.999999999999986
 20
87.0
 30
0.0
 11
161.99999999999989
 21
87.0
 31
0.0
  0
CIRCLE
  5
51
  8
0
 10
120.0
 20
234.5
 30
0.0
 40
9.0
  0
LINE
  5
52
  8
1
 10
134.0
 20
234.5
 30
0.0
 11
106.0
 21
234.5
 31
0.0
  0
ARC
  5
53
  8
0
 10
120.0
 20
200.0
 30
0.0
 40
26.75
 50
98.638234705919672
 51
81.361765294080385
  0
ARC
  5
54
  8
0
 10
120.0
 20
200.0
 30
0.0
 40
42.0
 50
97.493515548787286
 51
82.506484451212685
  0
CIRCLE
  5
55
  8
0
 10
120.0
 20
200.0
 30
0.0
 40
43.5
  0
LINE
  5
56
  8
1
 10
168.5
 20
200.0
 30
0.0
 11
71.5
 21
200.0
 31
0.0
  0
LINE
  5
57
  8
1
 10
120.0
 20
248.5
 30
0.0
 11
120.0
 21
151.5
 31
0.0
  0
LINE
  5
58
  8
1
 10
120.0
 20
132.0
 30
0.0
 11
119.9999999999999
 21
25.0
 31
0.0
  0
LINE
  5
59
  8
0
 10
149.0
 20
50.800000000000068
 30
0.0
 11
147.5
 21
49.300000000000061
 31
0.0
  0
LINE
  5
5A
  8
0
 10
92.499999999999986
 20
49.300000000000068
 30
0.0
 11
90.999999999999986
 21
50.800000000000082
 31
0.0
  0
LINE
  5
5B
  8
0
 10
149.0
 20
50.800000000000011
 30
0.0
 11
91.000000000000057
 21
50.800000000000011
 31
0.0
  0
LINE
  5
5C
  8
0
 10
129.00000000000011
 20
124.4954568671334
 30
0.0
 11
129.00000000000011
 21
103.0801493145883
 31
0.0
  0
LINE
  5
5D
  8
0
 10
127.5688486307977
 20
88.024294449395157
 30
0.0
 11
129.00000000000011
 21
103.0801493145885
 31
0.0
  0
ARC
  5
5E
  8
0
 10
126.77243876796879
 20
88.100000000000122
 30
0.0
 40
0.8000000000000002
 50
270.00000000000011
 51
354.57000000000011
  0
ARC
  5
5F
  8
0
 10
127.5
 20
124.495454169735
 30
0.0
 40
1.5
 50
360.0
 51
74.742476709543624
  0
ARC
  5
60
  8
0
 10
112.5
 20
124.495454169735
 30
0.0
 40
1.5
 50
105.25752329045631
 51
180.0
  0
ARC
  5
61
  8
0
 10
120.0
 20
96.999999999999986
 30
0.0
 40
30.0
 50
74.742477020172984
 51
105.2575230708082
  0
ARC
  5
62
  8
0
 10
113.22756123203121
 20
88.100000000000122
 30
0.0
 40
0.8000000000000002
 50
185.43000000000001
 51
270.0
  0
LINE
  5
63
  8
0
 10
112.43115118952061
 20
88.024296339663934
 30
0.0
 11
111.0000000000001
 21
103.0801493145885
 31
0.0
  0
LINE
  5
64
  8
0
 10
115.0
 20
87.299999999999997
 30
0.0
 11
113.22756123203131
 21
87.299999999999997
 31
0.0
  0
LINE
  5
65
  8
0
 10
115.0
 20
86.999999999999986
 30
0.0
 11
115.0
 21
87.299999999999997
 31
0.0
  0
LINE
  5
66
  8
0
 10
111.0000000000001
 20
124.4954541697351
 30
0.0
 11
110.9999999999999
 21
103.0801493145883
 31
0.0
  0
LINE
  5
67
  8
0
 10
111.0000000000001
 20
103.0801493145883
 30
0.0
 11
129.00000000000011
 21
103.0801493145883
 31
0.0
  0
LINE
  5
68
  8
0
 10
112.1026360705437
 20
125.40591963773539
 30
0.0
 11
127.8973639294563
 21
125.40591963773539
 31
0.0
  0
LINE
  5
69
  8
0
 10
126.7724406753174
 20
87.299999999999997
 30
0.0
 11
115.0
 21
87.299999999999997
 31
0.0
  0
LINE
  5
6A
  8
0
 10
125.0
 20
87.000000000000128
 30
0.0
 11
125.0
 21
87.299999999999997
 31
0.0
  0
LINE
  5
6B
  8
0
 10
242.99999999999989
 20
239.5
 30
0.0
 11
242.69999999999999
 21
239.5
 31
0.0
  0
LINE
  5
6C
  8
0
 10
242.69999999999999
 20
241.27244067531751
 30
0.0
 11
242.69999999999999
 21
229.50000000000011
 31
0.0
  0
LINE
  5
6D
  8
0
 10
204.59408036226461
 20
226.60263607054381
 30
0.0
 11
204.59408036226461
 21
242.39736392945639
 31
0.0
  0
LINE
  5
6E
  8
0
 10
226.91985068541169
 20
225.5000000000002
 30
0.0
 11
226.91985068541169
 21
243.50000000000011
 31
0.0
  0
LINE
  5
6F
  8
0
 10
205.5045458302649
 20
225.5000000000002
 30
0.0
 11
226.91985068541169
 21
225.5
 31
0.0
  0
LINE
  5
70
  8
0
 10
243.00000000000011
 20
229.50000000000011
 30
0.0
 11
242.69999999999999
 21
229.50000000000011
 31
0.0
  0
LINE
  5
71
  8
0
 10
242.69999999999999
 20
229.50000000000011
 30
0.0
 11
242.69999999999999
 21
227.72756123203141
 31
0.0
  0
LINE
  5
72
  8
0
 10
241.97570366033611
 20
226.9311511895207
 30
0.0
 11
226.91985068541149
 21
225.5000000000002
 31
0.0
  0
ARC
  5
73
  8
0
 10
241.89999999999989
 20
227.72756123203129
 30
0.0
 40
0.8000000000000002
 50
275.43000000000001
 51
360.0
  0
ARC
  5
74
  8
0
 10
233.0
 20
234.50000000000011
 30
0.0
 40
30.0
 50
164.742477020173
 51
195.2575230708083
  0
ARC
  5
75
  8
0
 10
205.50454583026499
 20
227.0
 30
0.0
 40
1.5
 50
195.25752329045639
 51
270.00000000000011
  0
ARC
  5
76
  8
0
 10
205.50454583026499
 20
242.00000000000011
 30
0.0
 40
1.5
 50
90.000000000000028
 51
164.74247670954361
  0
ARC
  5
77
  8
0
 10
241.89999999999989
 20
241.27243876796891
 30
0.0
 40
0.8000000000000002
 50
0.0000000000000763
 51
84.570000000000107
  0
LINE
  5
78
  8
0
 10
241.97570555060491
 20
242.06884863079779
 30
0.0
 11
226.91985068541149
 21
243.50000000000011
 31
0.0
  0
LINE
  5
79
  8
0
 10
205.50454313286659
 20
243.50000000000011
 30
0.0
 11
226.91985068541169
 21
243.50000000000011
 31
0.0
  0
LINE
  5
7A
  8
0
 10
279.19999999999999
 20
229.0
 30
0.0
 11
279.19999999999999
 21
171.00000000000011
 31
0.0
  0
LINE
  5
7B
  8
0
 10
280.69999999999999
 20
172.5
 30
0.0
 11
279.19999999999987
 21
171.0
 31
0.0
  0
LINE
  5
7C
  8
0
 10
279.19999999999987
 20
229.0
 30
0.0
 11
280.69999999999999
 21
227.5
 31
0.0
  0
LINE
  5
7D
  8
1
 10
238.0
 20
200.0
 30
0.0
 11
305.0
 21
200.0
 31
0.0
  0
LINE
  5
7E
  8
0
 10
243.0
 20
158.0
 30
0.0
 11
243.0
 21
242.0
 31
0.0
  0
LINE
  5
7F
  8
0
 10
244.5
 20
243.5
 30
0.0
 11
255.5
 21
243.5
 31
0.0
  0
LINE
  5
80
  8
0
 10
300.0
 20
211.5
 30
0.0
 11
300.0
 21
188.5
 31
0.0
  0
LINE
  5
81
  8
0
 10
255.5
 20
156.5
 30
0.0
 11
244.5
 21
156.5
 31
0.0
  0
LINE
  5
82
  8
0
 10
289.0
 20
218.0
 30
0.0
 11
289.0
 21
182.0
 31
0.0
  0
LINE
  5
83
  8
0
 10
280.69999999999999
 20
227.5
 30
0.0
 11
280.69999999999999
 21
172.5
 31
0.0
  0
LINE
  5
84
  8
0
 10
289.0
 20
212.5
 30
0.0
 11
299.0
 21
212.5
 31
0.0
  0
LINE
  5
85
  8
0
 10
289.0
 20
187.5
 30
0.0
 11
299.0
 21
187.5
 31
0.0
  0
LINE
  5
86
  8
0
 10
282.69999999999999
 20
220.0
 30
0.0
 11
287.0
 21
220.0
 31
0.0
  0
LINE
  5
87
  8
0
 10
282.69999999999987
 20
180.0
 30
0.0
 11
287.0
 21
180.0
 31
0.0
  0
LINE
  5
88
  8
0
 10
259.0
 20
171.0
 30
0.0
 11
279.19999999999987
 21
171.0
 31
0.0
  0
LINE
  5
89
  8
0
 10
259.0
 20
229.0
 30
0.0
 11
279.19999999999987
 21
229.0
 31
0.0
  0
LINE
  5
8A
  8
0
 10
244.5
 20
243.5
 30
0.0
 11
243.0
 21
242.0
 31
0.0
  0
LINE
  5
8B
  8
0
 10
255.5
 20
243.5
 30
0.0
 11
257.0
 21
242.0
 31
0.0
  0
LINE
  5
8C
  8
0
 10
257.0
 20
158.0
 30
0.0
 11
255.5
 21
156.5
 31
0.0
  0
LINE
  5
8D
  8
0
 10
244.5
 20
156.5
 30
0.0
 11
243.0
 21
158.0
 31
0.0
  0
LINE
  5
8E
  8
0
 10
299.0
 20
212.5
 30
0.0
 11
300.0
 21
211.5
 31
0.0
  0
LINE
  5
8F
  8
0
 10
300.0
 20
188.5
 30
0.0
 11
299.0
 21
187.5
 31
0.0
  0
ARC
  5
90
  8
0
 10
287.0
 20
218.0
 30
0.0
 40
2.0
 50
359.99999999999989
 51
89.999999999999915
  0
ARC
  5
91
  8
0
 10
287.0
 20
182.0
 30
0.0
 40
2.0
 50
269.99999999999989
 51
359.99999999999989
  0
ARC
  5
92
  8
0
 10
282.69999999999999
 20
222.0
 30
0.0
 40
2.0
 50
180.0
 51
269.99999999999977
  0
ARC
  5
93
  8
0
 10
282.69999999999987
 20
178.0
 30
0.0
 40
2.0
 50
89.999999999999872
 51
180.00000000000011
  0
ARC
  5
94
  8
0
 10
259.0
 20
231.0
 30
0.0
 40
2.0
 50
180.0
 51
269.99999999999989
  0
ARC
  5
95
  8
0
 10
259.0
 20
169.0
 30
0.0
 40
2.0
 50
89.999999999999986
 51
179.99999999999989
  0
LINE
  5
96
  8
0
 10
244.50000000000011
 20
243.5
 30
0.0
 11
244.5
 21
156.5
 31
0.0
  0
LINE
  5
97
  8
0
 10
255.5
 20
243.5
 30
0.0
 11
255.5
 21
156.5
 31
0.0
  0
LINE
  5
98
  8
0
 10
299.0
 20
212.5
 30
0.0
 11
299.0
 21
187.5
 31
0.0
  0
LINE
  5
99
  8
0
 10
257.0
 20
158.0
 30
0.0
 11
257.0
 21
242.0
 31
0.0
  0
LINE
  5
9A
  8
1
 10
267.69999999999999
 20
168.5
 30
0.0
 11
267.69999999999999
 21
178.5
 31
0.0
  0
LINE
  5
9B
  8
1
 10
260.80000000000001
 20
234.50000000000011
 30
0.0
 11
198.0
 21
234.50000000000011
 31
0.0
  0
LINE
  5
A3
  8
1
 10
115.5
 20
62.299999999999962
 30
0.0
 11
124.5
 21
62.299999999999962
 31
0.0
  0
CIRCLE
  5
A4
  8
3
 10
120.0
 20
62.299999999999947
 30
0.0
 40
1.6209999999999991
  0
CIRCLE
  5
A5
  8
0
 10
120.0
 20
62.299999999999947
 30
0.0
 40
2.0
  0
LINE
  5
A6
  8
0
 10
118.0226280066715
 20
62.599999999999959
 30
0.0
 11
121.9773719933284
 21
62.599999999999959
 31
0.0
  0
LINE
  5
A7
  8
0
 10
118.0226280066715
 20
61.99999999999995
 30
0.0
 11
121.9773719933284
 21
61.999999999999957
 31
0.0
  0
LINE
  5
A8
  8
3
 10
112.67874042463551
 20
216.44381823756731
 30
0.0
 11
111.4585304954082
 21
219.18445461049461
 31
0.0
  0
LINE
  5
A9
  8
0
 10
111.03627490254
 20
212.33750916421761
 30
0.0
 11
107.6565097018581
 21
216.9893568818739
 31
0.0
  0
LINE
  5
AA
  8
0
 10
105.4963881264989
 20
204.71250916421801
 30
0.0
 11
100.0278131578018
 21
206.4893568818739
 31
0.0
  0
LINE
  5
AB
  8
0
 10
105.4963881264989
 20
195.28749083578199
 30
0.0
 11
100.0278131578018
 21
193.5106431181261
 31
0.0
  0
LINE
  5
AC
  8
0
 10
111.0362749025397
 20
187.66249083578199
 30
0.0
 11
107.6565097018581
 21
183.0106431181261
 31
0.0
  0
LINE
  5
AD
  8
0
 10
120.0
 20
184.75
 30
0.0
 11
120.0
 21
179.0
 31
0.0
  0
LINE
  5
AE
  8
0
 10
128.9637250974601
 20
187.66249083578211
 30
0.0
 11
132.34349029814189
 21
183.0106431181261
 31
0.0
  0
LINE
  5
AF
  8
0
 10
134.50361187350109
 20
195.28749083578199
 30
0.0
 11
139.9721868421984
 21
193.51064311812601
 31
0.0
  0
LINE
  5
B0
  8
0
 10
134.503611873501
 20
204.71250916421789
 30
0.0
 11
139.9721868421982
 21
206.4893568818739
 31
0.0
  0
LINE
  5
B1
  8
0
 10
128.9637250974603
 20
212.33750916421801
 30
0.0
 11
132.34349029814189
 21
216.98935688187379
 31
0.0
  0
TEXT
  5
B2
  8
0
 10
118.5714285714285
 20
211.0
 30
0.0
 40
3.0
  1
0
 72
     4
 11
120.0
 21
212.5
 31
0.0
  0
TEXT
  5
B3
  8
0
 10
111.2241129177727
 20
208.61271242968681
 30
0.0
 40
3.0
  1
3
 50
0.0000000000000368
 72
     4
 11
112.6526843463441
 21
210.11271242968681
 31
0.0
  0
TEXT
  5
B4
  8
0
 10
106.61179354631039
 20
202.36271242968689
 30
0.0
 40
3.0
  1
6
 50
0.0000000000000368
 72
     4
 11
108.11179354631049
 21
203.86271242968689
 31
0.0
  0
TEXT
  5
B5
  8
0
 10
106.754650689168
 20
194.63728757031319
 30
0.0
 40
3.0
  1
9
 50
0.0000000000000368
 72
     4
 11
108.11179354631091
 21
196.13728757031319
 31
0.0
  0
TEXT
  5
B6
  8
0
 10
110.3491129177726
 20
188.38728757031311
 30
0.0
 40
3.0
  1
12
 50
0.0000000000000368
 41
0.75
  7
07500
 72
     4
 11
112.6526843463441
 21
189.88728757031311
 31
0.0
  0
TEXT
  5
B7
  8
0
 10
117.6964285714285
 20
186.0
 30
0.0
 40
3.0
  1
15
 41
0.75
  7
07500
 72
     4
 11
120.0
 21
187.5
 31
0.0
  0
TEXT
  5
B8
  8
0
 10
125.0437442250845
 20
188.38728757031319
 30
0.0
 40
3.0
  1
18
 50
0.0000000000000368
 41
0.75
  7
07500
 72
     4
 11
127.347315653656
 21
189.88728757031319
 31
0.0
  0
TEXT
  5
B9
  8
0
 10
130.06677788226079
 20
194.63728757031311
 30
0.0
 40
3.0
  1
21
 50
0.0000000000000368
 41
0.75
  7
07500
 72
     4
 11
131.88820645368941
 21
196.13728757031311
 31
0.0
  0
TEXT
  5
BA
  8
0
 10
129.69177788226079
 20
202.36271242968681
 30
0.0
 40
3.0
  1
24
 50
0.0000000000000368
 41
0.75
  7
07500
 72
     4
 11
131.88820645368941
 21
203.86271242968681
 31
0.0
  0
TEXT
  5
BB
  8
0
 10
125.2044585107988
 20
208.61271242968689
 30
0.0
 40
3.0
  1
27
 50
0.0000000000000368
 41
0.75
  7
07500
 72
     4
 11
127.3473156536559
 21
210.11271242968689
 31
0.0
  0
POLYLINE
  5
BC
  8
0
 66
     1
 10
0.0
 20
0.0
 30
0.0
 70
     1
 40
1.0
 41
1.0
  0
VERTEX
  5
BD
  8
0
 10
120.5
 20
200.0
 30
0.0
 42
-1.0
  0
VERTEX
  5
BE
  8
0
 10
119.5
 20
200.0
 30
0.0
 42
-1.0
  0
SEQEND
  5
BF
  8
0
  0
TEXT
  5
C0
  8
0
 10
117.94166666666661
 20
191.25
 30
0.0
 40
1.0
  1
CLAYTON
 41
0.65
  7
06500
 72
     1
 11
120.0
 21
191.25
 31
0.0
  0
ARC
  5
C1
  8
0
 10
120.1666666666666
 20
193.53205128205121
 30
0.0
 40
0.1794871794871786
 50
269.99999999999977
 51
360.0
  0
LINE
  5
C2
  8
0
 10
120.3461538461538
 20
193.60897435897431
 30
0.0
 11
120.3461538461538
 21
193.53205128205121
 31
0.0
  0
ARC
  5
C3
  8
0
 10
118.4871794871795
 20
193.53205128205121
 30
0.0
 40
0.1794871794871786
 50
270.0
 51
360.0
  0
LINE
  5
C4
  8
0
 10
118.6666666666667
 20
193.60897435897431
 30
0.0
 11
118.6666666666667
 21
193.53205128205121
 31
0.0
  0
ARC
  5
C5
  8
0
 10
121.6455942210129
 20
193.86538461538461
 30
0.0
 40
0.0384615384615383
 50
89.999999999999986
 51
235.439678220009
  0
ARC
  5
C6
  8
0
 10
121.7692307692308
 20
194.0448717948718
 30
0.0
 40
0.2564102564102552
 50
40.541601873497967
 51
89.999999999999986
  0
ARC
  5
C7
  8
0
 10
121.7692307692308
 20
194.0448717948718
 30
0.0
 40
0.2564102564102552
 50
235.43967822000889
 51
326.63298703076367
  0
ARC
  5
C8
  8
0
 10
122.1922854675412
 20
193.50643988497379
 30
0.0
 40
0.2564102564102552
 50
194.95437033353551
 51
216.87817385345451
  0
LINE
  5
C9
  8
0
 10
120.6666666666666
 20
193.8817162007191
 30
0.0
 11
120.6666666666666
 21
193.86538461538461
 31
0.0
  0
LINE
  5
CA
  8
0
 10
120.6153846153846
 20
193.35256410256409
 30
0.0
 11
120.3974358974359
 21
193.35256410256409
 31
0.0
  0
LINE
  5
CB
  8
0
 10
121.6455942210129
 20
193.9038461538461
 30
0.0
 11
121.9833755524165
 21
193.9038461538461
 31
0.0
  0
LINE
  5
CC
  8
0
 10
121.2474136542526
 20
194.2115384615384
 30
0.0
 11
121.96408569427651
 21
194.2115384615384
 31
0.0
  0
ARC
  5
CD
  8
0
 10
121.6538461538461
 20
193.87820512820511
 30
0.0
 40
0.5256410256410231
 50
140.64330107273881
 51
303.57748737918632
  0
ARC
  5
CE
  8
0
 10
122.6786124723082
 20
193.53653095916681
 30
0.0
 40
0.2564102564102552
 50
175.26603745311311
 51
225.8460529860541
  0
LINE
  5
CF
  8
0
 10
121.1794871794872
 20
194.7628205128205
 30
0.0
 11
120.91025629046069
 21
194.7628205128205
 31
0.0
  0
ARC
  5
D0
  8
0
 10
121.4871794871795
 20
194.50641025641019
 30
0.0
 40
0.2564102564102552
 50
89.999999999999986
 51
180.0
  0
ARC
  5
D1
  8
0
 10
120.7183060769262
 20
194.5255516858966
 30
0.0
 40
0.5128205128205106
 50
334.06662005680522
 51
357.86089300734187
  0
ARC
  5
D2
  8
0
 10
121.8021140253846
 20
194.14022216667229
 30
0.0
 40
0.622640466504708
 50
4.2068467171522084
 51
90.666449776468014
  0
LINE
  5
D3
  8
0
 10
122.42307692307691
 20
194.1858974358974
 30
0.0
 11
122.42307692307691
 21
193.55769230769221
 31
0.0
  0
LINE
  5
D4
  8
0
 10
121.1794871794872
 20
194.30128205128199
 30
0.0
 11
121.7692307692307
 21
194.30128205128199
 31
0.0
  0
ARC
  5
D5
  8
0
 10
119.1791298205096
 20
193.5898329294879
 30
0.0
 40
0.5128205128205106
 50
154.06662005680519
 51
177.8608930073419
  0
ARC
  5
D6
  8
0
 10
120.8586169999968
 20
193.5898329294879
 30
0.0
 40
0.5128205128205106
 50
154.06662005680519
 51
177.86089300734179
  0
LINE
  5
D7
  8
0
 10
120.3974358974359
 20
193.81410256410251
 30
0.0
 11
120.3974358974359
 21
193.35256410256409
 31
0.0
  0
LINE
  5
D8
  8
0
 10
118.8974358974359
 20
193.35256410256409
 30
0.0
 11
119.4615384615384
 21
193.35256410256409
 31
0.0
  0
ARC
  5
D9
  8
0
 10
120.6153846153846
 20
193.8817162007191
 30
0.0
 40
0.0512820512820511
 50
0.0000000000008002
 51
54.900367804606418
  0
ARC
  5
DA
  8
0
 10
120.6153846153846
 20
193.86538461538461
 30
0.0
 40
0.0512820512820511
 50
270.0
 51
0.0000000000003931
  0
ARC
  5
DB
  8
0
 10
120.91025641025639
 20
194.2336684146654
 30
0.0
 40
0.0512820512820511
 50
180.0
 51
234.90036780460591
  0
ARC
  5
DC
  8
0
 10
120.91025641025639
 20
194.24999999999989
 30
0.0
 40
0.0512820512820511
 50
90.000000000000085
 51
179.9999999999994
  0
LINE
  5
DD
  8
0
 10
120.85897435897429
 20
194.2336684146654
 30
0.0
 11
120.85897435897429
 21
194.24999999999989
 31
0.0
  0
ARC
  5
DE
  8
0
 10
120.6153846153846
 20
193.81410256410251
 30
0.0
 40
0.4615384615384594
 50
270.00000000000011
 51
54.90036780460607
  0
ARC
  5
DF
  8
0
 10
120.91025641025639
 20
194.30128205128199
 30
0.0
 40
0.4615384615384594
 50
89.999999999999986
 51
234.9003678046067
  0
LINE
  5
E0
  8
0
 10
120.91025641025639
 20
194.30128205128199
 30
0.0
 11
121.1794871794872
 21
194.30128205128199
 31
0.0
  0
LINE
  5
E1
  8
0
 10
121.1794871794872
 20
194.30128205128199
 30
0.0
 11
121.1794871794872
 21
194.7628205128205
 31
0.0
  0
ARC
  5
E2
  8
0
 10
119.9358974358974
 20
194.05769230769229
 30
0.0
 40
0.7051282051282019
 50
89.999999999999986
 51
270.0
  0
LINE
  5
E3
  8
0
 10
120.3974358974359
 20
194.30128205128199
 30
0.0
 11
120.3974358974359
 21
194.7628205128205
 31
0.0
  0
ARC
  5
E4
  8
0
 10
119.9358974358974
 20
194.05769230769229
 30
0.0
 40
0.2435897435897425
 50
89.999999999999986
 51
140.83328928387959
  0
LINE
  5
E5
  8
0
 10
120.3461538461538
 20
193.9038461538461
 30
0.0
 11
120.3461538461538
 21
194.2115384615384
 31
0.0
  0
LINE
  5
E6
  8
0
 10
119.7470394889403
 20
194.2115384615384
 30
0.0
 11
120.3461538461538
 21
194.2115384615384
 31
0.0
  0
LINE
  5
E7
  8
0
 10
119.7470394889403
 20
193.9038461538461
 30
0.0
 11
120.3461538461538
 21
193.9038461538461
 31
0.0
  0
LINE
  5
E8
  8
0
 10
119.9358974358974
 20
194.30128205128199
 30
0.0
 11
120.3974358974359
 21
194.30128205128199
 31
0.0
  0
LINE
  5
E9
  8
0
 10
119.9358974358974
 20
193.81410256410251
 30
0.0
 11
120.6153846153846
 21
193.81410256410251
 31
0.0
  0
ARC
  5
EA
  8
0
 10
119.9358974358974
 20
194.05769230769229
 30
0.0
 40
0.2435897435897425
 50
219.1667107161197
 51
270.0
  0
LINE
  5
EB
  8
0
 10
120.1666666666666
 20
193.35256410256409
 30
0.0
 11
119.9358974358974
 21
193.35256410256409
 31
0.0
  0
LINE
  5
EC
  8
0
 10
120.3974358974359
 20
194.7628205128205
 30
0.0
 11
119.9358974358974
 21
194.7628205128205
 31
0.0
  0
LINE
  5
ED
  8
0
 10
118.6666666666667
 20
194.7628205128205
 30
0.0
 11
118.2051282051282
 21
194.7628205128205
 31
0.0
  0
ARC
  5
EE
  8
0
 10
120.0754971273622
 20
194.0071219278679
 30
0.0
 40
0.8974358974358931
 50
176.7696802327068
 51
226.83313873999671
  0
ARC
  5
EF
  8
0
 10
119.9990514096034
 20
194.00838324925101
 30
0.0
 40
1.2820512820512751
 50
177.79579960996611
 51
210.76639186197559
  0
LINE
  5
F0
  8
0
 10
119.1794871794872
 20
194.05769230769229
 30
0.0
 11
119.1794871794872
 21
195.1474358974358
 31
0.0
  0
LINE
  5
F1
  8
0
 10
118.7179487179487
 20
194.05769230769229
 30
0.0
 11
118.7179487179487
 21
195.1474358974358
 31
0.0
  0
LINE
  5
F2
  8
0
 10
118.4871794871795
 20
193.35256410256409
 30
0.0
 11
118.2051282051282
 21
193.35256410256409
 31
0.0
  0
ARC
  5
F3
  8
0
 10
118.2051282051282
 20
194.05769230769229
 30
0.0
 40
0.2435897435897425
 50
219.1667107161197
 51
270.0
  0
LINE
  5
F4
  8
0
 10
118.2051282051282
 20
193.81410256410251
 30
0.0
 11
118.7179487179487
 21
193.81410256410251
 31
0.0
  0
LINE
  5
F5
  8
0
 10
118.2051282051282
 20
194.30128205128199
 30
0.0
 11
118.6666666666667
 21
194.30128205128199
 31
0.0
  0
LINE
  5
F6
  8
0
 10
118.01627025817101
 20
193.9038461538461
 30
0.0
 11
118.6153846153846
 21
193.9038461538461
 31
0.0
  0
LINE
  5
F7
  8
0
 10
118.01627025817101
 20
194.2115384615384
 30
0.0
 11
118.6153846153846
 21
194.2115384615384
 31
0.0
  0
LINE
  5
F8
  8
0
 10
118.6153846153846
 20
193.9038461538461
 30
0.0
 11
118.6153846153846
 21
194.2115384615384
 31
0.0
  0
ARC
  5
F9
  8
0
 10
118.2051282051282
 20
194.05769230769229
 30
0.0
 40
0.2435897435897425
 50
89.999999999999986
 51
140.83328928387959
  0
LINE
  5
FA
  8
0
 10
118.6666666666667
 20
194.30128205128199
 30
0.0
 11
118.6666666666667
 21
194.7628205128205
 31
0.0
  0
ARC
  5
FB
  8
0
 10
118.2051282051282
 20
194.05769230769229
 30
0.0
 40
0.7051282051282019
 50
89.999999999999986
 51
270.0
  0
LINE
  5
FC
  8
0
 10
121.7948717948717
 20
194.7628205128205
 30
0.0
 11
121.4871794871795
 21
194.7628205128205
 31
0.0
  0
LINE
  5
FD
  8
0
 10
122.5
 20
193.35256410256409
 30
0.0
 11
121.9871794871794
 21
193.35256410256409
 31
0.0
  0
LINE
  5
FE
  8
0
 10
118.7179487179487
 20
195.1474358974358
 30
0.0
 11
119.1794871794872
 21
195.1474358974358
 31
0.0
  0
CIRCLE
  5
FF
  8
0
 10
106.0
 20
191.0
 30
0.0
 40
1.5
  0
LINE
  5
100
  8
0
 10
105.75
 20
192.5
 30
0.0
 11
105.75
 21
189.52098005422511
 31
0.0
  0
LINE
  5
101
  8
0
 10
106.25
 20
192.5
 30
0.0
 11
106.25
 21
189.5209800542263
 31
0.0
  0
LINE
  5
102
  8
0
 10
133.75
 20
192.5
 30
0.0
 11
133.75
 21
189.52098005422511
 31
0.0
  0
LINE
  5
103
  8
0
 10
134.25
 20
192.5
 30
0.0
 11
134.25
 21
189.5209800542263
 31
0.0
  0
CIRCLE
  5
104
  8
0
 10
134.0
 20
191.0
 30
0.0
 40
1.5
  0
LINE
  5
105
  8
0
 10
120.0
 20
215.25
 30
0.0
 11
120.0
 21
221.0
 31
0.0
  0
LINE
  5
106
  8
3
 10
123.1706532849708
 20
214.91675091119049
 30
0.0
 11
124.3661455071729
 21
220.54109961540999
 31
0.0
  0
LINE
  5
107
  8
3
 10
126.2027338069059
 20
213.93156822904959
 30
0.0
 11
128.54146950459179
 21
219.18445461049461
 31
0.0
  0
LINE
  5
108
  8
3
 10
116.8293467150291
 20
214.91675091119049
 30
0.0
 11
115.633854492827
 21
220.54109961540979
 31
0.0
  0
LINE
  5
109
  8
3
 10
106.7931125922869
 20
207.6250000000002
 30
0.0
 11
101.8134665205266
 21
210.5
 31
0.0
  0
LINE
  5
10A
  8
3
 10
108.6670414114697
 20
210.2042417469726
 30
0.0
 11
104.3939586649748
 21
214.0517427335358
 31
0.0
  0
LINE
  5
10B
  8
3
 10
104.83354109563371
 20
198.40594093516819
 30
0.0
 11
99.115040197266211
 21
197.80490227137921
 31
0.0
  0
LINE
  5
10C
  8
3
 10
104.83354109563371
 20
201.5940590648317
 30
0.0
 11
99.115040197266197
 21
202.19509772862071
 31
0.0
  0
LINE
  5
10D
  8
3
 10
108.6670414114697
 20
189.79575825302729
 30
0.0
 11
104.3939586649747
 21
185.94825726646391
 31
0.0
  0
LINE
  5
10E
  8
3
 10
106.7931125922873
 20
192.37499999999989
 30
0.0
 11
106.70488416646759
 21
192.3240612946027
 31
0.0
  0
LINE
  5
10F
  8
3
 10
116.8293467150292
 20
185.0832490888094
 30
0.0
 11
115.633854492827
 21
179.45890038459001
 31
0.0
  0
LINE
  5
110
  8
3
 10
113.7972661930942
 20
186.06843177095041
 30
0.0
 11
111.4585304954082
 21
180.8155453895053
 31
0.0
  0
LINE
  5
111
  8
3
 10
126.2027338069059
 20
186.06843177095041
 30
0.0
 11
128.54146950459179
 21
180.81554538950539
 31
0.0
  0
LINE
  5
112
  8
3
 10
123.1706532849708
 20
185.0832490888094
 30
0.0
 11
124.366145507173
 21
179.45890038459001
 31
0.0
  0
LINE
  5
113
  8
3
 10
133.2068874077126
 20
192.37500000000011
 30
0.0
 11
133.29511583353241
 21
192.32406129460281
 31
0.0
  0
LINE
  5
114
  8
3
 10
131.3329585885306
 20
189.7957582530272
 30
0.0
 11
135.6060413350252
 21
185.94825726646411
 31
0.0
  0
LINE
  5
115
  8
3
 10
135.16645890436629
 20
201.5940590648317
 30
0.0
 11
140.8849598027337
 21
202.19509772862071
 31
0.0
  0
LINE
  5
116
  8
3
 10
135.16645890436601
 20
198.4059409351683
 30
0.0
 11
140.8849598027337
 21
197.80490227137929
 31
0.0
  0
LINE
  5
117
  8
3
 10
131.3329585885302
 20
210.2042417469726
 30
0.0
 11
135.6060413350254
 21
214.05174273353609
 31
0.0
  0
LINE
  5
118
  8
3
 10
133.20688740771271
 20
207.625
 30
0.0
 11
138.1865334794733
 21
210.50000000000011
 31
0.0
  0
LINE
  5
119
  8
3
 10
135.49911280052751
 20
191.05158305241511
 30
0.0
 11
138.1865334794733
 21
189.5
 31
0.0
  0
LINE
  5
11A
  8
3
 10
104.5008871994725
 20
191.051583052415
 30
0.0
 11
101.8134665205267
 21
189.49999999999989
 31
0.0
  0
CIRCLE
  5
11B
  8
0
 10
120.0
 20
200.0
 30
0.0
 40
24.75
  0
CIRCLE
  5
11C
  8
0
 10
120.0
 20
200.0
 30
0.0
 40
21.0
  0
LINE
  5
11D
  8
0
 10
112.67874042463561
 20
216.4438182375668
 30
0.0
 11
124.3475685109328
 21
197.11926258698469
 31
0.0
  0
LINE
  5
11E
  8
0
 10
124.3475685109328
 20
197.11926258698469
 30
0.0
 11
119.2317139481342
 21
194.84153738576029
 31
0.0
  0
LINE
  5
11F
  8
0
 10
119.2317139481342
 20
194.84153738576029
 30
0.0
 11
112.67874042463561
 21
216.4438182375668
 31
0.0
  0
LINE
  5
120
  8
0
 10
117.43257166378081
 20
200.7725207446268
 30
0.0
 11
121.14385008545381
 21
202.4248883571222
 31
0.0
  0
LINE
  5
121
  8
0
 10
118.45647377682749
 20
197.39716436153199
 30
0.0
 11
122.96710447393779
 21
199.40542653671881
 31
0.0
  0
LINE
  5
122
  8
0
 10
118.5149824690015
 20
197.20428685392659
 30
0.0
 11
123.071290438994
 21
199.23288586126719
 31
0.0
  0
LINE
  5
123
  8
0
 10
117.3740629716067
 20
200.96539825223221
 30
0.0
 11
121.0396641203977
 21
202.5974290325739
 31
0.0
  0
LINE
  5
124
  8
0
 10
105.0617340207604
 20
201.35948870296679
 30
0.0
 11
118.2053074860704
 21
198.22514950964609
 31
0.0
  0
LINE
  5
125
  8
0
 10
124.1281201293565
 20
196.81274033100499
 30
0.0
 11
124.1479265504223
 21
197.03037625937429
 31
0.0
  0
LINE
  5
126
  8
0
 10
124.63566257846399
 20
202.3896929632545
 30
0.0
 11
121.2720016707903
 21
202.21265860926499
 31
0.0
  0
LINE
  5
127
  8
0
 10
117.06291154697
 20
201.99112808897559
 30
0.0
 11
105.0617340207604
 21
201.35948870296679
 31
0.0
  0
LINE
  5
128
  8
0
 10
124.18110452899749
 20
197.3949408692369
 30
0.0
 11
124.63566257846399
 21
202.3896929632545
 31
0.0
  0
LINE
  5
129
  8
0
 10
123.8226964831517
 20
196.88557450410059
 30
0.0
 11
124.1281201293565
 21
196.81274033100499
 31
0.0
  0
SOLID
  5
12A
  8
0
 10
124.63566257846399
 20
202.3896929632545
 30
0.0
 11
124.18110452899749
 21
197.3949408692369
 31
0.0
 12
121.2720016707903
 22
202.21265860926499
 32
0.0
 13
121.2720016707903
 23
202.21265860926499
 33
0.0
  0
SOLID
  5
12B
  8
0
 10
124.1479265504223
 20
197.03037625937429
 30
0.0
 11
124.1281201293565
 21
196.81274033100499
 31
0.0
 12
123.8226964831517
 22
196.88557450410059
 32
0.0
 13
123.8226964831517
 23
196.88557450410059
 33
0.0
  0
SOLID
  5
12C
  8
0
 10
117.06291154697
 20
201.99112808897559
 30
0.0
 11
118.2053074860704
 21
198.22514950964609
 31
0.0
 12
105.0617340207604
 22
201.35948870296679
 32
0.0
 13
105.0617340207604
 23
201.35948870296679
 33
0.0
  0
TEXT
  5
25E
  8
0
 62
     3
 10
0.0
 20
0.0
 30
0.0
 40
10.0
  1
PDH80L-1/30
  7
STANDARD1
  0
ENDSEC
  0
EOF
