  0
SECTION
  2
HEADER
  9
$ACADVER
  1
AC1009
  9
$INSBASE
 10
0.0
 20
0.0
 30
0.0
  9
$EXTMIN
 10
0.0
 20
-2.960436562073669
 30
0.0
  9
$EXTMAX
 10
590.0
 20
471.19999999999999
 30
0.0
  9
$LIMMIN
 10
0.0
 20
0.0
  9
$LIMMAX
 10
750.0
 20
540.0
  9
$ORTHOMODE
 70
     1
  9
$REGENMODE
 70
     1
  9
$FILLMODE
 70
     1
  9
$QTEXTMODE
 70
     0
  9
$MIRRTEXT
 70
     0
  9
$DRAGMODE
 70
     2
  9
$LTSCALE
 40
20.0
  9
$OSMODE
 70
  3071
  9
$ATTMODE
 70
     1
  9
$TEXTSIZE
 40
6.000000000000048
  9
$TRACEWID
 40
0.05
  9
$TEXTSTYLE
  7
K50
  9
$CLAYER
  8
0
  9
$CELTYPE
  6
BYLAYER
  9
$CECOLOR
 62
   256
  9
$DIMSCALE
 40
2.0
  9
$DIMASZ
 40
3.0
  9
$DIMEXO
 40
2.0
  9
$DIMDLI
 40
0.38
  9
$DIMRND
 40
0.0
  9
$DIMDLE
 40
0.0
  9
$DIMEXE
 40
2.0
  9
$DIMTP
 40
0.0
  9
$DIMTM
 40
0.0
  9
$DIMTXT
 40
3.2000000000000002
  9
$DIMCEN
 40
0.0
  9
$DIMTSZ
 40
0.0
  9
$DIMTOL
 70
     0
  9
$DIMLIM
 70
     0
  9
$DIMTIH
 70
     0
  9
$DIMTOH
 70
     0
  9
$DIMSE1
 70
     0
  9
$DIMSE2
 70
     0
  9
$DIMTAD
 70
     1
  9
$DIMZIN
 70
     0
  9
$DIMBLK
  1

  9
$DIMASO
 70
     0
  9
$DIMSHO
 70
     0
  9
$DIMPOST
  1

  9
$DIMAPOST
  1

  9
$DIMALT
 70
     0
  9
$DIMALTD
 70
     2
  9
$DIMALTF
 40
25.399999999999999
  9
$DIMLFAC
 40
1.0
  9
$DIMTOFL
 70
     1
  9
$DIMTVP
 40
1.6000000000000001
  9
$DIMTIX
 70
     1
  9
$DIMSOXD
 70
     0
  9
$DIMSAH
 70
     0
  9
$DIMBLK1
  1

  9
$DIMBLK2
  1

  9
$DIMSTYLE
  2
STANDARD
  9
$DIMCLRD
 70
     0
  9
$DIMCLRE
 70
     0
  9
$DIMCLRT
 70
     0
  9
$DIMTFAC
 40
1.0
  9
$DIMGAP
 40
0.09
  9
$LUNITS
 70
     2
  9
$LUPREC
 70
     4
  9
$SKETCHINC
 40
0.1
  9
$FILLETRAD
 40
0.6
  9
$AUNITS
 70
     0
  9
$AUPREC
 70
     4
  9
$MENU
  1
E:\r13\win\SUPPORT\ACAD
  9
$ELEVATION
 40
0.0
  9
$PELEVATION
 40
0.0
  9
$THICKNESS
 40
0.0
  9
$LIMCHECK
 70
     0
  9
$BLIPMODE
 70
     0
  9
$CHAMFERA
 40
0.0
  9
$CHAMFERB
 40
0.0
  9
$SKPOLY
 70
     0
  9
$TDCREATE
 40
2449839.7921064808
  9
$TDUPDATE
 40
2456597.713348229
  9
$TDINDWG
 40
0.0005566435
  9
$TDUSRTIMER
 40
0.0005566435
  9
$USRTIMER
 70
     1
  9
$ANGBASE
 50
0.0
  9
$ANGDIR
 70
     0
  9
$PDMODE
 70
     0
  9
$PDSIZE
 40
0.0
  9
$PLINEWID
 40
0.0
  9
$COORDS
 70
     1
  9
$SPLFRAME
 70
     0
  9
$SPLINETYPE
 70
     6
  9
$SPLINESEGS
 70
     8
  9
$ATTDIA
 70
     0
  9
$ATTREQ
 70
     1
  9
$HANDLING
 70
     1
  9
$HANDSEED
  5
338
  9
$SURFTAB1
 70
     6
  9
$SURFTAB2
 70
     6
  9
$SURFTYPE
 70
     6
  9
$SURFU
 70
     6
  9
$SURFV
 70
     6
  9
$UCSNAME
  2

  9
$UCSORG
 10
0.0
 20
0.0
 30
0.0
  9
$UCSXDIR
 10
1.0
 20
0.0
 30
0.0
  9
$UCSYDIR
 10
0.0
 20
1.0
 30
0.0
  9
$PUCSNAME
  2

  9
$PUCSORG
 10
0.0
 20
0.0
 30
0.0
  9
$PUCSXDIR
 10
1.0
 20
0.0
 30
0.0
  9
$PUCSYDIR
 10
0.0
 20
1.0
 30
0.0
  9
$USERI1
 70
     0
  9
$USERI2
 70
     1
  9
$USERI3
 70
     0
  9
$USERI4
 70
     0
  9
$USERI5
 70
     0
  9
$USERR1
 40
0.0
  9
$USERR2
 40
0.0
  9
$USERR3
 40
0.0
  9
$USERR4
 40
0.0
  9
$USERR5
 40
0.0
  9
$WORLDVIEW
 70
     1
  9
$SHADEDGE
 70
     3
  9
$SHADEDIF
 70
    70
  9
$TILEMODE
 70
     1
  9
$MAXACTVP
 70
    16
  9
$PLIMCHECK
 70
     0
  9
$PEXTMIN
 10
1.0000000000000000E+020
 20
1.0000000000000000E+020
 30
1.0000000000000000E+020
  9
$PEXTMAX
 10
-1.0000000000000000E+020
 20
-1.0000000000000000E+020
 30
-1.0000000000000000E+020
  9
$PLIMMIN
 10
0.0
 20
0.0
  9
$PLIMMAX
 10
12.0
 20
9.0
  9
$UNITMODE
 70
     0
  9
$VISRETAIN
 70
     0
  9
$PLINEGEN
 70
     0
  9
$PSLTSCALE
 70
     0
  0
ENDSEC
  0
SECTION
  2
TABLES
  0
TABLE
  2
VPORT
 70
     1
  0
VPORT
  2
*ACTIVE
 70
     0
 10
0.0
 20
0.0
 11
1.0
 21
1.0
 12
374.98855678130462
 22
269.68405869568772
 13
0.0
 23
0.0
 14
20.0
 24
20.0
 15
20.0
 25
20.0
 16
0.0
 26
0.0
 36
1.0
 17
0.0
 27
0.0
 37
0.0
 40
551.57487251346481
 41
2.304913294797688
 42
50.0
 43
0.0
 44
0.0
 50
0.0
 51
0.0
 71
     0
 72
   500
 73
     1
 74
     0
 75
     0
 76
     0
 77
     0
 78
     2
  0
ENDTAB
  0
TABLE
  2
LTYPE
 70
     3
  0
LTYPE
  2
CONTINUOUS
 70
     0
  3
Solid Line
 72
    65
 73
     0
 40
0.0
  0
LTYPE
  2
CENTER
 70
     0
  3
____ _ ____ _ ____ _ ____ _ ____ _ ____ _ ____
 72
    65
 73
     4
 40
2.0
 49
1.25
 49
-0.25
 49
0.25
 49
-0.25
  0
LTYPE
  2
PHANTOM2
 70
     0
  3
___ _ _ ___ _ _ ___ _ _ ___ _ _
 72
    65
 73
     6
 40
1.25
 49
0.625
 49
-0.125
 49
0.125
 49
-0.125
 49
0.125
 49
-0.125
  0
ENDTAB
  0
TABLE
  2
LAYER
 70
     3
  0
LAYER
  2
0
 70
     0
 62
     7
  6
CONTINUOUS
  0
LAYER
  2
1
 70
     0
 62
     1
  6
CENTER
  0
LAYER
  2
3
 70
     0
 62
     3
  6
CONTINUOUS
  0
ENDTAB
  0
TABLE
  2
STYLE
 70
     5
  0
STYLE
  2
STANDARD
 70
     0
 40
0.0
 41
1.0
 50
0.0
 71
     0
 42
0.2
  3
romans.shx
  4

  0
STYLE
  2
07500
 70
     0
 40
0.0
 41
1.0
 50
0.0
 71
     0
 42
6.000000000000048
  3
romans.shx
  4

  0
STYLE
  2
06500
 70
     0
 40
0.0
 41
1.0
 50
0.0
 71
     0
 42
1.0
  3
romans.shx
  4

  0
STYLE
  2
K50
 70
     0
 40
0.0
 41
1.0
 50
0.0
 71
     0
 42
6.000000000000048
  3
romans.shx
  4

  0
STYLE
  2
STANDARD1
 70
     0
 40
0.0
 41
1.0
 50
0.0
 71
     0
 42
3.0
  3
txt
  4

  0
ENDTAB
  0
TABLE
  2
VIEW
 70
     1
  0
VIEW
  2
ALL
 70
     0
 40
540.0
 10
441.98319327731087
 20
270.0
 41
0.0
 11
0.0
 21
0.0
 31
1.0
 12
0.0
 22
0.0
 32
0.0
 42
0.0
 43
0.0
 44
0.0
 50
0.0
 71
     0
  0
ENDTAB
  0
TABLE
  2
UCS
 70
     0
  0
ENDTAB
  0
TABLE
  2
APPID
 70
     3
  0
APPID
  2
ACAD
 70
     0
  0
APPID
  2
ACAD_MLEADERVER
 70
     0
  0
APPID
  2
ACAD_NAV_VCDISPLAY
 70
     0
  0
ENDTAB
  0
TABLE
  2
DIMSTYLE
 70
     1
  0
DIMSTYLE
  2
STANDARD
 70
     0
  3

  4

  5

  6

  7

 40
1.0
 41
0.18
 42
0.0625
 43
0.38
 44
0.18
 45
0.0
 46
0.0
 47
0.0
 48
0.0
140
0.18
141
0.09
142
0.0
143
25.399999999999999
144
1.0
145
0.0
146
1.0
147
0.09
 71
     0
 72
     0
 73
     1
 74
     1
 75
     0
 76
     0
 77
     0
 78
     0
170
     0
171
     2
172
     0
173
     0
174
     0
175
     0
176
     0
177
     0
178
     0
  0
ENDTAB
  0
ENDSEC
  0
SECTION
  2
BLOCKS
  0
BLOCK
  8
0
  2
$MODEL_SPACE
 70
     0
 10
0.0
 20
0.0
 30
0.0
  3
$MODEL_SPACE
  1

  0
ENDBLK
  5
1D1
  8
0
  0
BLOCK
 67
     1
  8
0
  2
$PAPER_SPACE
 70
     0
 10
0.0
 20
0.0
 30
0.0
  3
$PAPER_SPACE
  1

  0
ENDBLK
  5
1CF
 67
     1
  8
0
  0
ENDSEC
  0
SECTION
  2
ENTITIES
  0
LINE
  5
35
  8
0
 10
246.0
 20
152.0000000000002
 30
0.0
 11
246.0
 21
152.3000000000003
 31
0.0
  0
LINE
  5
36
  8
0
 10
228.67619251621289
 20
229.92468268249459
 30
0.0
 11
251.32380748378711
 21
229.9246826824949
 31
0.0
  0
LINE
  5
37
  8
0
 10
234.0
 20
152.3000000000003
 30
0.0
 11
249.58063861508381
 21
152.3000000000003
 31
0.0
  0
LINE
  5
38
  8
0
 10
227.0
 20
228.5241872578128
 30
0.0
 11
227.0
 21
182.0000000000002
 31
0.0
  0
LINE
  5
39
  8
0
 10
227.0
 20
182.0000000000002
 30
0.0
 11
252.99999999999989
 21
182.0000000000002
 31
0.0
  0
LINE
  5
3A
  8
0
 10
234.0
 20
152.0000000000002
 30
0.0
 11
234.0
 21
152.3000000000003
 31
0.0
  0
LINE
  5
3B
  8
0
 10
234.0
 20
152.3000000000003
 30
0.0
 11
230.41936138491599
 21
152.3000000000003
 31
0.0
  0
LINE
  5
3C
  8
0
 10
229.42288539146679
 20
153.21612154937341
 30
0.0
 11
227.0
 21
182.0000000000002
 31
0.0
  0
ARC
  5
3D
  8
0
 10
239.99999999999989
 20
182.0000000000002
 30
0.0
 40
50.0
 50
76.989426258763004
 51
103.0105750854505
  0
ARC
  5
3E
  8
0
 10
230.41936138491599
 20
153.3000000000003
 30
0.0
 40
1.0
 50
184.81153450167801
 51
270.0
  0
ARC
  5
3F
  8
0
 10
229.25
 20
228.5241872578128
 30
0.0
 40
2.25
 50
103.0105750854505
 51
180.0
  0
ARC
  5
40
  8
0
 10
250.75
 20
228.5241872578128
 30
0.0
 40
2.25
 50
360.0
 51
76.989424914549517
  0
ARC
  5
41
  8
0
 10
249.58063861508381
 20
153.3000000000003
 30
0.0
 40
1.0
 50
270.00000000000011
 51
355.18846549832199
  0
LINE
  5
42
  8
0
 10
250.57711438307689
 20
153.21611887095281
 30
0.0
 11
252.99999999999989
 21
182.0000000000002
 31
0.0
  0
LINE
  5
43
  8
0
 10
253.0
 20
228.5241872578128
 30
0.0
 11
252.99999999999989
 21
182.0000000000002
 31
0.0
  0
LINE
  5
44
  8
1
 10
233.0
 20
118.5
 30
0.0
 11
247.0
 21
118.5
 31
0.0
  0
LINE
  5
45
  8
0
 10
161.7999999999999
 20
134.0
 30
0.0
 11
318.19999999999987
 21
134.0
 31
0.0
  0
LINE
  5
46
  8
0
 10
320.0
 20
135.7999999999999
 30
0.0
 11
159.99999999999989
 21
135.80000000000001
 31
0.0
  0
LINE
  5
47
  8
0
 10
320.0
 20
150.1999999999999
 30
0.0
 11
159.99999999999989
 21
150.2000000000001
 31
0.0
  0
LINE
  5
48
  8
0
 10
159.99999999999989
 20
150.19999999999999
 30
0.0
 11
161.80000000000001
 21
152.0
 31
0.0
  0
LINE
  5
49
  8
0
 10
161.80000000000001
 20
134.0
 30
0.0
 11
159.99999999999989
 21
135.80000000000001
 31
0.0
  0
LINE
  5
4A
  8
0
 10
319.99999999999989
 20
135.7999999999999
 30
0.0
 11
318.19999999999987
 21
134.0
 31
0.0
  0
LINE
  5
4B
  8
0
 10
319.99999999999989
 20
150.19999999999999
 30
0.0
 11
318.19999999999987
 21
152.0
 31
0.0
  0
LINE
  5
4C
  8
0
 10
266.5
 20
96.800000000000054
 30
0.0
 11
213.49999999999989
 21
96.800000000000054
 31
0.0
  0
LINE
  5
4D
  8
0
 10
257.49999999999989
 20
81.500000000000114
 30
0.0
 11
222.5
 21
81.499999999999886
 31
0.0
  0
ARC
  5
4E
  8
0
 10
210.99999999999989
 20
102.4999999999999
 30
0.0
 40
2.5
 50
360.0
 51
89.999999999999915
  0
ARC
  5
4F
  8
0
 10
268.99999999999989
 20
102.5
 30
0.0
 40
2.5
 50
89.999999999999986
 51
180.0
  0
ARC
  5
50
  8
0
 10
201.87241141678709
 20
107.5
 30
0.0
 40
2.5
 50
182.99999999999989
 51
270.0
  0
ARC
  5
51
  8
0
 10
278.1275885832128
 20
107.5
 30
0.0
 40
2.5
 50
270.0
 51
357.0
  0
LINE
  5
52
  8
0
 10
215.30000000000001
 20
94.999999999999886
 30
0.0
 11
213.49999999999989
 21
96.799999999999955
 31
0.0
  0
LINE
  5
53
  8
0
 10
266.5
 20
96.799999999999955
 30
0.0
 11
264.69999999999987
 21
95.0
 31
0.0
  0
LINE
  5
54
  8
0
 10
223.99999999999989
 20
80.000000000000014
 30
0.0
 11
222.5
 21
81.500000000000014
 31
0.0
  0
LINE
  5
55
  8
0
 10
257.49999999999989
 20
81.5
 30
0.0
 11
256.0
 21
80.0
 31
0.0
  0
LINE
  5
56
  8
0
 10
280.6241624200992
 20
107.3691601093926
 30
0.0
 11
282.0198255992081
 21
134.0
 31
0.0
  0
LINE
  5
57
  8
0
 10
213.49999999999989
 20
102.4999999999999
 30
0.0
 11
213.49999999999989
 21
96.799999999999955
 31
0.0
  0
LINE
  5
58
  8
0
 10
266.5
 20
102.5
 30
0.0
 11
266.5
 21
96.799999999999955
 31
0.0
  0
LINE
  5
59
  8
0
 10
222.5
 20
95.0
 30
0.0
 11
222.5
 21
81.500000000000014
 31
0.0
  0
LINE
  5
5A
  8
0
 10
257.49999999999989
 20
95.0
 30
0.0
 11
257.49999999999989
 21
81.5
 31
0.0
  0
LINE
  5
5B
  8
0
 10
278.1275885832128
 20
105.0
 30
0.0
 11
201.8724033245922
 21
105.0
 31
0.0
  0
LINE
  5
5C
  8
0
 10
264.69999999999987
 20
95.0
 30
0.0
 11
215.2999999999999
 21
95.0
 31
0.0
  0
LINE
  5
5D
  8
1
 10
240.0
 20
242.0000000000002
 30
0.0
 11
239.99999999999989
 21
70.0
 31
0.0
  0
LINE
  5
5E
  8
0
 10
159.99999999999989
 20
135.80000000000001
 30
0.0
 11
159.99999999999989
 21
150.19999999999999
 31
0.0
  0
LINE
  5
5F
  8
0
 10
256.0
 20
80.0
 30
0.0
 11
223.99999999999989
 21
80.000000000000014
 31
0.0
  0
LINE
  5
60
  8
0
 10
319.99999999999989
 20
150.19999999999999
 30
0.0
 11
319.99999999999989
 21
135.7999999999999
 31
0.0
  0
LINE
  5
61
  8
0
 10
161.80000000000001
 20
152.0
 30
0.0
 11
318.19999999999987
 21
152.0
 31
0.0
  0
LINE
  5
62
  8
0
 10
199.37583757990069
 20
107.3691601093926
 30
0.0
 11
197.98017440079181
 21
134.0
 31
0.0
  0
LINE
  5
63
  8
0
 10
552.63083989060726
 20
339.37583757990069
 30
0.0
 11
526.0
 21
337.98017440079178
 31
0.0
  0
POLYLINE
  5
64
  8
0
 66
     1
 10
0.0
 20
0.0
 30
0.0
  0
VERTEX
  5
65
  8
0
 10
542.94969732187451
 20
400.50980762113522
 30
0.0
 42
0.0527972444915795
  0
VERTEX
  5
66
  8
0
 10
542.87123417801115
 20
400.7311726902924
 30
0.0
 42
0.103098111224453
  0
VERTEX
  5
67
  8
0
 10
542.54679010096004
 20
401.15654214783052
 30
0.0
 42
0.092588945984965
 70
     2
 50
139.10660535085981
  0
VERTEX
  5
68
  8
0
 10
542.07585324171896
 20
401.43188591778039
 30
0.0
 42
0.0863188075832996
 50
139.10660535085981
  0
VERTEX
  5
69
  8
0
 10
541.5
 20
401.5320461355434
 30
0.0
 42
0.0863188075832451
  0
VERTEX
  5
6A
  8
0
 10
540.92414675828127
 20
401.43188591778062
 30
0.0
 42
0.0925889459849473
  0
VERTEX
  5
6B
  8
0
 10
540.45320989904019
 20
401.15654214783069
 30
0.0
 42
0.1030981112243987
 70
     2
 50
220.89339464912709
  0
VERTEX
  5
6C
  8
0
 10
540.12876582198885
 20
400.73117269029251
 30
0.0
 42
0.0527972444935441
 50
220.89339464912709
  0
VERTEX
  5
6D
  8
0
 10
540.05030267809946
 20
400.50980762113522
 30
0.0
 42
0.1119976344768365
  0
SEQEND
  5
6E
  8
0
  0
POLYLINE
  5
6F
  8
3
 66
     1
 10
0.0
 20
0.0
 30
0.0
  0
VERTEX
  5
70
  8
3
 10
539.49999999999523
 20
400.60375251016052
 30
0.0
 42
0.1106318363866597
  0
VERTEX
  5
71
  8
3
 10
539.64795981597513
 20
399.94323343669657
 30
0.0
 42
0.1027188556973541
  0
VERTEX
  5
72
  8
3
 10
540.08578643762337
 20
399.36183446494778
 30
0.0
 42
0.0932062632046609
 70
     2
 50
318.71141053102917
  0
VERTEX
  5
73
  8
3
 10
540.7831816827437
 20
398.94875989152581
 30
0.0
 42
0.1045890562083681
 50
318.71141053102917
  0
VERTEX
  5
74
  8
3
 10
541.5
 20
398.84741516726473
 30
0.0
 42
0.0874395308728562
  0
VERTEX
  5
75
  8
3
 10
542.27684850681464
 20
398.98431640717138
 30
0.0
 42
0.0932062632046652
  0
VERTEX
  5
76
  8
3
 10
542.9142135623764
 20
399.36183446494772
 30
0.0
 42
0.1027188556974379
 70
     2
 50
41.288589468967558
  0
VERTEX
  5
77
  8
3
 10
543.35204018402453
 20
399.94323343669629
 30
0.0
 42
0.1106318363866617
 50
41.288589468967558
  0
VERTEX
  5
78
  8
3
 10
543.50000000000023
 20
400.6037525101604
 30
0.0
 42
0.1106318363867612
  0
SEQEND
  5
79
  8
3
  0
POLYLINE
  5
7A
  8
0
 66
     1
 10
0.0
 20
0.0
 30
0.0
  0
VERTEX
  5
7B
  8
0
 10
539.87899999998308
 20
400.6037525101604
 30
0.0
 42
0.1108883588893684
  0
VERTEX
  5
7C
  8
0
 10
539.99884590409465
 20
400.07000734196203
 30
0.0
 42
0.1027915165369517
  0
VERTEX
  5
7D
  8
0
 10
540.35377990768461
 20
399.59981669235822
 30
0.0
 42
0.0930905543457879
 70
     2
 50
318.78596731275172
  0
VERTEX
  5
7E
  8
0
 10
540.91890565985511
 20
399.26590444593762
 30
0.0
 42
0.1043545494275202
 50
318.78596731275172
  0
VERTEX
  5
7F
  8
0
 10
541.5
 20
399.18397286087242
 30
0.0
 42
0.0872273227876182
  0
VERTEX
  5
80
  8
0
 10
542.12980946069808
 20
399.2946884383075
 30
0.0
 42
0.0930905543457368
  0
VERTEX
  5
81
  8
0
 10
542.64622009231527
 20
399.59981669235822
 30
0.0
 42
0.1027915165370488
 70
     2
 50
41.214032687248348
  0
VERTEX
  5
82
  8
0
 10
543.00115409590512
 20
400.07000734196191
 30
0.0
 42
0.1108883588895511
 50
41.214032687248348
  0
VERTEX
  5
83
  8
0
 10
543.12100000001692
 20
400.6037525101604
 30
0.0
 42
0.1108883588895506
  0
SEQEND
  5
84
  8
0
  0
POLYLINE
  5
85
  8
3
 66
     1
 10
0.0
 20
0.0
 30
0.0
  0
VERTEX
  5
86
  8
3
 10
543.50000000000466
 20
400.6037525101604
 30
0.0
 42
0.1133953748801431
  0
VERTEX
  5
87
  8
3
 10
543.35304963869362
 20
401.24337647463261
 30
0.0
 42
0.1034669867763454
  0
VERTEX
  5
88
  8
3
 10
542.91421356237652
 20
401.81132439309488
 30
0.0
 42
0.0919542722339004
 70
     2
 50
139.50657412386769
  0
VERTEX
  5
89
  8
3
 10
542.27910335240654
 20
402.1777954848306
 30
0.0
 42
0.0851947237659004
 50
139.50657412386769
  0
VERTEX
  5
8A
  8
3
 10
541.5
 20
402.31151704454692
 30
0.0
 42
0.0851947237658637
  0
SEQEND
  5
8B
  8
3
  0
POLYLINE
  5
8C
  8
3
 66
     1
 10
0.0
 20
0.0
 30
0.0
  0
VERTEX
  5
8D
  8
3
 10
541.5
 20
402.31151704454692
 30
0.0
 42
0.0851947237658637
  0
VERTEX
  5
8E
  8
3
 10
540.72089664759312
 20
402.1777954848306
 30
0.0
 42
0.0919542722337824
  0
VERTEX
  5
8F
  8
3
 10
540.08578643762337
 20
401.81132439309488
 30
0.0
 42
0.1034669867763839
 70
     2
 50
220.49342587613219
  0
VERTEX
  5
90
  8
3
 10
539.61244726570203
 20
401.19872207544671
 30
0.0
 42
0.1332090518179316
 50
220.49342587613219
  0
VERTEX
  5
91
  8
3
 10
539.50000000000432
 20
400.6037525101604
 30
0.0
 42
0.1133953748802552
  0
SEQEND
  5
92
  8
3
  0
POLYLINE
  5
93
  8
0
 66
     1
 10
0.0
 20
0.0
 30
0.0
  0
VERTEX
  5
94
  8
0
 10
543.12100000001692
 20
400.6037525101604
 30
0.0
 42
0.1131278831509113
  0
VERTEX
  5
95
  8
0
 10
543.00181710943036
 20
401.12377283784213
 30
0.0
 42
0.1033978879773258
  0
VERTEX
  5
96
  8
0
 10
542.64622009231527
 20
401.5851282790602
 30
0.0
 42
0.0920759405311497
 70
     2
 50
139.43037735151631
  0
VERTEX
  5
97
  8
0
 10
542.13129056096807
 20
401.88300040661028
 30
0.0
 42
0.0854080894023359
 50
139.43037735151631
  0
VERTEX
  5
98
  8
0
 10
541.5
 20
401.99162743232313
 30
0.0
 42
0.0854080894023445
  0
SEQEND
  5
99
  8
0
  0
POLYLINE
  5
9A
  8
0
 66
     1
 10
0.0
 20
0.0
 30
0.0
  0
VERTEX
  5
9B
  8
0
 10
541.5
 20
401.99162743232313
 30
0.0
 42
0.0854080894023445
  0
VERTEX
  5
9C
  8
0
 10
540.8687094390317
 20
401.88300040661039
 30
0.0
 42
0.0920759405310543
  0
VERTEX
  5
9D
  8
0
 10
540.35377990768473
 20
401.58512827906043
 30
0.0
 42
0.1033978879773803
 70
     2
 50
220.56962264847431
  0
VERTEX
  5
9E
  8
0
 10
539.97017629692948
 20
401.08743677835929
 30
0.0
 42
0.1329136879957938
 50
220.56962264847431
  0
VERTEX
  5
9F
  8
0
 10
539.87899999998933
 20
400.6037525101604
 30
0.0
 42
0.1131278831509354
  0
SEQEND
  5
A0
  8
0
  0
LINE
  5
A1
  8
0
 10
540.03966168324723
 20
399.99019237886461
 30
0.0
 11
542.96033831673105
 21
399.99019237886461
 31
0.0
  0
LINE
  5
A2
  8
0
 10
539.88253961369242
 20
400.50980762113522
 30
0.0
 11
543.11746038628576
 21
400.50980762113522
 31
0.0
  0
LINE
  5
A3
  8
1
 10
541.5
 20
393.84442158694787
 30
0.0
 11
541.5
 21
407.31151704455272
 31
0.0
  0
LINE
  5
A4
  8
1
 10
534.49999999998954
 20
400.6037525101604
 30
0.0
 11
548.49999999999852
 21
400.6037525101604
 31
0.0
  0
LINE
  5
A5
  8
0
 10
508.0
 20
301.80000000000001
 30
0.0
 11
508.0
 21
458.19999999999987
 31
0.0
  0
LINE
  5
A6
  8
0
 10
509.7999999999999
 20
460.0
 30
0.0
 11
524.20000000000005
 21
460.0
 31
0.0
  0
LINE
  5
A7
  8
0
 10
580.0
 20
396.0
 30
0.0
 11
580.0
 21
364.0
 31
0.0
  0
LINE
  5
A8
  8
0
 10
524.20000000000005
 20
300.0
 30
0.0
 11
509.7999999999999
 21
300.0
 31
0.0
  0
LINE
  5
A9
  8
1
 10
498.0
 20
380.0
 30
0.0
 11
590.0
 21
380.0
 31
0.0
  0
LINE
  5
AA
  8
0
 10
565.0
 20
404.69999999999987
 30
0.0
 11
565.0
 21
355.2999999999999
 31
0.0
  0
LINE
  5
AB
  8
0
 10
555.0
 20
418.1275885832128
 30
0.0
 11
555.0
 21
341.8724033245922
 31
0.0
  0
LINE
  5
AC
  8
0
 10
565.0
 20
397.5
 30
0.0
 11
578.5
 21
397.5
 31
0.0
  0
LINE
  5
AD
  8
0
 10
565.0
 20
362.5
 30
0.0
 11
578.5
 21
362.5
 31
0.0
  0
LINE
  5
AE
  8
0
 10
557.5
 20
406.5
 30
0.0
 11
563.20000000000005
 21
406.5
 31
0.0
  0
LINE
  5
AF
  8
0
 10
557.50000000000011
 20
353.5
 30
0.0
 11
563.20000000000005
 21
353.5
 31
0.0
  0
LINE
  5
B0
  8
0
 10
552.63083989060726
 20
420.6241624200992
 30
0.0
 11
526.0
 21
422.0198255992081
 31
0.0
  0
LINE
  5
B1
  8
0
 10
578.5
 20
397.5
 30
0.0
 11
580.0
 21
396.0
 31
0.0
  0
LINE
  5
B2
  8
0
 10
580.0
 20
364.0
 30
0.0
 11
578.5
 21
362.5
 31
0.0
  0
LINE
  5
B3
  8
0
 10
563.20000000000005
 20
406.5
 30
0.0
 11
565.0
 21
404.69999999999987
 31
0.0
  0
LINE
  5
B4
  8
0
 10
565.00000000000011
 20
355.30000000000001
 30
0.0
 11
563.20000000000005
 21
353.5
 31
0.0
  0
ARC
  5
B5
  8
0
 10
552.5
 20
418.1275885832128
 30
0.0
 40
2.5
 50
0.0
 51
87.000000000000014
  0
ARC
  5
B6
  8
0
 10
552.5
 20
341.8724114167872
 30
0.0
 40
2.5
 50
272.99999999999989
 51
0.0
  0
ARC
  5
B7
  8
0
 10
557.5
 20
409.0
 30
0.0
 40
2.5
 50
180.0
 51
269.99999999999989
  0
ARC
  5
B8
  8
0
 10
557.50000000000011
 20
351.0
 30
0.0
 40
2.5
 50
90.0
 51
179.99999999999989
  0
LINE
  5
B9
  8
0
 10
578.49999999999989
 20
397.5
 30
0.0
 11
578.50000000000011
 21
362.5
 31
0.0
  0
LINE
  5
BA
  8
0
 10
563.19999999999993
 20
406.5
 30
0.0
 11
563.19999999999993
 21
353.5
 31
0.0
  0
LINE
  5
BB
  8
0
 10
509.7999999999999
 20
460.0
 30
0.0
 11
508.0
 21
458.19999999999987
 31
0.0
  0
LINE
  5
BC
  8
0
 10
524.20000000000005
 20
460.0
 30
0.0
 11
526.0
 21
458.19999999999987
 31
0.0
  0
LINE
  5
BD
  8
0
 10
526.0
 20
301.80000000000001
 30
0.0
 11
524.20000000000005
 21
300.0
 31
0.0
  0
LINE
  5
BE
  8
0
 10
509.7999999999999
 20
300.0
 30
0.0
 11
508.0
 21
301.80000000000001
 31
0.0
  0
LINE
  5
BF
  8
0
 10
509.80000000000013
 20
460.0
 30
0.0
 11
509.79999999999978
 21
300.0
 31
0.0
  0
LINE
  5
C0
  8
0
 10
524.20000000000005
 20
460.0
 30
0.0
 11
524.20000000000005
 21
300.0
 31
0.0
  0
LINE
  5
C1
  8
0
 10
526.0
 20
301.80000000000001
 30
0.0
 11
526.0
 21
458.19999999999987
 31
0.0
  0
LINE
  5
C2
  8
1
 10
541.5
 20
333.78906411468421
 30
0.0
 11
541.5
 21
351.5
 31
0.0
  0
LINE
  5
C3
  8
1
 10
533.0
 20
448.19999999999999
 30
0.0
 11
418.00000000000011
 21
448.19999999999999
 31
0.0
  0
LINE
  5
C4
  8
0
 10
431.4758127421872
 20
461.19999999999999
 30
0.0
 11
477.99999999999989
 21
461.19999999999999
 31
0.0
  0
LINE
  5
C5
  8
0
 10
506.7838811290473
 20
458.77711438307699
 30
0.0
 11
477.99999999999989
 21
461.19999999999999
 31
0.0
  0
ARC
  5
C6
  8
0
 10
506.6999999999997
 20
457.78063861508389
 30
0.0
 40
1.0
 50
0.0000000000000763
 51
85.188465498322017
  0
ARC
  5
C7
  8
0
 10
431.4758127421872
 20
458.94999999999999
 30
0.0
 40
2.25
 50
90.000000000000028
 51
166.98942491454949
  0
ARC
  5
C8
  8
0
 10
431.4758127421872
 20
437.44999999999999
 30
0.0
 40
2.25
 50
193.01057508545051
 51
270.00000000000011
  0
ARC
  5
C9
  8
0
 10
506.6999999999997
 20
438.61936138491609
 30
0.0
 40
1.0
 50
274.81153450167812
 51
360.0
  0
ARC
  5
CA
  8
0
 10
477.99999999999989
 20
448.19999999999999
 30
0.0
 40
50.0
 50
166.98942625876299
 51
193.01057508545051
  0
LINE
  5
CB
  8
0
 10
506.78387845062667
 20
437.62288539146681
 30
0.0
 11
477.99999999999989
 21
435.19999999999999
 31
0.0
  0
LINE
  5
CC
  8
0
 10
507.69999999999982
 20
442.2000000000001
 30
0.0
 11
507.69999999999982
 21
438.61936138491609
 31
0.0
  0
LINE
  5
CD
  8
0
 10
507.99999999999989
 20
442.2000000000001
 30
0.0
 11
507.69999999999982
 21
442.2000000000001
 31
0.0
  0
LINE
  5
CE
  8
0
 10
477.99999999999989
 20
435.19999999999999
 30
0.0
 11
477.99999999999989
 21
461.19999999999999
 31
0.0
  0
LINE
  5
CF
  8
0
 10
431.4758127421872
 20
435.19999999999999
 30
0.0
 11
477.99999999999989
 21
435.19999999999999
 31
0.0
  0
LINE
  5
D0
  8
0
 10
507.69999999999982
 20
442.2000000000001
 30
0.0
 11
507.69999999999982
 21
457.78063861508389
 31
0.0
  0
LINE
  5
D1
  8
0
 10
430.07531731750549
 20
436.876192516213
 30
0.0
 11
430.07531731750521
 21
459.52380748378721
 31
0.0
  0
LINE
  5
D2
  8
0
 10
507.99999999999989
 20
454.2000000000001
 30
0.0
 11
507.69999999999982
 21
454.2000000000001
 31
0.0
  0
CIRCLE
  5
DA
  8
3
 10
240.0
 20
118.5
 30
0.0
 40
1.6209999999999991
  0
CIRCLE
  5
DB
  8
0
 10
240.0
 20
118.5
 30
0.0
 40
2.0
  0
LINE
  5
DC
  8
0
 10
238.0226280066706
 20
118.8
 30
0.0
 11
241.9773719933294
 21
118.8
 31
0.0
  0
LINE
  5
DD
  8
0
 10
238.0226280066706
 20
118.2
 30
0.0
 11
241.9773719933294
 21
118.2
 31
0.0
  0
CIRCLE
  5
DE
  8
0
 10
240.0
 20
448.19999999999999
 30
0.0
 40
13.0
  0
LINE
  5
DF
  8
1
 10
262.99999999999932
 20
448.19999999999999
 30
0.0
 11
217.0000000000002
 21
448.19999999999999
 31
0.0
  0
ARC
  5
E0
  8
0
 10
240.0
 20
380.0
 30
0.0
 40
57.800000000000011
 50
97.122636995102724
 51
82.877363004897276
  0
ARC
  5
E1
  8
0
 10
240.0
 20
380.0
 30
0.0
 40
56.000000000000007
 50
94.163679200921536
 51
85.836320799078464
  0
ARC
  5
E2
  8
0
 10
240.0
 20
380.0
 30
0.0
 40
78.200000000000003
 50
96.520576703812338
 51
83.479423296187676
  0
ARC
  5
E3
  8
0
 10
240.0
 20
380.0
 30
0.0
 40
80.0
 50
94.232536068188026
 51
85.76746393181196
  0
LINE
  5
E4
  8
1
 10
330.0
 20
380.0
 30
0.0
 11
150.0
 21
380.0
 31
0.0
  0
LINE
  5
E5
  8
1
 10
239.99999999999989
 20
471.19999999999999
 30
0.0
 11
240.0
 21
290.0
 31
0.0
  0
SOLID
  5
E6
  8
0
 10
243.29386063746571
 20
382.28693166981679
 30
0.0
 11
241.8353776676573
 21
377.98732364053097
 31
0.0
 12
262.4073989688593
 22
382.03923305444988
 32
0.0
 13
262.4073989688593
 23
382.03923305444988
 33
0.0
  0
SOLID
  5
E7
  8
0
 10
235.85207344957769
 20
377.03037625937418
 30
0.0
 11
235.87187987064351
 21
376.81274033100499
 31
0.0
 12
236.19704418653441
 22
376.876785391689
 32
0.0
 13
236.19704418653441
 23
376.876785391689
 33
0.0
  0
SOLID
  5
E8
  8
0
 10
235.36433742153579
 20
382.3896929632545
 30
0.0
 11
235.8172189675918
 21
377.4133625404196
 31
0.0
 12
238.58214697331249
 22
382.34799231334489
 32
0.0
 13
238.58214697331249
 23
382.34799231334489
 33
0.0
  0
LINE
  5
E9
  8
0
 10
235.6524314890672
 20
377.1192625869848
 30
0.0
 11
250.57515271997079
 21
403.75218189870759
 31
0.0
  0
LINE
  5
EA
  8
0
 10
250.57515271997079
 20
403.75218189870759
 30
0.0
 11
240.76828605186569
 21
374.84153738576032
 31
0.0
  0
CIRCLE
  5
EB
  8
0
 10
239.99999999999989
 20
379.99999999999989
 30
0.0
 40
1.0
  0
POLYLINE
  5
EC
  8
0
 66
     1
 10
0.0
 20
0.0
 30
0.0
 70
     1
 40
1.0
 41
1.0
  0
VERTEX
  5
ED
  8
0
 10
239.5
 20
379.99999999999989
 30
0.0
 42
1.0
  0
VERTEX
  5
EE
  8
0
 10
240.49999999999989
 20
379.99999999999989
 30
0.0
 42
1.0
  0
SEQEND
  5
EF
  8
0
  0
LINE
  5
F0
  8
0
 10
240.76828605186569
 20
374.8415373857602
 30
0.0
 11
235.6524314890672
 21
377.1192625869848
 31
0.0
  0
LINE
  5
F1
  8
0
 10
235.36433742153591
 20
382.3896929632545
 30
0.0
 11
238.58214697331249
 21
382.34799231334489
 31
0.0
  0
LINE
  5
F2
  8
0
 10
262.4073989688593
 20
382.03923305444988
 30
0.0
 11
241.83537766765721
 21
377.98732364053097
 31
0.0
  0
LINE
  5
F3
  8
0
 10
235.87187987064351
 20
376.81274033100499
 30
0.0
 11
235.85207344957769
 21
377.03037625937418
 31
0.0
  0
LINE
  5
F4
  8
0
 10
242.8651489907698
 20
381.02308966648911
 30
0.0
 11
238.84314491014851
 21
382.81380125560969
 31
0.0
  0
LINE
  5
F5
  8
0
 10
242.80063013111121
 20
380.83288805785128
 30
0.0
 11
238.7449691125768
 21
382.63858468119048
 31
0.0
  0
LINE
  5
F6
  8
0
 10
241.57477179759809
 20
377.21905749373292
 30
0.0
 11
236.87962895871379
 21
379.3094697672251
 31
0.0
  0
LINE
  5
F7
  8
0
 10
241.5102529379395
 20
377.02885588509508
 30
0.0
 11
236.78145316114211
 21
379.13425319280589
 31
0.0
  0
LINE
  5
F8
  8
0
 10
243.29386063746571
 20
382.28693166981668
 30
0.0
 11
262.4073989688593
 21
382.03923305444988
 31
0.0
  0
LINE
  5
F9
  8
0
 10
235.8172189675918
 20
377.4133625404196
 30
0.0
 11
235.36433742153579
 21
382.38969296325439
 31
0.0
  0
LINE
  5
FA
  8
0
 10
236.19704418653441
 20
376.876785391689
 30
0.0
 11
235.87187987064351
 21
376.81274033100499
 31
0.0
  0
CIRCLE
  5
FB
  8
0
 10
240.0
 20
379.99999999999989
 30
0.0
 40
34.25
  0
CIRCLE
  5
FC
  8
0
 10
240.0
 20
379.99999999999989
 30
0.0
 40
30.0
  0
ARC
  5
FD
  8
0
 10
240.26666666666881
 20
370.35128205128137
 30
0.0
 40
0.2871794871796385
 50
269.99999999999977
 51
360.0
  0
LINE
  5
FE
  8
0
 10
240.55384615384841
 20
370.47435897435821
 30
0.0
 11
240.55384615384841
 21
370.35128205128137
 31
0.0
  0
ARC
  5
FF
  8
0
 10
237.5794871794879
 20
370.35128205128137
 30
0.0
 40
0.2871794871796385
 50
270.0
 51
360.0
  0
LINE
  5
100
  8
0
 10
237.8666666666675
 20
370.47435897435832
 30
0.0
 11
237.8666666666675
 21
370.35128205128137
 31
0.0
  0
ARC
  5
101
  8
0
 10
242.63295075362399
 20
370.8846153846149
 30
0.0
 40
0.061538461538494
 50
89.999999999999986
 51
235.439678220009
  0
ARC
  5
102
  8
0
 10
242.83076923077269
 20
371.17179487179459
 30
0.0
 40
0.4102564102566264
 50
40.541601873497967
 51
89.999999999999986
  0
ARC
  5
103
  8
0
 10
242.83076923077269
 20
371.17179487179459
 30
0.0
 40
0.4102564102566264
 50
235.43967822000889
 51
326.63298703076367
  0
ARC
  5
104
  8
0
 10
243.50765674806979
 20
370.31030381595741
 30
0.0
 40
0.4102564102566264
 50
194.95437033353551
 51
216.87817385345451
  0
LINE
  5
105
  8
0
 10
241.06666666666919
 20
370.91074592115018
 30
0.0
 11
241.06666666666919
 21
370.8846153846149
 31
0.0
  0
LINE
  5
106
  8
0
 10
240.98461538461791
 20
370.06410256410169
 30
0.0
 11
240.63589743589969
 21
370.06410256410169
 31
0.0
  0
LINE
  5
107
  8
0
 10
242.63295075362399
 20
370.94615384615349
 30
0.0
 11
243.1734008838701
 21
370.94615384615349
 31
0.0
  0
LINE
  5
108
  8
0
 10
241.99586184680729
 20
371.43846153846141
 30
0.0
 11
243.14253711084621
 21
371.43846153846141
 31
0.0
  0
ARC
  5
109
  8
0
 10
242.6461538461572
 20
370.90512820512771
 30
0.0
 40
0.8410256410260839
 50
140.64330107273881
 51
303.57748737918632
  0
ARC
  5
10A
  8
0
 10
244.28577995569751
 20
370.35844953466631
 30
0.0
 40
0.4102564102566264
 50
175.26603745311311
 51
225.8460529860541
  0
LINE
  5
10B
  8
0
 10
241.88717948718249
 20
372.3205128205131
 30
0.0
 11
241.45641006473991
 21
372.3205128205131
 31
0.0
  0
ARC
  5
10C
  8
0
 10
242.37948717949041
 20
371.91025641025652
 30
0.0
 40
0.4102564102566264
 50
89.999999999999986
 51
180.0
  0
ARC
  5
10D
  8
0
 10
241.14928972308459
 20
371.9408826974348
 30
0.0
 40
0.8205128205132528
 50
334.06662005680522
 51
357.86089300734187
  0
ARC
  5
10E
  8
0
 10
242.8833824406189
 20
371.32435546667563
 30
0.0
 40
0.996224746408062
 50
4.2068467171522084
 51
90.666449776468014
  0
LINE
  5
10F
  8
0
 10
243.87692307692711
 20
371.3974358974358
 30
0.0
 11
243.87692307692711
 21
370.3923076923071
 31
0.0
  0
LINE
  5
110
  8
0
 10
241.88717948718249
 20
371.58205128205122
 30
0.0
 11
242.8307692307726
 21
371.58205128205122
 31
0.0
  0
ARC
  5
111
  8
0
 10
238.68660771281679
 20
370.4437326871801
 30
0.0
 40
0.8205128205132528
 50
154.06662005680519
 51
177.8608930073419
  0
ARC
  5
112
  8
0
 10
241.37378719999771
 20
370.4437326871801
 30
0.0
 40
0.8205128205132528
 50
154.06662005680519
 51
177.86089300734179
  0
LINE
  5
113
  8
0
 10
240.63589743589969
 20
370.80256410256368
 30
0.0
 11
240.63589743589969
 21
370.06410256410169
 31
0.0
  0
LINE
  5
114
  8
0
 10
238.23589743589849
 20
370.06410256410169
 30
0.0
 11
239.13846153846299
 21
370.06410256410169
 31
0.0
  0
ARC
  5
115
  8
0
 10
240.98461538461791
 20
370.91074592115018
 30
0.0
 40
0.0820512820513253
 50
0.0000000000008002
 51
54.900367804606418
  0
ARC
  5
116
  8
0
 10
240.98461538461791
 20
370.8846153846149
 30
0.0
 40
0.0820512820513253
 50
270.0
 51
0.0000000000003931
  0
ARC
  5
117
  8
0
 10
241.45641025641299
 20
371.47386946346472
 30
0.0
 40
0.0820512820513253
 50
180.0
 51
234.90036780460591
  0
ARC
  5
118
  8
0
 10
241.45641025641299
 20
371.49999999999989
 30
0.0
 40
0.0820512820513253
 50
90.000000000000085
 51
179.9999999999994
  0
LINE
  5
119
  8
0
 10
241.37435897436171
 20
371.47386946346472
 30
0.0
 11
241.37435897436171
 21
371.49999999999989
 31
0.0
  0
ARC
  5
11A
  8
0
 10
240.98461538461791
 20
370.80256410256368
 30
0.0
 40
0.7384615384619276
 50
270.00000000000011
 51
54.90036780460607
  0
ARC
  5
11B
  8
0
 10
241.45641025641299
 20
371.58205128205122
 30
0.0
 40
0.7384615384619276
 50
89.999999999999986
 51
234.9003678046067
  0
LINE
  5
11C
  8
0
 10
241.45641025641299
 20
371.58205128205122
 30
0.0
 11
241.88717948718249
 21
371.58205128205122
 31
0.0
  0
LINE
  5
11D
  8
0
 10
241.88717948718249
 20
371.58205128205122
 30
0.0
 11
241.88717948718249
 21
372.3205128205131
 31
0.0
  0
ARC
  5
11E
  8
0
 10
239.89743589743779
 20
371.19230769230751
 30
0.0
 40
1.1282051282057219
 50
89.999999999999986
 51
270.0
  0
LINE
  5
11F
  8
0
 10
240.63589743589981
 20
371.58205128205122
 30
0.0
 11
240.63589743589981
 21
372.3205128205131
 31
0.0
  0
ARC
  5
120
  8
0
 10
239.89743589743779
 20
371.19230769230751
 30
0.0
 40
0.389743589743795
 50
89.999999999999986
 51
140.83328928387959
  0
LINE
  5
121
  8
0
 10
240.55384615384841
 20
370.94615384615349
 30
0.0
 11
240.55384615384841
 21
371.43846153846141
 31
0.0
  0
LINE
  5
122
  8
0
 10
239.59526318230621
 20
371.43846153846141
 30
0.0
 11
240.55384615384841
 21
371.43846153846141
 31
0.0
  0
LINE
  5
123
  8
0
 10
239.59526318230621
 20
370.94615384615349
 30
0.0
 11
240.55384615384841
 21
370.94615384615349
 31
0.0
  0
LINE
  5
124
  8
0
 10
239.89743589743779
 20
371.58205128205122
 30
0.0
 11
240.63589743589981
 21
371.58205128205122
 31
0.0
  0
LINE
  5
125
  8
0
 10
239.89743589743779
 20
370.80256410256368
 30
0.0
 11
240.98461538461791
 21
370.80256410256368
 31
0.0
  0
ARC
  5
126
  8
0
 10
239.89743589743779
 20
371.19230769230751
 30
0.0
 40
0.389743589743795
 50
219.1667107161197
 51
270.0
  0
LINE
  5
127
  8
0
 10
240.26666666666881
 20
370.06410256410169
 30
0.0
 11
239.89743589743779
 21
370.06410256410169
 31
0.0
  0
LINE
  5
128
  8
0
 10
240.63589743589981
 20
372.3205128205131
 30
0.0
 11
239.89743589743779
 21
372.3205128205131
 31
0.0
  0
LINE
  5
129
  8
0
 10
237.8666666666675
 20
372.3205128205131
 30
0.0
 11
237.12820512820559
 21
372.3205128205131
 31
0.0
  0
ARC
  5
12A
  8
0
 10
240.12079540378161
 20
371.11139508458842
 30
0.0
 40
1.435897435898192
 50
176.7696802327068
 51
226.83313873999671
  0
ARC
  5
12B
  8
0
 10
239.99848225536749
 20
371.11341319880142
 30
0.0
 40
2.0512820512831311
 50
177.79579960996611
 51
210.76639186197559
  0
LINE
  5
12C
  8
0
 10
238.6871794871808
 20
371.19230769230751
 30
0.0
 11
238.6871794871808
 21
372.93589743589808
 31
0.0
  0
LINE
  5
12D
  8
0
 10
237.94871794871889
 20
371.19230769230751
 30
0.0
 11
237.94871794871889
 21
372.93589743589808
 31
0.0
  0
LINE
  5
12E
  8
0
 10
237.5794871794879
 20
370.06410256410169
 30
0.0
 11
237.12820512820559
 21
370.06410256410169
 31
0.0
  0
ARC
  5
12F
  8
0
 10
237.12820512820559
 20
371.19230769230751
 30
0.0
 40
0.389743589743795
 50
219.1667107161197
 51
270.0
  0
LINE
  5
130
  8
0
 10
237.12820512820559
 20
370.80256410256368
 30
0.0
 11
237.94871794871889
 21
370.80256410256368
 31
0.0
  0
LINE
  5
131
  8
0
 10
237.12820512820559
 20
371.58205128205122
 30
0.0
 11
237.8666666666675
 21
371.58205128205122
 31
0.0
  0
LINE
  5
132
  8
0
 10
236.82603241307399
 20
370.94615384615349
 30
0.0
 11
237.78461538461619
 21
370.94615384615349
 31
0.0
  0
LINE
  5
133
  8
0
 10
236.82603241307399
 20
371.43846153846141
 30
0.0
 11
237.78461538461619
 21
371.43846153846141
 31
0.0
  0
LINE
  5
134
  8
0
 10
237.78461538461619
 20
370.94615384615349
 30
0.0
 11
237.78461538461619
 21
371.43846153846141
 31
0.0
  0
ARC
  5
135
  8
0
 10
237.12820512820559
 20
371.19230769230751
 30
0.0
 40
0.389743589743795
 50
89.999999999999986
 51
140.83328928387959
  0
LINE
  5
136
  8
0
 10
237.8666666666675
 20
371.58205128205122
 30
0.0
 11
237.8666666666675
 21
372.3205128205131
 31
0.0
  0
ARC
  5
137
  8
0
 10
237.12820512820559
 20
371.19230769230751
 30
0.0
 40
1.1282051282057219
 50
89.999999999999986
 51
270.0
  0
LINE
  5
138
  8
0
 10
242.8717948717983
 20
372.3205128205131
 30
0.0
 11
242.37948717949041
 21
372.3205128205131
 31
0.0
  0
LINE
  5
139
  8
0
 10
244.00000000000409
 20
370.06410256410169
 30
0.0
 11
243.17948717949079
 21
370.06410256410169
 31
0.0
  0
LINE
  5
13A
  8
0
 10
237.94871794871889
 20
372.93589743589808
 30
0.0
 11
238.6871794871808
 21
372.93589743589808
 31
0.0
  0
TEXT
  5
13B
  8
0
 10
236.91249999999991
 20
367.49999999999989
 30
0.0
 40
1.5
  1
CLAYTON
 41
0.65
  7
06500
 72
     1
 11
239.99999999999989
 21
367.49999999999989
 31
0.0
  0
LINE
  5
13C
  8
3
 10
262.58271519652448
 20
366.96186330225379
 30
0.0
 11
265.98076211353322
 21
364.99999999999989
 31
0.0
  0
LINE
  5
13D
  8
3
 10
217.41728480347291
 20
366.96186330225243
 30
0.0
 11
214.01923788646681
 21
365.0
 31
0.0
  0
LINE
  5
13E
  8
3
 10
259.48557158514978
 20
391.24999999999989
 30
0.0
 11
265.9807621135331
 21
394.99999999999989
 31
0.0
  0
LINE
  5
13F
  8
3
 10
256.72075857324143
 20
395.05543864307441
 30
0.0
 11
262.29434476432169
 21
400.0739181907656
 31
0.0
  0
LINE
  5
140
  8
3
 10
262.37674264578601
 20
377.64810957647768
 30
0.0
 11
269.83565686104822
 21
376.86414610197028
 31
0.0
  0
LINE
  5
141
  8
3
 10
262.37674264578612
 20
382.35189042352221
 30
0.0
 11
269.83565686104822
 21
383.13585389802961
 31
0.0
  0
LINE
  5
142
  8
3
 10
256.72075857324131
 20
364.94456135692582
 30
0.0
 11
262.29434476432169
 21
359.92608180923418
 31
0.0
  0
LINE
  5
143
  8
3
 10
259.48557158514978
 20
368.74999999999989
 30
0.0
 11
260.05958964888862
 21
368.41859051638062
 31
0.0
  0
LINE
  5
144
  8
3
 10
244.6780130433996
 20
357.99167898348918
 30
0.0
 11
246.23735072453269
 21
350.6555719779858
 31
0.0
  0
LINE
  5
145
  8
3
 10
249.15157446920551
 20
359.44522720304133
 30
0.0
 11
252.202099292274
 21
352.5936362707219
 31
0.0
  0
LINE
  5
146
  8
3
 10
230.8484255307944
 20
359.4452272030415
 30
0.0
 11
227.79790070772589
 21
352.5936362707219
 31
0.0
  0
LINE
  5
147
  8
3
 10
235.3219869566004
 20
357.99167898348929
 30
0.0
 11
233.7626492754672
 21
350.6555719779858
 31
0.0
  0
LINE
  5
148
  8
3
 10
220.51442841484999
 20
368.75
 30
0.0
 11
219.94041035111371
 21
368.4185905163821
 31
0.0
  0
LINE
  5
149
  8
3
 10
223.2792414267586
 20
364.94456135692559
 30
0.0
 11
217.70565523567811
 21
359.92608180923418
 31
0.0
  0
LINE
  5
14A
  8
3
 10
217.62325735421379
 20
382.35189042352221
 30
0.0
 11
210.16434313895169
 21
383.13585389802961
 31
0.0
  0
LINE
  5
14B
  8
3
 10
217.62325735421379
 20
377.64810957647768
 30
0.0
 11
210.16434313895169
 21
376.86414610197028
 31
0.0
  0
LINE
  5
14C
  8
3
 10
223.27924142675869
 20
395.05543864307418
 30
0.0
 11
217.70565523567811
 21
400.0739181907656
 31
0.0
  0
LINE
  5
14D
  8
3
 10
220.51442841484999
 20
391.25
 30
0.0
 11
214.01923788646681
 21
395.0
 31
0.0
  0
LINE
  5
14E
  8
3
 10
235.3219869566004
 20
402.00832101651048
 30
0.0
 11
233.7626492754672
 21
409.34442802201409
 31
0.0
  0
LINE
  5
14F
  8
3
 10
230.8484255307944
 20
400.5547727969585
 30
0.0
 11
227.79790070772589
 21
407.40636372927798
 31
0.0
  0
LINE
  5
150
  8
3
 10
244.6780130433996
 20
402.00832101651042
 30
0.0
 11
246.2373507245328
 21
409.34442802201409
 31
0.0
  0
POLYLINE
  5
151
  8
0
 66
     1
 10
0.0
 20
0.0
 30
0.0
 70
     1
 40
1.0
 41
1.0
  0
VERTEX
  5
152
  8
0
 10
239.5
 20
379.99999999999989
 30
0.0
 42
1.0
  0
VERTEX
  5
153
  8
0
 10
240.49999999999989
 20
379.99999999999989
 30
0.0
 42
1.0
  0
SEQEND
  5
154
  8
0
  0
CIRCLE
  5
155
  8
0
 10
239.99999999999989
 20
379.99999999999989
 30
0.0
 40
1.0
  0
LINE
  5
156
  8
0
 10
261.75
 20
369.49999999999989
 30
0.0
 11
261.75
 21
366.5209800542263
 31
0.0
  0
LINE
  5
157
  8
0
 10
261.25
 20
369.49999999999989
 30
0.0
 11
261.25
 21
366.52098005422511
 31
0.0
  0
LINE
  5
158
  8
0
 10
218.25
 20
369.49999999999989
 30
0.0
 11
218.25
 21
366.52098005422511
 31
0.0
  0
LINE
  5
159
  8
0
 10
218.75
 20
369.49999999999989
 30
0.0
 11
218.75
 21
366.5209800542263
 31
0.0
  0
CIRCLE
  5
15A
  8
0
 10
218.5
 20
368.0
 30
0.0
 40
1.5
  0
CIRCLE
  5
15B
  8
0
 10
261.5
 20
368.0
 30
0.0
 40
1.5
  0
TEXT
  5
15C
  8
0
 10
236.92857142857139
 20
359.24999999999989
 30
0.0
 40
4.0
  1
15
 41
0.75
  7
07500
 72
     4
 11
240.0
 21
361.24999999999989
 31
0.0
  0
TEXT
  5
15D
  8
0
 10
226.12188366237331
 20
393.16906864453
 30
0.0
 40
4.0
  1
27
 41
0.75
  7
07500
 72
     4
 11
228.9790265195162
 21
395.16906864453
 31
0.0
  0
TEXT
  5
15E
  8
0
 10
219.2391188908945
 20
383.79406864453023
 30
0.0
 40
4.0
  1
24
 41
0.75
  7
07500
 72
     4
 11
222.16769031946589
 21
385.79406864453011
 31
0.0
  0
TEXT
  5
15F
  8
0
 10
219.7391188908943
 20
372.20593135546972
 30
0.0
 40
4.0
  1
21
 41
0.75
  7
07500
 72
     4
 11
222.16769031946581
 21
374.20593135546972
 31
0.0
  0
TEXT
  5
160
  8
0
 10
225.9075979480875
 20
362.83093135546972
 30
0.0
 40
4.0
  1
18
 41
0.75
  7
07500
 72
     4
 11
228.97902651951611
 21
364.83093135546972
 31
0.0
  0
TEXT
  5
161
  8
0
 10
247.94954490905499
 20
362.83093135546989
 30
0.0
 40
4.0
  1
12
 41
0.75
  7
07500
 72
     4
 11
251.0209734804836
 21
364.83093135546989
 31
0.0
  0
TEXT
  5
162
  8
0
 10
256.02278587101029
 20
372.20593135546972
 30
0.0
 40
4.0
  1
9
 72
     4
 11
257.83230968053408
 21
374.20593135546972
 31
0.0
  0
TEXT
  5
163
  8
0
 10
255.83230968053419
 20
383.79406864453023
 30
0.0
 40
4.0
  1
6
 72
     4
 11
257.83230968053419
 21
385.79406864453028
 31
0.0
  0
TEXT
  5
164
  8
0
 10
249.11621157572191
 20
393.16906864453023
 30
0.0
 40
4.0
  1
3
 72
     4
 11
251.0209734804838
 21
395.16906864453011
 31
0.0
  0
TEXT
  5
165
  8
0
 10
238.0952380952381
 20
396.74999999999989
 30
0.0
 40
4.0
  1
0
 72
     4
 11
240.0
 21
398.74999999999989
 31
0.0
  0
LINE
  5
166
  8
0
 10
253.22516817658061
 20
398.20288237343618
 30
0.0
 11
257.63355756877422
 21
404.27050983124832
 31
0.0
  0
LINE
  5
167
  8
0
 10
261.398771616641
 20
386.95288237343618
 30
0.0
 11
268.53169548885461
 21
389.27050983124838
 31
0.0
  0
LINE
  5
168
  8
0
 10
261.39877161664077
 20
373.04711762656359
 30
0.0
 11
268.53169548885461
 21
370.72949016875151
 31
0.0
  0
LINE
  5
169
  8
0
 10
253.22516817658061
 20
361.79711762656359
 30
0.0
 11
257.63355756877411
 21
355.72949016875162
 31
0.0
  0
LINE
  5
16A
  8
0
 10
240.0
 20
357.49999999999989
 30
0.0
 11
240.0
 21
350.0
 31
0.0
  0
LINE
  5
16B
  8
0
 10
226.77483182341931
 20
361.79711762656359
 30
0.0
 11
222.36644243122581
 21
355.72949016875151
 31
0.0
  0
LINE
  5
16C
  8
0
 10
218.60122838335889
 20
373.04711762656359
 30
0.0
 11
211.46830451114531
 21
370.72949016875151
 31
0.0
  0
LINE
  5
16D
  8
0
 10
218.601228383359
 20
386.9528823734363
 30
0.0
 11
211.46830451114539
 21
389.27050983124838
 31
0.0
  0
LINE
  5
16E
  8
0
 10
226.77483182341931
 20
398.2028823734363
 30
0.0
 11
222.36644243122581
 21
404.27050983124832
 31
0.0
  0
LINE
  5
16F
  8
0
 10
240.0
 20
402.49999999999989
 30
0.0
 11
240.0
 21
409.99999999999989
 31
0.0
  0
LINE
  5
170
  8
3
 10
250.5751527199705
 20
403.75218189870702
 30
0.0
 11
252.202099292274
 21
407.40636372927798
 31
0.0
  0
TEXT
  5
2A2
  8
0
 62
     3
 10
0.0
 20
0.0
 30
0.0
 40
10.0
  1
PDH160R-1/30
  7
STANDARD1
  0
ENDSEC
  0
EOF
