  0
SECTION
  2
HEADER
  9
$ACADVER
  1
AC1009
  9
$INSBASE
 10
0.0
 20
0.0
 30
0.0
  9
$EXTMIN
 10
0.0
 20
-2.960436562073669
 30
0.0
  9
$EXTMAX
 10
590.0
 20
470.0
 30
0.0
  9
$LIMMIN
 10
0.0
 20
0.0
  9
$LIMMAX
 10
750.0
 20
540.0
  9
$ORTHOMODE
 70
     1
  9
$REGENMODE
 70
     1
  9
$FILLMODE
 70
     1
  9
$QTEXTMODE
 70
     0
  9
$MIRRTEXT
 70
     0
  9
$DRAGMODE
 70
     2
  9
$LTSCALE
 40
20.0
  9
$OSMODE
 70
    37
  9
$ATTMODE
 70
     1
  9
$TEXTSIZE
 40
2.0
  9
$TRACEWID
 40
0.05
  9
$TEXTSTYLE
  7
K50
  9
$CLAYER
  8
0
  9
$CELTYPE
  6
BYLAYER
  9
$CECOLOR
 62
   256
  9
$DIMSCALE
 40
2.0
  9
$DIMASZ
 40
3.0
  9
$DIMEXO
 40
2.0
  9
$DIMDLI
 40
0.38
  9
$DIMRND
 40
0.0
  9
$DIMDLE
 40
0.0
  9
$DIMEXE
 40
2.0
  9
$DIMTP
 40
0.0
  9
$DIMTM
 40
0.0
  9
$DIMTXT
 40
3.2000000000000002
  9
$DIMCEN
 40
0.0
  9
$DIMTSZ
 40
0.0
  9
$DIMTOL
 70
     0
  9
$DIMLIM
 70
     0
  9
$DIMTIH
 70
     0
  9
$DIMTOH
 70
     0
  9
$DIMSE1
 70
     0
  9
$DIMSE2
 70
     0
  9
$DIMTAD
 70
     1
  9
$DIMZIN
 70
     0
  9
$DIMBLK
  1

  9
$DIMASO
 70
     0
  9
$DIMSHO
 70
     0
  9
$DIMPOST
  1

  9
$DIMAPOST
  1

  9
$DIMALT
 70
     0
  9
$DIMALTD
 70
     2
  9
$DIMALTF
 40
25.399999999999999
  9
$DIMLFAC
 40
1.0
  9
$DIMTOFL
 70
     1
  9
$DIMTVP
 40
1.6000000000000001
  9
$DIMTIX
 70
     1
  9
$DIMSOXD
 70
     0
  9
$DIMSAH
 70
     0
  9
$DIMBLK1
  1

  9
$DIMBLK2
  1

  9
$DIMSTYLE
  2
STANDARD
  9
$DIMCLRD
 70
     0
  9
$DIMCLRE
 70
     0
  9
$DIMCLRT
 70
     0
  9
$DIMTFAC
 40
1.0
  9
$DIMGAP
 40
0.09
  9
$LUNITS
 70
     2
  9
$LUPREC
 70
     1
  9
$SKETCHINC
 40
0.1
  9
$FILLETRAD
 40
0.6
  9
$AUNITS
 70
     0
  9
$AUPREC
 70
     1
  9
$MENU
  1
E:\r13\win\SUPPORT\ACAD
  9
$ELEVATION
 40
0.0
  9
$PELEVATION
 40
0.0
  9
$THICKNESS
 40
0.0
  9
$LIMCHECK
 70
     0
  9
$BLIPMODE
 70
     0
  9
$CHAMFERA
 40
0.0
  9
$CHAMFERB
 40
0.0
  9
$SKPOLY
 70
     0
  9
$TDCREATE
 40
2449839.7920254632
  9
$TDUPDATE
 40
2457897.4091245248
  9
$TDINDWG
 40
0.0370659259
  9
$TDUSRTIMER
 40
0.0370659259
  9
$USRTIMER
 70
     1
  9
$ANGBASE
 50
0.0
  9
$ANGDIR
 70
     0
  9
$PDMODE
 70
     0
  9
$PDSIZE
 40
0.0
  9
$PLINEWID
 40
0.0
  9
$COORDS
 70
     1
  9
$SPLFRAME
 70
     0
  9
$SPLINETYPE
 70
     6
  9
$SPLINESEGS
 70
     8
  9
$ATTDIA
 70
     0
  9
$ATTREQ
 70
     1
  9
$HANDLING
 70
     1
  9
$HANDSEED
  5
88E
  9
$SURFTAB1
 70
     6
  9
$SURFTAB2
 70
     6
  9
$SURFTYPE
 70
     6
  9
$SURFU
 70
     6
  9
$SURFV
 70
     6
  9
$UCSNAME
  2

  9
$UCSORG
 10
0.0
 20
0.0
 30
0.0
  9
$UCSXDIR
 10
1.0
 20
0.0
 30
0.0
  9
$UCSYDIR
 10
0.0
 20
1.0
 30
0.0
  9
$PUCSNAME
  2

  9
$PUCSORG
 10
0.0
 20
0.0
 30
0.0
  9
$PUCSXDIR
 10
1.0
 20
0.0
 30
0.0
  9
$PUCSYDIR
 10
0.0
 20
1.0
 30
0.0
  9
$USERI1
 70
     0
  9
$USERI2
 70
     1
  9
$USERI3
 70
     0
  9
$USERI4
 70
     0
  9
$USERI5
 70
     0
  9
$USERR1
 40
0.0
  9
$USERR2
 40
0.0
  9
$USERR3
 40
0.0
  9
$USERR4
 40
0.0
  9
$USERR5
 40
0.0
  9
$WORLDVIEW
 70
     1
  9
$SHADEDGE
 70
     3
  9
$SHADEDIF
 70
    70
  9
$TILEMODE
 70
     1
  9
$MAXACTVP
 70
    16
  9
$PLIMCHECK
 70
     0
  9
$PEXTMIN
 10
1.0000000000000000E+020
 20
1.0000000000000000E+020
 30
1.0000000000000000E+020
  9
$PEXTMAX
 10
-1.0000000000000000E+020
 20
-1.0000000000000000E+020
 30
-1.0000000000000000E+020
  9
$PLIMMIN
 10
0.0
 20
0.0
  9
$PLIMMAX
 10
12.0
 20
9.0
  9
$UNITMODE
 70
     0
  9
$VISRETAIN
 70
     0
  9
$PLINEGEN
 70
     0
  9
$PSLTSCALE
 70
     0
  0
ENDSEC
  0
SECTION
  2
TABLES
  0
TABLE
  2
VPORT
 70
     1
  0
VPORT
  2
*ACTIVE
 70
     0
 10
0.0
 20
0.0
 11
1.0
 21
1.0
 12
454.05982905982899
 22
250.0
 13
0.0
 23
0.0
 14
20.0
 24
20.0
 15
20.0
 25
20.0
 16
0.0
 26
0.0
 36
1.0
 17
0.0
 27
0.0
 37
0.0
 40
500.0
 41
1.816239316239316
 42
50.0
 43
0.0
 44
0.0
 50
0.0
 51
0.0
 71
     0
 72
   500
 73
     1
 74
     0
 75
     0
 76
     0
 77
     0
 78
     2
  0
ENDTAB
  0
TABLE
  2
LTYPE
 70
     3
  0
LTYPE
  2
CONTINUOUS
 70
     0
  3
Solid Line
 72
    65
 73
     0
 40
0.0
  0
LTYPE
  2
CENTER
 70
     0
  3
____ _ ____ _ ____ _ ____ _ ____ _ ____ _ ____
 72
    65
 73
     4
 40
2.0
 49
1.25
 49
-0.25
 49
0.25
 49
-0.25
  0
LTYPE
  2
PHANTOM2
 70
     0
  3
___ _ _ ___ _ _ ___ _ _ ___ _ _
 72
    65
 73
     6
 40
1.25
 49
0.625
 49
-0.125
 49
0.125
 49
-0.125
 49
0.125
 49
-0.125
  0
ENDTAB
  0
TABLE
  2
LAYER
 70
     4
  0
LAYER
  2
0
 70
     0
 62
     7
  6
CONTINUOUS
  0
LAYER
  2
1
 70
     0
 62
     1
  6
CENTER
  0
LAYER
  2
3
 70
     0
 62
     3
  6
CONTINUOUS
  0
LAYER
  2
DEFPOINTS
 70
     0
 62
     7
  6
CONTINUOUS
  0
ENDTAB
  0
TABLE
  2
STYLE
 70
     5
  0
STYLE
  2
STANDARD
 70
     0
 40
0.0
 41
1.0
 50
0.0
 71
     0
 42
0.2
  3
romans.shx
  4

  0
STYLE
  2
06500
 70
     0
 40
0.0
 41
1.0
 50
0.0
 71
     0
 42
1.0
  3
romans.shx
  4

  0
STYLE
  2
08000
 70
     0
 40
0.0
 41
1.0
 50
0.0
 71
     0
 42
2.0
  3
romans.shx
  4

  0
STYLE
  2
K50
 70
     0
 40
0.0
 41
1.0
 50
0.0
 71
     0
 42
2.0
  3
romans.shx
  4

  0
STYLE
  2
STANDARD1
 70
     0
 40
0.0
 41
1.0
 50
0.0
 71
     0
 42
3.0
  3
txt
  4

  0
ENDTAB
  0
TABLE
  2
VIEW
 70
     1
  0
VIEW
  2
ALL
 70
     0
 40
540.0
 10
441.98319327731087
 20
270.0
 41
0.0
 11
0.0
 21
0.0
 31
1.0
 12
0.0
 22
0.0
 32
0.0
 42
0.0
 43
0.0
 44
0.0
 50
0.0
 71
     0
  0
ENDTAB
  0
TABLE
  2
UCS
 70
     0
  0
ENDTAB
  0
TABLE
  2
APPID
 70
    14
  0
APPID
  2
ACAD
 70
     0
  0
APPID
  2
ACAD_MLEADERVER
 70
     0
  0
APPID
  2
ACAD_EXEMPT_FROM_CAD_STANDARDS
 70
     0
  0
APPID
  2
ACAD_DSTYLE_DIMJAG
 70
     0
  0
APPID
  2
ACAD_DSTYLE_DIMTALN
 70
     0
  0
APPID
  2
ACAD_NAV_VCDISPLAY
 70
     0
  0
APPID
  2
GENIUS_GENODEF_13
 70
     0
  0
APPID
  2
GENIUS_GENOBJ-N-FIL_13
 70
     0
  0
APPID
  2
GENIUS_GENOREF_13
 70
     0
  0
APPID
  2
ACAD_PSEXT
 70
     0
  0
APPID
  2
ACAD_DSTYLE_DIMRADIAL_EXTENSION
 70
     0
  0
APPID
  2
GRADIENTCOLOR1ACI
 70
     0
  0
APPID
  2
GRADIENTCOLOR2ACI
 70
     0
  0
APPID
  2
ACADANNOMONITORALERTICONDI
 70
     0
  0
ENDTAB
  0
TABLE
  2
DIMSTYLE
 70
     1
  0
DIMSTYLE
  2
STANDARD
 70
     0
  3

  4

  5

  6

  7

 40
1.0
 41
0.18
 42
0.0625
 43
0.38
 44
0.18
 45
0.0
 46
0.0
 47
0.0
 48
0.0
140
0.18
141
0.09
142
0.0
143
25.399999999999999
144
1.0
145
0.0
146
1.0
147
0.09
 71
     0
 72
     0
 73
     1
 74
     1
 75
     0
 76
     0
 77
     0
 78
     0
170
     0
171
     2
172
     0
173
     0
174
     0
175
     0
176
     0
177
     0
178
     0
  0
ENDTAB
  0
ENDSEC
  0
SECTION
  2
BLOCKS
  0
BLOCK
  8
0
  2
$MODEL_SPACE
 70
     0
 10
0.0
 20
0.0
 30
0.0
  3
$MODEL_SPACE
  1

  0
ENDBLK
  5
1C6
  8
0
  0
BLOCK
 67
     1
  8
0
  2
$PAPER_SPACE
 70
     0
 10
0.0
 20
0.0
 30
0.0
  3
$PAPER_SPACE
  1

  0
ENDBLK
  5
1C4
 67
     1
  8
0
  0
BLOCK
  8
0
  2
*U0
 70
     1
 10
0.0
 20
0.0
 30
0.0
  3
*U0
  1

  0
SOLID
  5
873
  8
0
  6
CONTINUOUS
 10
219.95235320576171
 20
390.21478624413982
 30
0.0
 11
231.39525900589541
 21
382.80000000000001
 31
0.0
 12
239.21071507485641
 22
382.80000000000001
 32
0.0
 13
239.21071507485641
 23
382.80000000000001
 33
0.0
210
0.0
220
0.0
230
1.0
  0
SOLID
  5
874
  8
0
  6
CONTINUOUS
 10
-240.0
 20
382.39473684210532
 30
0.0
 11
-240.26330166197721
 21
382.39473684210532
 31
0.0
 12
-240.3460962748857
 22
382.36285955362888
 32
0.0
 13
-240.3460962748857
 23
382.36285955362888
 33
0.0
210
0.0
220
0.0
230
-1.0
  0
SOLID
  5
875
  8
0
  6
CONTINUOUS
 10
235.59999999999999
 20
382.80000000000001
 30
0.0
 11
240.0
 21
382.39473684210532
 31
0.0
 12
240.26330166197721
 22
382.39473684210532
 32
0.0
 13
240.26330166197721
 23
382.39473684210532
 33
0.0
210
0.0
220
0.0
230
1.0
  0
SOLID
  5
876
  8
0
  6
CONTINUOUS
 10
-235.59999999999999
 20
382.80000000000001
 30
0.0
 11
-239.21071507485641
 21
382.80000000000001
 31
0.0
 12
-240.26330166197721
 22
382.39473684210532
 32
0.0
 13
-240.26330166197721
 23
382.39473684210532
 33
0.0
210
0.0
220
0.0
230
-1.0
  0
SOLID
  5
877
  8
0
  6
CONTINUOUS
 10
231.39525900589541
 20
382.80000000000001
 30
0.0
 11
232.02068339270349
 21
382.39473684210532
 31
0.0
 12
235.59999999999999
 22
382.39473684210532
 32
0.0
 13
235.59999999999999
 23
382.39473684210532
 33
0.0
  0
SOLID
  5
878
  8
0
  6
CONTINUOUS
 10
-231.39525900589541
 20
382.80000000000001
 30
0.0
 11
-235.59999999999999
 21
382.80000000000001
 31
0.0
 12
-235.59999999999999
 22
382.39473684210532
 32
0.0
 13
-235.59999999999999
 23
382.39473684210532
 33
0.0
210
0.0
220
0.0
230
-1.0
  0
SOLID
  5
879
  8
0
  6
CONTINUOUS
 10
-232.06987817690739
 20
382.36285955362888
 30
0.0
 11
-235.59999999999999
 21
382.36285955362888
 31
0.0
 12
-235.59999999999999
 22
380.07540746836412
 32
0.0
 13
-235.59999999999999
 23
380.07540746836412
 33
0.0
210
0.0
220
0.0
230
-1.0
  0
SOLID
  5
87A
  8
0
  6
CONTINUOUS
 10
232.02068339270349
 20
382.39473684210532
 30
0.0
 11
232.06987817690739
 21
382.36285955362888
 31
0.0
 12
235.59999999999999
 22
382.36285955362888
 32
0.0
 13
235.59999999999999
 23
382.36285955362888
 33
0.0
210
0.0
220
0.0
230
1.0
  0
SOLID
  5
87B
  8
0
  6
CONTINUOUS
 10
-232.02068339270349
 20
382.39473684210532
 30
0.0
 11
-235.59999999999999
 21
382.39473684210532
 31
0.0
 12
-235.59999999999999
 22
382.36285955362888
 32
0.0
 13
-235.59999999999999
 23
382.36285955362888
 33
0.0
210
0.0
220
0.0
230
-1.0
  0
SOLID
  5
87C
  8
0
  6
CONTINUOUS
 10
243.90113631165929
 20
377.96457834449501
 30
0.0
 11
239.48523253779811
 21
377.55785036532347
 31
0.0
 12
243.69389805525
 22
377.55785036532347
 32
0.0
 13
243.69389805525
 23
377.55785036532347
 33
0.0
210
0.0
220
0.0
230
1.0
  0
SOLID
  5
87D
  8
0
  6
CONTINUOUS
 10
-239.48523253779811
 20
377.55785036532347
 30
0.0
 11
-243.69389805525
 21
377.55785036532347
 31
0.0
 12
-242.64925530715811
 22
375.50762353341861
 32
0.0
 13
-242.64925530715811
 23
375.50762353341861
 33
0.0
210
0.0
220
0.0
230
-1.0
  0
LINE
  5
87E
  8
0
  6
CONTINUOUS
 10
219.95235320576171
 20
390.21478624413982
 30
0.0
 11
231.39525900589541
 21
382.80000000000001
 31
0.0
  0
LINE
  5
87F
  8
0
  6
CONTINUOUS
 10
239.21071507485641
 20
382.80000000000001
 30
0.0
 11
219.95235320576171
 21
390.21478624413982
 31
0.0
  0
LINE
  5
880
  8
0
  6
CONTINUOUS
 10
240.26330166197721
 20
382.39473684210532
 30
0.0
 11
240.3460962748857
 21
382.36285955362888
 31
0.0
  0
LINE
  5
881
  8
0
  6
CONTINUOUS
 10
240.3460962748857
 20
382.36285955362888
 30
0.0
 11
240.0
 21
382.39473684210532
 31
0.0
  0
LINE
  5
882
  8
0
  6
CONTINUOUS
 10
239.21071507485641
 20
382.80000000000001
 30
0.0
 11
240.26330166197721
 21
382.39473684210532
 31
0.0
  0
LINE
  5
883
  8
0
  6
CONTINUOUS
 10
231.39525900589541
 20
382.80000000000001
 30
0.0
 11
232.02068339270349
 21
382.39473684210532
 31
0.0
  0
LINE
  5
884
  8
0
  6
CONTINUOUS
 10
235.59999999999999
 20
382.36285955362888
 30
0.0
 11
235.59999999999999
 21
380.07540746836412
 31
0.0
  0
LINE
  5
885
  8
0
  6
CONTINUOUS
 10
235.59999999999999
 20
380.07540746836412
 30
0.0
 11
232.06987817690739
 21
382.36285955362888
 31
0.0
  0
LINE
  5
886
  8
0
  6
CONTINUOUS
 10
232.02068339270349
 20
382.39473684210532
 30
0.0
 11
232.06987817690739
 21
382.36285955362888
 31
0.0
  0
LINE
  5
887
  8
0
  6
CONTINUOUS
 10
235.59999999999999
 20
382.39473684210532
 30
0.0
 11
235.59999999999999
 21
382.36285955362888
 31
0.0
  0
LINE
  5
888
  8
0
  6
CONTINUOUS
 10
243.90113631165929
 20
377.96457834449501
 30
0.0
 11
239.48523253779811
 21
377.55785036532347
 31
0.0
  0
LINE
  5
889
  8
0
  6
CONTINUOUS
 10
243.69389805525
 20
377.55785036532347
 30
0.0
 11
243.90113631165929
 21
377.96457834449501
 31
0.0
  0
LINE
  5
88A
  8
0
  6
CONTINUOUS
 10
243.69389805525
 20
377.55785036532347
 30
0.0
 11
242.64925530715811
 21
375.50762353341861
 31
0.0
  0
LINE
  5
88B
  8
0
  6
CONTINUOUS
 10
242.64925530715811
 20
375.50762353341861
 30
0.0
 11
239.48523253779811
 21
377.55785036532347
 31
0.0
  0
ENDBLK
  5
88D
  8
0
  0
ENDSEC
  0
SECTION
  2
ENTITIES
  0
LINE
  5
36
  8
0
 10
246.0
 20
152.0000000000002
 30
0.0
 11
246.0
 21
152.3000000000003
 31
0.0
  0
LINE
  5
37
  8
0
 10
228.67619251621289
 20
229.92468268249459
 30
0.0
 11
251.32380748378711
 21
229.9246826824949
 31
0.0
  0
LINE
  5
38
  8
0
 10
234.0
 20
152.3000000000003
 30
0.0
 11
249.58063861508381
 21
152.3000000000003
 31
0.0
  0
LINE
  5
39
  8
0
 10
227.0
 20
228.5241872578128
 30
0.0
 11
227.0
 21
182.0000000000002
 31
0.0
  0
LINE
  5
3A
  8
0
 10
227.0
 20
182.0000000000002
 30
0.0
 11
252.99999999999989
 21
182.0000000000002
 31
0.0
  0
LINE
  5
3B
  8
0
 10
234.0
 20
152.0000000000002
 30
0.0
 11
234.0
 21
152.3000000000003
 31
0.0
  0
LINE
  5
3C
  8
0
 10
234.0
 20
152.3000000000003
 30
0.0
 11
230.41936138491599
 21
152.3000000000003
 31
0.0
  0
LINE
  5
3D
  8
0
 10
229.42288539146679
 20
153.21612154937341
 30
0.0
 11
227.0
 21
182.0000000000002
 31
0.0
  0
ARC
  5
3E
  8
0
 10
239.99999999999989
 20
182.0000000000002
 30
0.0
 40
50.0
 50
76.989426258763004
 51
103.0105750854505
  0
ARC
  5
3F
  8
0
 10
230.41936138491599
 20
153.3000000000003
 30
0.0
 40
1.0
 50
184.81153450167801
 51
270.0
  0
ARC
  5
40
  8
0
 10
229.25
 20
228.5241872578128
 30
0.0
 40
2.25
 50
103.0105750854505
 51
180.0
  0
ARC
  5
41
  8
0
 10
250.75
 20
228.5241872578128
 30
0.0
 40
2.25
 50
360.0
 51
76.989424914549517
  0
ARC
  5
42
  8
0
 10
249.58063861508381
 20
153.3000000000003
 30
0.0
 40
1.0
 50
270.00000000000011
 51
355.18846549832199
  0
LINE
  5
43
  8
0
 10
250.57711438307689
 20
153.21611887095281
 30
0.0
 11
252.99999999999989
 21
182.0000000000002
 31
0.0
  0
LINE
  5
44
  8
0
 10
253.0
 20
228.5241872578128
 30
0.0
 11
252.99999999999989
 21
182.0000000000002
 31
0.0
  0
LINE
  5
45
  8
1
 10
233.0
 20
118.5
 30
0.0
 11
247.0
 21
118.5
 31
0.0
  0
LINE
  5
46
  8
0
 10
161.7999999999999
 20
134.0
 30
0.0
 11
318.19999999999987
 21
134.0
 31
0.0
  0
LINE
  5
47
  8
0
 10
320.0
 20
135.7999999999999
 30
0.0
 11
159.99999999999989
 21
135.80000000000001
 31
0.0
  0
LINE
  5
48
  8
0
 10
320.0
 20
150.1999999999999
 30
0.0
 11
159.99999999999989
 21
150.2000000000001
 31
0.0
  0
LINE
  5
49
  8
0
 10
159.99999999999989
 20
150.19999999999999
 30
0.0
 11
161.80000000000001
 21
152.0
 31
0.0
  0
LINE
  5
4A
  8
0
 10
161.80000000000001
 20
134.0
 30
0.0
 11
159.99999999999989
 21
135.80000000000001
 31
0.0
  0
LINE
  5
4B
  8
0
 10
319.99999999999989
 20
135.7999999999999
 30
0.0
 11
318.19999999999987
 21
134.0
 31
0.0
  0
LINE
  5
4C
  8
0
 10
319.99999999999989
 20
150.19999999999999
 30
0.0
 11
318.19999999999987
 21
152.0
 31
0.0
  0
LINE
  5
4D
  8
0
 10
266.5
 20
96.800000000000054
 30
0.0
 11
213.49999999999989
 21
96.800000000000054
 31
0.0
  0
LINE
  5
4E
  8
0
 10
257.49999999999989
 20
81.500000000000114
 30
0.0
 11
222.5
 21
81.499999999999886
 31
0.0
  0
ARC
  5
4F
  8
0
 10
210.99999999999989
 20
102.4999999999999
 30
0.0
 40
2.5
 50
360.0
 51
89.999999999999915
  0
ARC
  5
50
  8
0
 10
268.99999999999989
 20
102.5
 30
0.0
 40
2.5
 50
89.999999999999986
 51
180.0
  0
ARC
  5
51
  8
0
 10
201.87241141678709
 20
107.5
 30
0.0
 40
2.5
 50
182.99999999999989
 51
270.0
  0
ARC
  5
52
  8
0
 10
278.1275885832128
 20
107.5
 30
0.0
 40
2.5
 50
270.0
 51
357.0
  0
LINE
  5
53
  8
0
 10
215.30000000000001
 20
94.999999999999886
 30
0.0
 11
213.49999999999989
 21
96.799999999999955
 31
0.0
  0
LINE
  5
54
  8
0
 10
266.5
 20
96.799999999999955
 30
0.0
 11
264.69999999999987
 21
95.0
 31
0.0
  0
LINE
  5
55
  8
0
 10
223.99999999999989
 20
80.000000000000014
 30
0.0
 11
222.5
 21
81.500000000000014
 31
0.0
  0
LINE
  5
56
  8
0
 10
257.49999999999989
 20
81.5
 30
0.0
 11
256.0
 21
80.0
 31
0.0
  0
LINE
  5
57
  8
0
 10
280.6241624200992
 20
107.3691601093926
 30
0.0
 11
282.0198255992081
 21
134.0
 31
0.0
  0
LINE
  5
58
  8
0
 10
213.49999999999989
 20
102.4999999999999
 30
0.0
 11
213.49999999999989
 21
96.799999999999955
 31
0.0
  0
LINE
  5
59
  8
0
 10
266.5
 20
102.5
 30
0.0
 11
266.5
 21
96.799999999999955
 31
0.0
  0
LINE
  5
5A
  8
0
 10
222.5
 20
95.0
 30
0.0
 11
222.5
 21
81.500000000000014
 31
0.0
  0
LINE
  5
5B
  8
0
 10
257.49999999999989
 20
95.0
 30
0.0
 11
257.49999999999989
 21
81.5
 31
0.0
  0
LINE
  5
5C
  8
0
 10
278.1275885832128
 20
105.0
 30
0.0
 11
201.8724033245922
 21
105.0
 31
0.0
  0
LINE
  5
5D
  8
0
 10
264.69999999999987
 20
95.0
 30
0.0
 11
215.2999999999999
 21
95.0
 31
0.0
  0
LINE
  5
5E
  8
1
 10
240.0
 20
242.0000000000002
 30
0.0
 11
239.99999999999989
 21
70.0
 31
0.0
  0
LINE
  5
5F
  8
0
 10
159.99999999999989
 20
135.80000000000001
 30
0.0
 11
159.99999999999989
 21
150.19999999999999
 31
0.0
  0
LINE
  5
60
  8
0
 10
256.0
 20
80.0
 30
0.0
 11
223.99999999999989
 21
80.000000000000014
 31
0.0
  0
LINE
  5
61
  8
0
 10
319.99999999999989
 20
150.19999999999999
 30
0.0
 11
319.99999999999989
 21
135.7999999999999
 31
0.0
  0
LINE
  5
62
  8
0
 10
161.80000000000001
 20
152.0
 30
0.0
 11
318.19999999999987
 21
152.0
 31
0.0
  0
LINE
  5
63
  8
0
 10
199.37583757990069
 20
107.3691601093926
 30
0.0
 11
197.98017440079181
 21
134.0
 31
0.0
  0
LINE
  5
64
  8
0
 10
552.63083989060726
 20
339.37583757990069
 30
0.0
 11
526.0
 21
337.98017440079178
 31
0.0
  0
POLYLINE
  5
65
  8
0
 66
     1
 10
0.0
 20
0.0
 30
0.0
  0
VERTEX
  5
66
  8
0
 10
542.94969732187451
 20
400.50980762113522
 30
0.0
 42
0.0527972444915795
  0
VERTEX
  5
67
  8
0
 10
542.87123417801115
 20
400.7311726902924
 30
0.0
 42
0.103098111224453
  0
VERTEX
  5
68
  8
0
 10
542.54679010096004
 20
401.15654214783052
 30
0.0
 42
0.092588945984965
 70
     2
 50
139.10660535085981
  0
VERTEX
  5
69
  8
0
 10
542.07585324171896
 20
401.43188591778039
 30
0.0
 42
0.0863188075832996
 50
139.10660535085981
  0
VERTEX
  5
6A
  8
0
 10
541.5
 20
401.5320461355434
 30
0.0
 42
0.0863188075832451
  0
VERTEX
  5
6B
  8
0
 10
540.92414675828127
 20
401.43188591778062
 30
0.0
 42
0.0925889459849473
  0
VERTEX
  5
6C
  8
0
 10
540.45320989904019
 20
401.15654214783069
 30
0.0
 42
0.1030981112243987
 70
     2
 50
220.89339464912709
  0
VERTEX
  5
6D
  8
0
 10
540.12876582198885
 20
400.73117269029251
 30
0.0
 42
0.0527972444935441
 50
220.89339464912709
  0
VERTEX
  5
6E
  8
0
 10
540.05030267809946
 20
400.50980762113522
 30
0.0
 42
0.1119976344768365
  0
SEQEND
  5
6F
  8
0
  0
POLYLINE
  5
70
  8
3
 66
     1
 10
0.0
 20
0.0
 30
0.0
  0
VERTEX
  5
71
  8
3
 10
539.49999999999523
 20
400.60375251016052
 30
0.0
 42
0.1106318363866597
  0
VERTEX
  5
72
  8
3
 10
539.64795981597513
 20
399.94323343669657
 30
0.0
 42
0.1027188556973541
  0
VERTEX
  5
73
  8
3
 10
540.08578643762337
 20
399.36183446494778
 30
0.0
 42
0.0932062632046609
 70
     2
 50
318.71141053102917
  0
VERTEX
  5
74
  8
3
 10
540.7831816827437
 20
398.94875989152581
 30
0.0
 42
0.1045890562083681
 50
318.71141053102917
  0
VERTEX
  5
75
  8
3
 10
541.5
 20
398.84741516726473
 30
0.0
 42
0.0874395308728562
  0
VERTEX
  5
76
  8
3
 10
542.27684850681464
 20
398.98431640717138
 30
0.0
 42
0.0932062632046652
  0
VERTEX
  5
77
  8
3
 10
542.9142135623764
 20
399.36183446494772
 30
0.0
 42
0.1027188556974379
 70
     2
 50
41.288589468967558
  0
VERTEX
  5
78
  8
3
 10
543.35204018402453
 20
399.94323343669629
 30
0.0
 42
0.1106318363866617
 50
41.288589468967558
  0
VERTEX
  5
79
  8
3
 10
543.50000000000023
 20
400.6037525101604
 30
0.0
 42
0.1106318363867612
  0
SEQEND
  5
7A
  8
3
  0
POLYLINE
  5
7B
  8
0
 66
     1
 10
0.0
 20
0.0
 30
0.0
  0
VERTEX
  5
7C
  8
0
 10
539.87899999998308
 20
400.6037525101604
 30
0.0
 42
0.1108883588893684
  0
VERTEX
  5
7D
  8
0
 10
539.99884590409465
 20
400.07000734196203
 30
0.0
 42
0.1027915165369517
  0
VERTEX
  5
7E
  8
0
 10
540.35377990768461
 20
399.59981669235822
 30
0.0
 42
0.0930905543457879
 70
     2
 50
318.78596731275172
  0
VERTEX
  5
7F
  8
0
 10
540.91890565985511
 20
399.26590444593762
 30
0.0
 42
0.1043545494275202
 50
318.78596731275172
  0
VERTEX
  5
80
  8
0
 10
541.5
 20
399.18397286087242
 30
0.0
 42
0.0872273227876182
  0
VERTEX
  5
81
  8
0
 10
542.12980946069808
 20
399.2946884383075
 30
0.0
 42
0.0930905543457368
  0
VERTEX
  5
82
  8
0
 10
542.64622009231527
 20
399.59981669235822
 30
0.0
 42
0.1027915165370488
 70
     2
 50
41.214032687248348
  0
VERTEX
  5
83
  8
0
 10
543.00115409590512
 20
400.07000734196191
 30
0.0
 42
0.1108883588895511
 50
41.214032687248348
  0
VERTEX
  5
84
  8
0
 10
543.12100000001692
 20
400.6037525101604
 30
0.0
 42
0.1108883588895506
  0
SEQEND
  5
85
  8
0
  0
POLYLINE
  5
86
  8
3
 66
     1
 10
0.0
 20
0.0
 30
0.0
  0
VERTEX
  5
87
  8
3
 10
543.50000000000466
 20
400.6037525101604
 30
0.0
 42
0.1133953748801431
  0
VERTEX
  5
88
  8
3
 10
543.35304963869362
 20
401.24337647463261
 30
0.0
 42
0.1034669867763454
  0
VERTEX
  5
89
  8
3
 10
542.91421356237652
 20
401.81132439309488
 30
0.0
 42
0.0919542722339004
 70
     2
 50
139.50657412386769
  0
VERTEX
  5
8A
  8
3
 10
542.27910335240654
 20
402.1777954848306
 30
0.0
 42
0.0851947237659004
 50
139.50657412386769
  0
VERTEX
  5
8B
  8
3
 10
541.5
 20
402.31151704454692
 30
0.0
 42
0.0851947237658637
  0
SEQEND
  5
8C
  8
3
  0
POLYLINE
  5
8D
  8
3
 66
     1
 10
0.0
 20
0.0
 30
0.0
  0
VERTEX
  5
8E
  8
3
 10
541.5
 20
402.31151704454692
 30
0.0
 42
0.0851947237658637
  0
VERTEX
  5
8F
  8
3
 10
540.72089664759312
 20
402.1777954848306
 30
0.0
 42
0.0919542722337824
  0
VERTEX
  5
90
  8
3
 10
540.08578643762337
 20
401.81132439309488
 30
0.0
 42
0.1034669867763839
 70
     2
 50
220.49342587613219
  0
VERTEX
  5
91
  8
3
 10
539.61244726570203
 20
401.19872207544671
 30
0.0
 42
0.1332090518179316
 50
220.49342587613219
  0
VERTEX
  5
92
  8
3
 10
539.50000000000432
 20
400.6037525101604
 30
0.0
 42
0.1133953748802552
  0
SEQEND
  5
93
  8
3
  0
POLYLINE
  5
94
  8
0
 66
     1
 10
0.0
 20
0.0
 30
0.0
  0
VERTEX
  5
95
  8
0
 10
543.12100000001692
 20
400.6037525101604
 30
0.0
 42
0.1131278831509113
  0
VERTEX
  5
96
  8
0
 10
543.00181710943036
 20
401.12377283784213
 30
0.0
 42
0.1033978879773258
  0
VERTEX
  5
97
  8
0
 10
542.64622009231527
 20
401.5851282790602
 30
0.0
 42
0.0920759405311497
 70
     2
 50
139.43037735151631
  0
VERTEX
  5
98
  8
0
 10
542.13129056096807
 20
401.88300040661028
 30
0.0
 42
0.0854080894023359
 50
139.43037735151631
  0
VERTEX
  5
99
  8
0
 10
541.5
 20
401.99162743232313
 30
0.0
 42
0.0854080894023445
  0
SEQEND
  5
9A
  8
0
  0
POLYLINE
  5
9B
  8
0
 66
     1
 10
0.0
 20
0.0
 30
0.0
  0
VERTEX
  5
9C
  8
0
 10
541.5
 20
401.99162743232313
 30
0.0
 42
0.0854080894023445
  0
VERTEX
  5
9D
  8
0
 10
540.8687094390317
 20
401.88300040661039
 30
0.0
 42
0.0920759405310543
  0
VERTEX
  5
9E
  8
0
 10
540.35377990768473
 20
401.58512827906043
 30
0.0
 42
0.1033978879773803
 70
     2
 50
220.56962264847431
  0
VERTEX
  5
9F
  8
0
 10
539.97017629692948
 20
401.08743677835929
 30
0.0
 42
0.1329136879957938
 50
220.56962264847431
  0
VERTEX
  5
A0
  8
0
 10
539.87899999998933
 20
400.6037525101604
 30
0.0
 42
0.1131278831509354
  0
SEQEND
  5
A1
  8
0
  0
LINE
  5
A2
  8
0
 10
540.03966168324723
 20
399.99019237886461
 30
0.0
 11
542.96033831673105
 21
399.99019237886461
 31
0.0
  0
LINE
  5
A3
  8
0
 10
539.88253961369242
 20
400.50980762113522
 30
0.0
 11
543.11746038628576
 21
400.50980762113522
 31
0.0
  0
LINE
  5
A4
  8
1
 10
541.5
 20
393.84442158694787
 30
0.0
 11
541.5
 21
407.31151704455272
 31
0.0
  0
LINE
  5
A5
  8
1
 10
534.49999999998954
 20
400.6037525101604
 30
0.0
 11
548.49999999999852
 21
400.6037525101604
 31
0.0
  0
LINE
  5
A6
  8
0
 10
508.0
 20
301.80000000000001
 30
0.0
 11
508.0
 21
458.19999999999987
 31
0.0
  0
LINE
  5
A7
  8
0
 10
509.7999999999999
 20
460.0
 30
0.0
 11
524.20000000000005
 21
460.0
 31
0.0
  0
LINE
  5
A8
  8
0
 10
580.0
 20
396.0
 30
0.0
 11
580.0
 21
364.0
 31
0.0
  0
LINE
  5
A9
  8
0
 10
524.20000000000005
 20
300.0
 30
0.0
 11
509.7999999999999
 21
300.0
 31
0.0
  0
LINE
  5
AA
  8
1
 10
498.0
 20
380.0
 30
0.0
 11
590.0
 21
380.0
 31
0.0
  0
LINE
  5
AB
  8
0
 10
565.0
 20
404.69999999999987
 30
0.0
 11
565.0
 21
355.2999999999999
 31
0.0
  0
LINE
  5
AC
  8
0
 10
555.0
 20
418.1275885832128
 30
0.0
 11
555.0
 21
341.8724033245922
 31
0.0
  0
LINE
  5
AD
  8
0
 10
565.0
 20
397.5
 30
0.0
 11
578.5
 21
397.5
 31
0.0
  0
LINE
  5
AE
  8
0
 10
565.0
 20
362.5
 30
0.0
 11
578.5
 21
362.5
 31
0.0
  0
LINE
  5
AF
  8
0
 10
557.5
 20
406.5
 30
0.0
 11
563.20000000000005
 21
406.5
 31
0.0
  0
LINE
  5
B0
  8
0
 10
557.50000000000011
 20
353.5
 30
0.0
 11
563.20000000000005
 21
353.5
 31
0.0
  0
LINE
  5
B1
  8
0
 10
552.63083989060726
 20
420.6241624200992
 30
0.0
 11
526.0
 21
422.0198255992081
 31
0.0
  0
LINE
  5
B2
  8
0
 10
578.5
 20
397.5
 30
0.0
 11
580.0
 21
396.0
 31
0.0
  0
LINE
  5
B3
  8
0
 10
580.0
 20
364.0
 30
0.0
 11
578.5
 21
362.5
 31
0.0
  0
LINE
  5
B4
  8
0
 10
563.20000000000005
 20
406.5
 30
0.0
 11
565.0
 21
404.69999999999987
 31
0.0
  0
LINE
  5
B5
  8
0
 10
565.00000000000011
 20
355.30000000000001
 30
0.0
 11
563.20000000000005
 21
353.5
 31
0.0
  0
ARC
  5
B6
  8
0
 10
552.5
 20
418.1275885832128
 30
0.0
 40
2.5
 50
0.0
 51
87.000000000000014
  0
ARC
  5
B7
  8
0
 10
552.5
 20
341.8724114167872
 30
0.0
 40
2.5
 50
272.99999999999989
 51
0.0
  0
ARC
  5
B8
  8
0
 10
557.5
 20
409.0
 30
0.0
 40
2.5
 50
180.0
 51
269.99999999999989
  0
ARC
  5
B9
  8
0
 10
557.50000000000011
 20
351.0
 30
0.0
 40
2.5
 50
90.0
 51
179.99999999999989
  0
LINE
  5
BA
  8
0
 10
578.49999999999989
 20
397.5
 30
0.0
 11
578.50000000000011
 21
362.5
 31
0.0
  0
LINE
  5
BB
  8
0
 10
563.19999999999993
 20
406.5
 30
0.0
 11
563.19999999999993
 21
353.5
 31
0.0
  0
LINE
  5
BC
  8
0
 10
509.7999999999999
 20
460.0
 30
0.0
 11
508.0
 21
458.19999999999987
 31
0.0
  0
LINE
  5
BD
  8
0
 10
524.20000000000005
 20
460.0
 30
0.0
 11
526.0
 21
458.19999999999987
 31
0.0
  0
LINE
  5
BE
  8
0
 10
526.0
 20
301.80000000000001
 30
0.0
 11
524.20000000000005
 21
300.0
 31
0.0
  0
LINE
  5
BF
  8
0
 10
509.7999999999999
 20
300.0
 30
0.0
 11
508.0
 21
301.80000000000001
 31
0.0
  0
LINE
  5
C0
  8
0
 10
509.80000000000013
 20
460.0
 30
0.0
 11
509.79999999999978
 21
300.0
 31
0.0
  0
LINE
  5
C1
  8
0
 10
524.20000000000005
 20
460.0
 30
0.0
 11
524.20000000000005
 21
300.0
 31
0.0
  0
LINE
  5
C2
  8
0
 10
526.0
 20
301.80000000000001
 30
0.0
 11
526.0
 21
458.19999999999987
 31
0.0
  0
LINE
  5
C3
  8
1
 10
541.5
 20
333.78906411468421
 30
0.0
 11
541.5
 21
351.5
 31
0.0
  0
LINE
  5
C4
  8
1
 10
533.0
 20
448.19999999999999
 30
0.0
 11
418.00000000000011
 21
448.19999999999999
 31
0.0
  0
LINE
  5
C5
  8
0
 10
431.4758127421872
 20
461.19999999999999
 30
0.0
 11
477.99999999999989
 21
461.19999999999999
 31
0.0
  0
LINE
  5
C6
  8
0
 10
506.7838811290473
 20
458.77711438307699
 30
0.0
 11
477.99999999999989
 21
461.19999999999999
 31
0.0
  0
ARC
  5
C7
  8
0
 10
506.6999999999997
 20
457.78063861508389
 30
0.0
 40
1.0
 50
0.0000000000000763
 51
85.188465498322017
  0
ARC
  5
C8
  8
0
 10
431.4758127421872
 20
458.94999999999999
 30
0.0
 40
2.25
 50
90.000000000000028
 51
166.98942491454949
  0
ARC
  5
C9
  8
0
 10
431.4758127421872
 20
437.44999999999999
 30
0.0
 40
2.25
 50
193.01057508545051
 51
270.00000000000011
  0
ARC
  5
CA
  8
0
 10
506.6999999999997
 20
438.61936138491609
 30
0.0
 40
1.0
 50
274.81153450167812
 51
360.0
  0
ARC
  5
CB
  8
0
 10
477.99999999999989
 20
448.19999999999999
 30
0.0
 40
50.0
 50
166.98942625876299
 51
193.01057508545051
  0
LINE
  5
CC
  8
0
 10
506.78387845062667
 20
437.62288539146681
 30
0.0
 11
477.99999999999989
 21
435.19999999999999
 31
0.0
  0
LINE
  5
CD
  8
0
 10
507.69999999999982
 20
442.2000000000001
 30
0.0
 11
507.69999999999982
 21
438.61936138491609
 31
0.0
  0
LINE
  5
CE
  8
0
 10
507.99999999999989
 20
442.2000000000001
 30
0.0
 11
507.69999999999982
 21
442.2000000000001
 31
0.0
  0
LINE
  5
CF
  8
0
 10
477.99999999999989
 20
435.19999999999999
 30
0.0
 11
477.99999999999989
 21
461.19999999999999
 31
0.0
  0
LINE
  5
D0
  8
0
 10
431.4758127421872
 20
435.19999999999999
 30
0.0
 11
477.99999999999989
 21
435.19999999999999
 31
0.0
  0
LINE
  5
D1
  8
0
 10
507.69999999999982
 20
442.2000000000001
 30
0.0
 11
507.69999999999982
 21
457.78063861508389
 31
0.0
  0
LINE
  5
D2
  8
0
 10
430.07531731750549
 20
436.876192516213
 30
0.0
 11
430.07531731750521
 21
459.52380748378721
 31
0.0
  0
LINE
  5
D3
  8
0
 10
507.99999999999989
 20
454.2000000000001
 30
0.0
 11
507.69999999999982
 21
454.2000000000001
 31
0.0
  0
CIRCLE
  5
DB
  8
3
 10
240.0
 20
118.5
 30
0.0
 40
1.6209999999999991
  0
CIRCLE
  5
DC
  8
0
 10
240.0
 20
118.5
 30
0.0
 40
2.0
  0
LINE
  5
DD
  8
0
 10
238.0226280066706
 20
118.8
 30
0.0
 11
241.9773719933294
 21
118.8
 31
0.0
  0
LINE
  5
DE
  8
0
 10
238.0226280066706
 20
118.2
 30
0.0
 11
241.9773719933294
 21
118.2
 31
0.0
  0
CIRCLE
  5
DF
  8
0
 10
240.0
 20
448.19999999999999
 30
0.0
 40
13.0
  0
LINE
  5
E0
  8
1
 10
262.99999999999932
 20
448.19999999999999
 30
0.0
 11
217.0000000000002
 21
448.19999999999999
 31
0.0
  0
ARC
  5
E1
  8
0
 10
240.0
 20
380.0
 30
0.0
 40
57.800000000000011
 50
97.122636995102724
 51
82.877363004897276
  0
ARC
  5
E2
  8
0
 10
240.0
 20
380.0
 30
0.0
 40
56.000000000000007
 50
94.163679200921536
 51
85.836320799078464
  0
ARC
  5
E3
  8
0
 10
240.0
 20
380.0
 30
0.0
 40
78.200000000000003
 50
96.520576703812338
 51
83.479423296187676
  0
ARC
  5
E4
  8
0
 10
240.0
 20
380.0
 30
0.0
 40
80.0
 50
94.232536068188026
 51
85.76746393181196
  0
LINE
  5
E5
  8
1
 10
240.0
 20
470.0
 30
0.0
 11
240.0
 21
290.0
 31
0.0
  0
LINE
  5
E6
  8
1
 10
330.0
 20
380.0
 30
0.0
 11
150.0
 21
380.0
 31
0.0
  0
TEXT
  5
297
  8
0
 62
     3
 10
0.0
 20
0.0
 30
0.0
 40
10.0
  1
PDH160L-1/10
  7
STANDARD1
  0
TEXT
  5
709
  8
0
 10
236.91249999999999
 20
367.5
 30
0.0
 40
1.5
  1
CLAYTON
 41
0.65
  7
06500
 72
     1
 11
240.0
 21
367.5
 31
0.0
  0
LINE
  5
70A
  8
0
 10
237.94871794871889
 20
372.93589743589808
 30
0.0
 11
238.6871794871808
 21
372.93589743589808
 31
0.0
  0
LINE
  5
70B
  8
0
 10
244.00000000000409
 20
370.0641025641018
 30
0.0
 11
243.17948717949079
 21
370.0641025641018
 31
0.0
  0
LINE
  5
70C
  8
0
 10
242.8717948717983
 20
372.32051282051322
 30
0.0
 11
242.37948717949041
 21
372.32051282051322
 31
0.0
  0
ARC
  5
70D
  8
0
 10
237.12820512820571
 20
371.19230769230751
 30
0.0
 40
1.1282051282057219
 50
90.0
 51
270.0
  0
LINE
  5
70E
  8
0
 10
237.86666666666761
 20
371.58205128205128
 30
0.0
 11
237.86666666666761
 21
372.32051282051322
 31
0.0
  0
ARC
  5
70F
  8
0
 10
237.12820512820571
 20
371.19230769230751
 30
0.0
 40
0.389743589743795
 50
90.0
 51
140.8332892838788
  0
LINE
  5
710
  8
0
 10
237.78461538461619
 20
370.94615384615349
 30
0.0
 11
237.78461538461619
 21
371.43846153846152
 31
0.0
  0
LINE
  5
711
  8
0
 10
236.82603241307399
 20
371.43846153846152
 30
0.0
 11
237.78461538461619
 21
371.43846153846152
 31
0.0
  0
LINE
  5
712
  8
0
 10
236.82603241307399
 20
370.94615384615349
 30
0.0
 11
237.78461538461619
 21
370.94615384615349
 31
0.0
  0
LINE
  5
713
  8
0
 10
237.12820512820571
 20
371.58205128205128
 30
0.0
 11
237.86666666666761
 21
371.58205128205128
 31
0.0
  0
LINE
  5
714
  8
0
 10
237.12820512820571
 20
370.80256410256368
 30
0.0
 11
237.94871794871889
 21
370.80256410256368
 31
0.0
  0
ARC
  5
715
  8
0
 10
237.12820512820571
 20
371.19230769230751
 30
0.0
 40
0.389743589743795
 50
219.1667107161185
 51
270.0
  0
LINE
  5
716
  8
0
 10
237.57948717948801
 20
370.0641025641018
 30
0.0
 11
237.12820512820571
 21
370.0641025641018
 31
0.0
  0
LINE
  5
717
  8
0
 10
237.94871794871889
 20
371.19230769230751
 30
0.0
 11
237.94871794871889
 21
372.93589743589808
 31
0.0
  0
LINE
  5
718
  8
0
 10
238.6871794871808
 20
371.19230769230751
 30
0.0
 11
238.6871794871808
 21
372.93589743589808
 31
0.0
  0
ARC
  5
719
  8
0
 10
239.99848225536761
 20
371.11341319880142
 30
0.0
 40
2.0512820512831311
 50
177.7957996099646
 51
210.76639186197511
  0
ARC
  5
71A
  8
0
 10
240.12079540378161
 20
371.11139508458848
 30
0.0
 40
1.435897435898192
 50
176.76968023270399
 51
226.8331387399964
  0
LINE
  5
71B
  8
0
 10
237.86666666666761
 20
372.32051282051322
 30
0.0
 11
237.12820512820571
 21
372.32051282051322
 31
0.0
  0
LINE
  5
71C
  8
0
 10
240.63589743589981
 20
372.32051282051322
 30
0.0
 11
239.8974358974379
 21
372.32051282051322
 31
0.0
  0
LINE
  5
71D
  8
0
 10
240.26666666666881
 20
370.0641025641018
 30
0.0
 11
239.8974358974379
 21
370.0641025641018
 31
0.0
  0
ARC
  5
71E
  8
0
 10
239.8974358974379
 20
371.19230769230751
 30
0.0
 40
0.389743589743795
 50
219.1667107161185
 51
270.0
  0
LINE
  5
71F
  8
0
 10
239.8974358974379
 20
370.80256410256368
 30
0.0
 11
240.98461538461791
 21
370.80256410256368
 31
0.0
  0
LINE
  5
720
  8
0
 10
239.8974358974379
 20
371.58205128205128
 30
0.0
 11
240.63589743589981
 21
371.58205128205128
 31
0.0
  0
LINE
  5
721
  8
0
 10
239.59526318230621
 20
370.94615384615349
 30
0.0
 11
240.55384615384841
 21
370.94615384615349
 31
0.0
  0
LINE
  5
722
  8
0
 10
239.59526318230621
 20
371.43846153846152
 30
0.0
 11
240.55384615384841
 21
371.43846153846152
 31
0.0
  0
LINE
  5
723
  8
0
 10
240.55384615384841
 20
370.94615384615349
 30
0.0
 11
240.55384615384841
 21
371.43846153846152
 31
0.0
  0
ARC
  5
724
  8
0
 10
239.8974358974379
 20
371.19230769230751
 30
0.0
 40
0.389743589743795
 50
90.0
 51
140.8332892838788
  0
LINE
  5
725
  8
0
 10
240.63589743589981
 20
371.58205128205128
 30
0.0
 11
240.63589743589981
 21
372.32051282051322
 31
0.0
  0
ARC
  5
726
  8
0
 10
239.8974358974379
 20
371.19230769230751
 30
0.0
 40
1.1282051282057219
 50
90.0
 51
270.0
  0
LINE
  5
727
  8
0
 10
241.88717948718249
 20
371.58205128205128
 30
0.0
 11
241.88717948718249
 21
372.32051282051322
 31
0.0
  0
LINE
  5
728
  8
0
 10
241.45641025641299
 20
371.58205128205128
 30
0.0
 11
241.88717948718249
 21
371.58205128205128
 31
0.0
  0
ARC
  5
729
  8
0
 10
241.45641025641299
 20
371.58205128205128
 30
0.0
 40
0.7384615384619276
 50
90.0
 51
234.9003678046073
  0
ARC
  5
72A
  8
0
 10
240.98461538461791
 20
370.80256410256368
 30
0.0
 40
0.7384615384619276
 50
270.0
 51
54.900367804605331
  0
LINE
  5
72B
  8
0
 10
241.37435897436171
 20
371.47386946346472
 30
0.0
 11
241.37435897436171
 21
371.49999999999989
 31
0.0
  0
ARC
  5
72C
  8
0
 10
241.45641025641299
 20
371.49999999999989
 30
0.0
 40
0.0820512820513253
 50
90.0
 51
179.9999999999967
  0
ARC
  5
72D
  8
0
 10
241.45641025641299
 20
371.47386946346472
 30
0.0
 40
0.0820512820513253
 50
180.0
 51
234.90036780460531
  0
ARC
  5
72E
  8
0
 10
240.98461538461791
 20
370.88461538461502
 30
0.0
 40
0.0820512820513253
 50
270.0
 51
0.0
  0
ARC
  5
72F
  8
0
 10
240.98461538461791
 20
370.91074592115029
 30
0.0
 40
0.0820512820513253
 50
0.0
 51
54.900367804607299
  0
LINE
  5
730
  8
0
 10
238.23589743589849
 20
370.0641025641018
 30
0.0
 11
239.13846153846299
 21
370.0641025641018
 31
0.0
  0
LINE
  5
731
  8
0
 10
240.63589743589981
 20
370.80256410256368
 30
0.0
 11
240.63589743589981
 21
370.0641025641018
 31
0.0
  0
ARC
  5
732
  8
0
 10
241.37378719999771
 20
370.44373268718022
 30
0.0
 40
0.8205128205132528
 50
154.0666200568044
 51
177.8608930073394
  0
ARC
  5
733
  8
0
 10
238.68660771281679
 20
370.44373268718022
 30
0.0
 40
0.8205128205132528
 50
154.0666200568044
 51
177.8608930073394
  0
LINE
  5
734
  8
0
 10
241.88717948718249
 20
371.58205128205128
 30
0.0
 11
242.83076923077269
 21
371.58205128205128
 31
0.0
  0
LINE
  5
735
  8
0
 10
243.87692307692711
 20
371.3974358974358
 30
0.0
 11
243.87692307692711
 21
370.3923076923071
 31
0.0
  0
ARC
  5
736
  8
0
 10
242.8833824406189
 20
371.32435546667568
 30
0.0
 40
0.996224746408062
 50
4.206846717150647
 51
90.666449776468255
  0
ARC
  5
737
  8
0
 10
241.14928972308459
 20
371.94088269743492
 30
0.0
 40
0.8205128205132528
 50
334.06662005680442
 51
357.86089300733943
  0
ARC
  5
738
  8
0
 10
242.37948717949041
 20
371.91025641025658
 30
0.0
 40
0.4102564102566264
 50
90.0
 51
180.0
  0
LINE
  5
739
  8
0
 10
241.88717948718249
 20
372.32051282051322
 30
0.0
 11
241.45641006474
 21
372.32051282051322
 31
0.0
  0
ARC
  5
73A
  8
0
 10
244.28577995569751
 20
370.35844953466642
 30
0.0
 40
0.4102564102566264
 50
175.26603745311081
 51
225.84605298605501
  0
ARC
  5
73B
  8
0
 10
242.6461538461572
 20
370.90512820512788
 30
0.0
 40
0.8410256410260839
 50
140.64330107273929
 51
303.577487379187
  0
LINE
  5
73C
  8
0
 10
241.99586184680729
 20
371.43846153846152
 30
0.0
 11
243.14253711084621
 21
371.43846153846152
 31
0.0
  0
LINE
  5
73D
  8
0
 10
242.6329507536241
 20
370.94615384615349
 30
0.0
 11
243.17340088387019
 21
370.94615384615349
 31
0.0
  0
LINE
  5
73E
  8
0
 10
240.98461538461791
 20
370.0641025641018
 30
0.0
 11
240.63589743589981
 21
370.0641025641018
 31
0.0
  0
LINE
  5
73F
  8
0
 10
241.06666666666931
 20
370.91074592115029
 30
0.0
 11
241.06666666666931
 21
370.88461538461502
 31
0.0
  0
ARC
  5
740
  8
0
 10
243.50765674806979
 20
370.31030381595752
 30
0.0
 40
0.4102564102566264
 50
194.95437033353451
 51
216.8781738534542
  0
ARC
  5
741
  8
0
 10
242.83076923077269
 20
371.1717948717947
 30
0.0
 40
0.4102564102566264
 50
235.43967822000809
 51
326.63298703076367
  0
ARC
  5
742
  8
0
 10
242.83076923077269
 20
371.1717948717947
 30
0.0
 40
0.4102564102566264
 50
40.541601873497832
 51
90.0
  0
ARC
  5
743
  8
0
 10
242.6329507536241
 20
370.88461538461502
 30
0.0
 40
0.061538461538494
 50
90.0
 51
235.43967822000809
  0
LINE
  5
744
  8
0
 10
237.86666666666761
 20
370.47435897435838
 30
0.0
 11
237.86666666666761
 21
370.35128205128137
 31
0.0
  0
ARC
  5
745
  8
0
 10
237.57948717948801
 20
370.35128205128137
 30
0.0
 40
0.2871794871796385
 50
270.0
 51
0.0
  0
LINE
  5
746
  8
0
 10
240.55384615384841
 20
370.47435897435832
 30
0.0
 11
240.55384615384841
 21
370.35128205128137
 31
0.0
  0
ARC
  5
747
  8
0
 10
240.26666666666881
 20
370.35128205128137
 30
0.0
 40
0.2871794871796385
 50
269.99999999999841
 51
0.0
  0
INSERT
  5
749
  8
0
  6
CONTINUOUS
  2
*U0
 10
0.0
 20
0.0
 30
0.0
1001
GRADIENTCOLOR1ACI
1070
     5
1001
GRADIENTCOLOR2ACI
1070
     2
1001
ACAD
1002
{
1000
R14_HATCH_DATA
1000
749
1011
1.0
1021
0.0
1031
0.0
1021
0.0
1031
0.0
1011
0.0
1021
0.0
1031
0.0
1021
1.0
1031
0.0
1011
0.0
1021
0.0
1031
0.0
1021
0.0
1031
1.0
1040
0.0
1010
0.0
1020
0.0
1030
1.0
1000
SOLID
1070
     1
1070
     0
1071
        2
1071
        1
1071
        5
1070
     1
1040
219.95235320576171
1040
390.21478624413982
1040
240.3460962748857
1040
382.36285955362888
1070
     1
1040
240.3460962748857
1040
382.36285955362888
1040
240.0
1040
382.3947368421052
1070
     1
1040
240.0
1040
382.39473684210532
1040
235.59999999999999
1040
382.80000000000001
1070
     1
1040
235.59999999999999
1040
382.80000000000001
1040
235.59999999999999
1040
380.07540746836412
1070
     1
1040
235.59999999999999
1040
380.07540746836412
1040
219.95235320576171
1040
390.21478624413987
1071
        0
1071
        1
1071
        3
1070
     1
1040
239.48523253779811
1040
377.55785036532347
1040
243.90113631165929
1040
377.9645783444949
1070
     1
1040
243.90113631165929
1040
377.96457834449501
1040
242.64925530715811
1040
375.50762353341861
1070
     1
1040
242.64925530715811
1040
375.50762353341861
1040
239.48523253779811
1040
377.55785036532347
1071
        0
1070
     1
1070
     1
1071
        2
1040
233.4407282926656
1040
383.43993908490279
1040
0.0
1040
241.75344302531019
1040
377.0164986264985
1040
0.0
1002
}
  0
LINE
  5
74A
  8
0
 10
239.48523253779811
 20
377.55785036532347
 30
0.0
 11
242.64925530715811
 21
375.50762353341861
 31
0.0
  0
LINE
  5
74B
  8
0
 10
240.34609627488581
 20
382.36285955362888
 30
0.0
 11
219.95235320576171
 21
390.21478624413982
 31
0.0
  0
LINE
  5
74C
  8
0
 10
237.90000000000001
 20
382.58815789473692
 30
0.0
 11
237.90000000000001
 21
377.41184210526308
 31
0.0
  0
LINE
  5
74D
  8
0
 10
238.09999999999999
 20
382.56973684210533
 30
0.0
 11
238.09999999999999
 21
377.43026315789467
 31
0.0
  0
LINE
  5
74E
  8
0
 10
241.90000000000001
 20
382.21973684210531
 30
0.0
 11
241.90000000000001
 21
377.78026315789469
 31
0.0
  0
LINE
  5
74F
  8
0
 10
242.09999999999999
 20
382.20131578947382
 30
0.0
 11
242.09999999999999
 21
377.79868421052629
 31
0.0
  0
LINE
  5
750
  8
0
 10
242.64925530715811
 20
375.50762353341861
 30
0.0
 11
243.90113631165929
 21
377.96457834449501
 31
0.0
  0
LINE
  5
751
  8
0
 10
219.95235320576171
 20
390.21478624413982
 30
0.0
 11
235.59999999999991
 21
380.07540746836412
 31
0.0
  0
LINE
  5
752
  8
0
 10
266.0
 20
380.0
 30
0.0
 11
235.59999999999999
 21
382.80000000000001
 31
0.0
  0
LINE
  5
753
  8
0
 10
235.59999999999999
 20
377.19999999999999
 30
0.0
 11
266.0
 21
380.0
 31
0.0
  0
LINE
  5
754
  8
0
 10
235.59999999999999
 20
382.80000000000001
 30
0.0
 11
235.59999999999999
 21
377.19999999999999
 31
0.0
  0
CIRCLE
  5
755
  8
0
 10
240.0
 20
380.0
 30
0.0
 40
30.0
  0
CIRCLE
  5
756
  8
0
 10
240.0
 20
380.0
 30
0.0
 40
34.25
  0
POLYLINE
  5
757
  8
0
 66
     1
 10
0.0
 20
0.0
 30
0.0
 70
     1
 40
1.0
 41
1.0
  0
VERTEX
  5
758
  8
0
 10
239.59549150281251
 20
379.70610737385368
 30
0.0
 42
-1.0
  0
VERTEX
  5
759
  8
0
 10
240.40450849718749
 20
380.2938926261462
 30
0.0
 42
-1.0
  0
SEQEND
  5
75A
  8
0
  0
CIRCLE
  5
75B
  8
0
 10
240.0
 20
380.0
 30
0.0
 40
1.0
  0
LINE
  5
75C
  8
0
 10
218.25
 20
369.5
 30
0.0
 11
218.25
 21
366.5209800542263
 31
0.0
  0
LINE
  5
75D
  8
0
 10
218.75
 20
369.5
 30
0.0
 11
218.75
 21
366.52098005422511
 31
0.0
  0
LINE
  5
75E
  8
0
 10
261.75
 20
369.5
 30
0.0
 11
261.75
 21
366.52098005422511
 31
0.0
  0
LINE
  5
75F
  8
0
 10
261.25
 20
369.5
 30
0.0
 11
261.25
 21
366.5209800542263
 31
0.0
  0
CIRCLE
  5
760
  8
0
 10
261.5
 20
368.0
 30
0.0
 40
1.5
  0
CIRCLE
  5
761
  8
0
 10
218.5
 20
368.0
 30
0.0
 40
1.5
  0
TEXT
  5
762
  8
0
 10
238.36190476190481
 20
387.55000000000018
 30
0.0
 40
2.0
  1
10
 41
0.8
  7
08000
 72
     1
 11
240.00000000000011
 21
387.55000000000018
 31
0.0
  0
TEXT
  5
763
  8
0
 10
239.1904761904762
 20
389.75000000000023
 30
0.0
 40
2.0
  1
1
 72
     1
 11
240.0
 21
389.75000000000023
 31
0.0
  0
LINE
  5
764
  8
0
 10
238.5
 20
389.75000000000023
 30
0.0
 11
241.5
 21
389.75000000000023
 31
0.0
  0
TEXT
  5
765
  8
0
 10
238.0952380952381
 20
359.25
 30
0.0
 40
4.0
  1
5
 72
     4
 11
240.0
 21
361.25
 31
0.0
  0
TEXT
  5
766
  8
0
 10
249.21144967096001
 20
393.16906864453011
 30
0.0
 40
4.0
  1
9
 72
     4
 11
251.02097348048369
 21
395.16906864453011
 31
0.0
  0
TEXT
  5
767
  8
0
 10
255.92754777577221
 20
383.79406864453023
 30
0.0
 40
4.0
  1
8
 72
     4
 11
257.83230968053408
 21
385.79406864453028
 31
0.0
  0
TEXT
  5
768
  8
0
 10
255.92754777577241
 20
372.20593135546972
 30
0.0
 40
4.0
  1
7
 72
     4
 11
257.83230968053419
 21
374.20593135546972
 31
0.0
  0
TEXT
  5
769
  8
0
 10
249.18824618966519
 20
363.6399483498447
 30
0.0
 40
4.0
  1
6
 72
     4
 11
251.18824618966519
 21
365.6399483498447
 31
0.0
  0
TEXT
  5
76A
  8
0
 10
226.9790265195164
 20
362.83093135547011
 30
0.0
 40
4.0
  1
4
 72
     4
 11
228.9790265195164
 21
364.83093135547011
 31
0.0
  0
TEXT
  5
76B
  8
0
 10
220.26292841470399
 20
372.20593135546972
 30
0.0
 40
4.0
  1
3
 72
     4
 11
222.16769031946589
 21
374.20593135546972
 31
0.0
  0
TEXT
  5
76C
  8
0
 10
220.26292841470379
 20
383.79406864453028
 30
0.0
 40
4.0
  1
2
 72
     4
 11
222.16769031946569
 21
385.79406864453028
 31
0.0
  0
TEXT
  5
76D
  8
0
 10
227.35997890046849
 20
393.16906864453028
 30
0.0
 40
4.0
  1
1
 72
     4
 11
228.9790265195162
 21
395.16906864453028
 31
0.0
  0
TEXT
  5
76E
  8
0
 10
238.0952380952381
 20
396.75
 30
0.0
 40
4.0
  1
0
 72
     4
 11
240.0
 21
398.75
 31
0.0
  0
LINE
  5
76F
  8
3
 10
221.7971176265637
 20
393.22516817658061
 30
0.0
 11
215.7294901687516
 21
397.63355756877422
 31
0.0
  0
LINE
  5
770
  8
0
 10
226.77483182341931
 20
398.2028823734363
 30
0.0
 11
222.36644243122581
 21
404.27050983124838
 31
0.0
  0
LINE
  5
771
  8
3
 10
217.5
 20
380.0
 30
0.0
 11
210.0
 21
380.0
 31
0.0
  0
LINE
  5
772
  8
0
 10
218.60122838335911
 20
386.9528823734363
 30
0.0
 11
211.46830451114531
 21
389.27050983124838
 31
0.0
  0
LINE
  5
773
  8
3
 10
221.79711762656359
 20
366.77483182341928
 30
0.0
 11
215.72949016875151
 21
362.36644243122572
 31
0.0
  0
LINE
  5
774
  8
0
 10
218.6012283833592
 20
373.0471176265637
 30
0.0
 11
211.46830451114531
 21
370.72949016875162
 31
0.0
  0
LINE
  5
775
  8
3
 10
233.0471176265637
 20
358.60122838335911
 30
0.0
 11
230.7294901687516
 21
351.46830451114539
 31
0.0
  0
LINE
  5
776
  8
0
 10
226.77483182341931
 20
361.79711762656359
 30
0.0
 11
222.36644243122581
 21
355.72949016875162
 31
0.0
  0
LINE
  5
777
  8
3
 10
246.95288237343641
 20
358.601228383359
 30
0.0
 11
249.2705098312484
 21
351.46830451114539
 31
0.0
  0
LINE
  5
778
  8
0
 10
240.0
 20
357.5
 30
0.0
 11
240.0
 21
350.0
 31
0.0
  0
LINE
  5
779
  8
3
 10
258.20288237343618
 20
366.77483182341939
 30
0.0
 11
264.27050983124832
 21
362.36644243122589
 31
0.0
  0
LINE
  5
77A
  8
0
 10
253.22516817658061
 20
361.7971176265637
 30
0.0
 11
257.63355756877422
 21
355.72949016875162
 31
0.0
  0
LINE
  5
77B
  8
3
 10
266.00000000000011
 20
380.0
 30
0.0
 11
270.0
 21
380.0
 31
0.0
  0
LINE
  5
77C
  8
0
 10
261.398771616641
 20
373.0471176265637
 30
0.0
 11
268.53169548885472
 21
370.72949016875162
 31
0.0
  0
LINE
  5
77D
  8
3
 10
258.20288237343652
 20
393.22516817658072
 30
0.0
 11
264.27050983124838
 21
397.63355756877422
 31
0.0
  0
LINE
  5
77E
  8
0
 10
261.398771616641
 20
386.95288237343641
 30
0.0
 11
268.53169548885461
 21
389.27050983124838
 31
0.0
  0
LINE
  5
77F
  8
3
 10
246.9528823734363
 20
401.39877161664089
 30
0.0
 11
249.27050983124849
 21
408.53169548885472
 31
0.0
  0
LINE
  5
780
  8
0
 10
253.22516817658061
 20
398.2028823734363
 30
0.0
 11
257.63355756877422
 21
404.27050983124849
 31
0.0
  0
LINE
  5
781
  8
0
 10
240.0
 20
402.5
 30
0.0
 11
240.0
 21
410.0
 31
0.0
  0
LINE
  5
782
  8
3
 10
233.0471176265637
 20
401.39877161664089
 30
0.0
 11
230.7294901687516
 21
408.5316954888545
 31
0.0
  0
ENDSEC
  0
EOF
