  0
SECTION
  2
HEADER
  9
$ACADVER
  1
AC1009
  9
$INSBASE
 10
0.0
 20
0.0
 30
0.0
  9
$EXTMIN
 10
0.0
 20
-2.960436562073669
 30
0.0
  9
$EXTMAX
 10
499.28607074567861
 20
416.64781489944778
 30
0.0
  9
$LIMMIN
 10
0.0
 20
0.0
  9
$LIMMAX
 10
750.0
 20
540.0
  9
$ORTHOMODE
 70
     1
  9
$REGENMODE
 70
     1
  9
$FILLMODE
 70
     1
  9
$QTEXTMODE
 70
     0
  9
$MIRRTEXT
 70
     0
  9
$DRAGMODE
 70
     2
  9
$LTSCALE
 40
20.0
  9
$OSMODE
 70
  3071
  9
$ATTMODE
 70
     1
  9
$TEXTSIZE
 40
6.000000000000048
  9
$TRACEWID
 40
0.05
  9
$TEXTSTYLE
  7
K50
  9
$CLAYER
  8
0
  9
$CELTYPE
  6
BYLAYER
  9
$CECOLOR
 62
   256
  9
$DIMSCALE
 40
2.0
  9
$DIMASZ
 40
3.0
  9
$DIMEXO
 40
2.0
  9
$DIMDLI
 40
0.38
  9
$DIMRND
 40
0.0
  9
$DIMDLE
 40
0.0
  9
$DIMEXE
 40
2.0
  9
$DIMTP
 40
0.0
  9
$DIMTM
 40
0.0
  9
$DIMTXT
 40
3.2000000000000002
  9
$DIMCEN
 40
0.0
  9
$DIMTSZ
 40
0.0
  9
$DIMTOL
 70
     0
  9
$DIMLIM
 70
     0
  9
$DIMTIH
 70
     0
  9
$DIMTOH
 70
     0
  9
$DIMSE1
 70
     0
  9
$DIMSE2
 70
     0
  9
$DIMTAD
 70
     1
  9
$DIMZIN
 70
     0
  9
$DIMBLK
  1

  9
$DIMASO
 70
     0
  9
$DIMSHO
 70
     0
  9
$DIMPOST
  1

  9
$DIMAPOST
  1

  9
$DIMALT
 70
     0
  9
$DIMALTD
 70
     2
  9
$DIMALTF
 40
25.399999999999999
  9
$DIMLFAC
 40
1.0
  9
$DIMTOFL
 70
     1
  9
$DIMTVP
 40
1.6000000000000001
  9
$DIMTIX
 70
     1
  9
$DIMSOXD
 70
     0
  9
$DIMSAH
 70
     0
  9
$DIMBLK1
  1

  9
$DIMBLK2
  1

  9
$DIMSTYLE
  2
STANDARD
  9
$DIMCLRD
 70
     0
  9
$DIMCLRE
 70
     0
  9
$DIMCLRT
 70
     0
  9
$DIMTFAC
 40
1.0
  9
$DIMGAP
 40
0.09
  9
$LUNITS
 70
     2
  9
$LUPREC
 70
     4
  9
$SKETCHINC
 40
0.1
  9
$FILLETRAD
 40
3.0
  9
$AUNITS
 70
     0
  9
$AUPREC
 70
     4
  9
$MENU
  1
E:\r13\win\SUPPORT\ACAD
  9
$ELEVATION
 40
0.0
  9
$PELEVATION
 40
0.0
  9
$THICKNESS
 40
0.0
  9
$LIMCHECK
 70
     0
  9
$BLIPMODE
 70
     0
  9
$CHAMFERA
 40
0.0
  9
$CHAMFERB
 40
0.0
  9
$SKPOLY
 70
     0
  9
$TDCREATE
 40
2449839.7919328702
  9
$TDUPDATE
 40
2456597.7133025462
  9
$TDINDWG
 40
0.0010178819
  9
$TDUSRTIMER
 40
0.0010178819
  9
$USRTIMER
 70
     1
  9
$ANGBASE
 50
0.0
  9
$ANGDIR
 70
     0
  9
$PDMODE
 70
     0
  9
$PDSIZE
 40
0.0
  9
$PLINEWID
 40
0.0
  9
$COORDS
 70
     1
  9
$SPLFRAME
 70
     0
  9
$SPLINETYPE
 70
     6
  9
$SPLINESEGS
 70
     8
  9
$ATTDIA
 70
     0
  9
$ATTREQ
 70
     1
  9
$HANDLING
 70
     1
  9
$HANDSEED
  5
336
  9
$SURFTAB1
 70
     6
  9
$SURFTAB2
 70
     6
  9
$SURFTYPE
 70
     6
  9
$SURFU
 70
     6
  9
$SURFV
 70
     6
  9
$UCSNAME
  2

  9
$UCSORG
 10
0.0
 20
0.0
 30
0.0
  9
$UCSXDIR
 10
1.0
 20
0.0
 30
0.0
  9
$UCSYDIR
 10
0.0
 20
1.0
 30
0.0
  9
$PUCSNAME
  2

  9
$PUCSORG
 10
0.0
 20
0.0
 30
0.0
  9
$PUCSXDIR
 10
1.0
 20
0.0
 30
0.0
  9
$PUCSYDIR
 10
0.0
 20
1.0
 30
0.0
  9
$USERI1
 70
     0
  9
$USERI2
 70
     1
  9
$USERI3
 70
     0
  9
$USERI4
 70
     0
  9
$USERI5
 70
     0
  9
$USERR1
 40
0.0
  9
$USERR2
 40
0.0
  9
$USERR3
 40
0.0
  9
$USERR4
 40
0.0
  9
$USERR5
 40
0.0
  9
$WORLDVIEW
 70
     1
  9
$SHADEDGE
 70
     3
  9
$SHADEDIF
 70
    70
  9
$TILEMODE
 70
     1
  9
$MAXACTVP
 70
    16
  9
$PLIMCHECK
 70
     0
  9
$PEXTMIN
 10
1.0000000000000000E+020
 20
1.0000000000000000E+020
 30
1.0000000000000000E+020
  9
$PEXTMAX
 10
-1.0000000000000000E+020
 20
-1.0000000000000000E+020
 30
-1.0000000000000000E+020
  9
$PLIMMIN
 10
0.0
 20
0.0
  9
$PLIMMAX
 10
12.0
 20
9.0
  9
$UNITMODE
 70
     0
  9
$VISRETAIN
 70
     0
  9
$PLINEGEN
 70
     0
  9
$PSLTSCALE
 70
     0
  0
ENDSEC
  0
SECTION
  2
TABLES
  0
TABLE
  2
VPORT
 70
     1
  0
VPORT
  2
*ACTIVE
 70
     0
 10
0.0
 20
0.0
 11
1.0
 21
1.0
 12
374.98855678130462
 22
269.68405869568772
 13
0.0
 23
0.0
 14
20.0
 24
20.0
 15
20.0
 25
20.0
 16
0.0
 26
0.0
 36
1.0
 17
0.0
 27
0.0
 37
0.0
 40
551.57487251346481
 41
2.304913294797688
 42
50.0
 43
0.0
 44
0.0
 50
0.0
 51
0.0
 71
     0
 72
   500
 73
     1
 74
     0
 75
     0
 76
     0
 77
     0
 78
     2
  0
ENDTAB
  0
TABLE
  2
LTYPE
 70
     3
  0
LTYPE
  2
CONTINUOUS
 70
     0
  3
Solid Line
 72
    65
 73
     0
 40
0.0
  0
LTYPE
  2
CENTER
 70
     0
  3
____ _ ____ _ ____ _ ____ _ ____ _ ____ _ ____
 72
    65
 73
     4
 40
2.0
 49
1.25
 49
-0.25
 49
0.25
 49
-0.25
  0
LTYPE
  2
PHANTOM2
 70
     0
  3
___ _ _ ___ _ _ ___ _ _ ___ _ _
 72
    65
 73
     6
 40
1.25
 49
0.625
 49
-0.125
 49
0.125
 49
-0.125
 49
0.125
 49
-0.125
  0
ENDTAB
  0
TABLE
  2
LAYER
 70
     3
  0
LAYER
  2
0
 70
     0
 62
     7
  6
CONTINUOUS
  0
LAYER
  2
1
 70
     0
 62
     1
  6
CENTER
  0
LAYER
  2
3
 70
     0
 62
     3
  6
CONTINUOUS
  0
ENDTAB
  0
TABLE
  2
STYLE
 70
     5
  0
STYLE
  2
STANDARD
 70
     0
 40
0.0
 41
1.0
 50
0.0
 71
     0
 42
0.2
  3
romans.shx
  4

  0
STYLE
  2
06500
 70
     0
 40
0.0
 41
1.0
 50
0.0
 71
     0
 42
1.0
  3
romans.shx
  4

  0
STYLE
  2
07500
 70
     0
 40
0.0
 41
1.0
 50
0.0
 71
     0
 42
6.000000000000048
  3
romans.shx
  4

  0
STYLE
  2
K50
 70
     0
 40
0.0
 41
1.0
 50
0.0
 71
     0
 42
6.000000000000048
  3
romans.shx
  4

  0
STYLE
  2
STANDARD1
 70
     0
 40
0.0
 41
1.0
 50
0.0
 71
     0
 42
3.0
  3
txt
  4

  0
ENDTAB
  0
TABLE
  2
VIEW
 70
     1
  0
VIEW
  2
ALL
 70
     0
 40
540.0
 10
441.98319327731087
 20
270.0
 41
0.0
 11
0.0
 21
0.0
 31
1.0
 12
0.0
 22
0.0
 32
0.0
 42
0.0
 43
0.0
 44
0.0
 50
0.0
 71
     0
  0
ENDTAB
  0
TABLE
  2
UCS
 70
     0
  0
ENDTAB
  0
TABLE
  2
APPID
 70
     3
  0
APPID
  2
ACAD
 70
     0
  0
APPID
  2
ACAD_MLEADERVER
 70
     0
  0
APPID
  2
ACAD_NAV_VCDISPLAY
 70
     0
  0
ENDTAB
  0
TABLE
  2
DIMSTYLE
 70
     1
  0
DIMSTYLE
  2
STANDARD
 70
     0
  3

  4

  5

  6

  7

 40
1.0
 41
0.18
 42
0.0625
 43
0.38
 44
0.18
 45
0.0
 46
0.0
 47
0.0
 48
0.0
140
0.18
141
0.09
142
0.0
143
25.399999999999999
144
1.0
145
0.0
146
1.0
147
0.09
 71
     0
 72
     0
 73
     1
 74
     1
 75
     0
 76
     0
 77
     0
 78
     0
170
     0
171
     2
172
     0
173
     0
174
     0
175
     0
176
     0
177
     0
178
     0
  0
ENDTAB
  0
ENDSEC
  0
SECTION
  2
BLOCKS
  0
BLOCK
  8
0
  2
$MODEL_SPACE
 70
     0
 10
0.0
 20
0.0
 30
0.0
  3
$MODEL_SPACE
  1

  0
ENDBLK
  5
1DE
  8
0
  0
BLOCK
 67
     1
  8
0
  2
$PAPER_SPACE
 70
     0
 10
0.0
 20
0.0
 30
0.0
  3
$PAPER_SPACE
  1

  0
ENDBLK
  5
1DC
 67
     1
  8
0
  0
ENDSEC
  0
SECTION
  2
ENTITIES
  0
LINE
  5
35
  8
1
 10
281.78607074567873
 20
342.64781489944789
 30
0.0
 11
136.7860707456787
 21
342.64781489944789
 31
0.0
  0
LINE
  5
36
  8
1
 10
209.2860707456787
 20
416.64781489944778
 30
0.0
 11
209.2860707456787
 21
270.14781489944789
 31
0.0
  0
ARC
  5
37
  8
0
 10
209.2860707456787
 20
342.64781489944789
 30
0.0
 40
62.5
 50
96.455041516917873
 51
83.544958483082141
  0
ARC
  5
38
  8
0
 10
209.2860707456787
 20
342.64781489944789
 30
0.0
 40
61.100000000000001
 50
98.226302493249477
 51
81.773697506750537
  0
ARC
  5
39
  8
0
 10
209.2860707456787
 20
342.64781489944789
 30
0.0
 40
42.5
 50
95.664720283779275
 51
84.335279716220711
  0
LINE
  5
3A
  8
1
 10
230.7860707456787
 20
395.64781489944789
 30
0.0
 11
187.78607074567859
 21
395.64781489944789
 31
0.0
  0
CIRCLE
  5
3B
  8
0
 10
209.2860707456787
 20
395.64781489944789
 30
0.0
 40
11.5
  0
ARC
  5
3C
  8
0
 10
209.2860707456787
 20
342.64781489944789
 30
0.0
 40
43.899999999999963
 50
98.359435146063959
 51
81.640564853935985
  0
LINE
  5
3D
  8
0
 10
148.18607074567871
 20
143.64781489944781
 30
0.0
 11
270.38607074567869
 21
143.64781489944781
 31
0.0
  0
LINE
  5
3E
  8
0
 10
271.78607074567873
 20
142.2478148994478
 30
0.0
 11
271.78607074567873
 21
129.04781489944779
 31
0.0
  0
LINE
  5
3F
  8
0
 10
223.28607074567859
 20
82.647814899447866
 30
0.0
 11
195.28607074567859
 21
82.647814899447866
 31
0.0
  0
LINE
  5
40
  8
0
 10
146.78607074567859
 20
129.04781489944779
 30
0.0
 11
146.7860707456787
 21
142.2478148994478
 31
0.0
  0
LINE
  5
41
  8
1
 10
209.2860707456787
 20
218.64781489944789
 30
0.0
 11
209.2860707456787
 21
72.647814899447866
 31
0.0
  0
LINE
  5
42
  8
0
 10
233.0360707456787
 20
94.647814899447823
 30
0.0
 11
185.5360707456787
 21
94.647814899447866
 31
0.0
  0
LINE
  5
43
  8
0
 10
247.63814161224889
 20
103.64781489944779
 30
0.0
 11
170.93399448431171
 21
103.64781489944779
 31
0.0
  0
LINE
  5
44
  8
0
 10
224.2860707456787
 20
94.647814899447866
 30
0.0
 11
224.2860707456787
 21
83.647814899447866
 31
0.0
  0
LINE
  5
45
  8
0
 10
194.28607074567859
 20
94.647814899447866
 30
0.0
 11
194.28607074567859
 21
83.647814899447866
 31
0.0
  0
LINE
  5
46
  8
0
 10
233.0360707456787
 20
101.64781489944779
 30
0.0
 11
233.0360707456787
 21
94.647814899447823
 31
0.0
  0
LINE
  5
47
  8
0
 10
185.5360707456787
 20
101.64781489944779
 30
0.0
 11
185.5360707456787
 21
94.647814899447866
 31
0.0
  0
LINE
  5
48
  8
0
 10
249.635400681758
 20
105.5431429869619
 30
0.0
 11
250.6945275123924
 21
125.75248681193369
 31
0.0
  0
LINE
  5
49
  8
0
 10
168.9367408095992
 20
105.5431429869619
 30
0.0
 11
167.77828404288559
 21
127.64781489944779
 31
0.0
  0
LINE
  5
4A
  8
0
 10
271.78607074567873
 20
142.2478148994478
 30
0.0
 11
270.38607074567869
 21
143.64781489944781
 31
0.0
  0
LINE
  5
4B
  8
0
 10
271.78607074567873
 20
129.04781489944779
 30
0.0
 11
270.38607074567869
 21
127.64781489944779
 31
0.0
  0
LINE
  5
4C
  8
0
 10
148.18607074567871
 20
127.64781489944779
 30
0.0
 11
146.78607074567859
 21
129.04781489944779
 31
0.0
  0
LINE
  5
4D
  8
0
 10
146.7860707456787
 20
142.2478148994478
 30
0.0
 11
148.18607074567871
 21
143.64781489944781
 31
0.0
  0
LINE
  5
4E
  8
0
 10
224.2860707456787
 20
83.647814899447866
 30
0.0
 11
223.28607074567859
 21
82.647814899447866
 31
0.0
  0
LINE
  5
4F
  8
0
 10
195.28607074567859
 20
82.647814899447866
 30
0.0
 11
194.28607074567859
 21
83.647814899447866
 31
0.0
  0
ARC
  5
50
  8
0
 10
235.0360707456787
 20
101.64781489944779
 30
0.0
 40
2.0
 50
90.0
 51
180.0
  0
ARC
  5
51
  8
0
 10
183.53607074567859
 20
101.64781489944779
 30
0.0
 40
2.0
 50
0.0
 51
90.0
  0
ARC
  5
52
  8
0
 10
247.63814161224889
 20
105.64781489944779
 30
0.0
 40
2.0
 50
270.0
 51
356.99999999999989
  0
ARC
  5
53
  8
0
 10
170.9339998791084
 20
105.64781489944789
 30
0.0
 40
2.0
 50
182.99999999999989
 51
270.0
  0
LINE
  5
54
  8
0
 10
148.18607074567879
 20
127.6478148994477
 30
0.0
 11
270.38607074567869
 21
127.64781489944779
 31
0.0
  0
ARC
  5
55
  8
0
 10
252.69178658190151
 20
125.64781489944779
 30
0.0
 40
2.0
 50
90.0
 51
176.99999999999989
  0
LINE
  5
56
  8
0
 10
224.2860707456787
 20
83.647814899447866
 30
0.0
 11
194.28607074567859
 21
83.647814899447866
 31
0.0
  0
LINE
  5
57
  8
0
 10
271.78607074567873
 20
129.0478148994477
 30
0.0
 11
146.7860707456787
 21
129.04781489944779
 31
0.0
  0
LINE
  5
58
  8
0
 10
271.78607074567873
 20
142.2478148994478
 30
0.0
 11
146.78607074567859
 21
142.247814899448
 31
0.0
  0
LINE
  5
59
  8
1
 10
202.2860707456787
 20
116.64781489944779
 30
0.0
 11
216.2860707456787
 21
116.6478148994477
 31
0.0
  0
LINE
  5
5A
  8
0
 10
220.78607074567881
 20
205.6983196788868
 30
0.0
 11
220.7860707456787
 21
170.64781489944781
 31
0.0
  0
LINE
  5
5B
  8
0
 10
218.85538168234331
 20
144.87311590392139
 30
0.0
 11
220.7860707456787
 21
170.64781489944781
 31
0.0
  0
ARC
  5
5C
  8
0
 10
217.85817555517059
 20
144.94781489944791
 30
0.0
 40
1.0
 50
270.0
 51
355.71618147372749
  0
ARC
  5
5D
  8
0
 10
209.2860707456787
 20
158.64781489944789
 30
0.0
 40
50.0
 50
78.584842913250256
 51
101.4151577427307
  0
LINE
  5
5E
  8
0
 10
199.7167596669386
 20
144.87311780062771
 30
0.0
 11
197.78607074567859
 21
170.64781489944789
 31
0.0
  0
LINE
  5
5F
  8
0
 10
203.2860707456787
 20
143.94781489944791
 30
0.0
 11
200.71396593618681
 21
143.94781489944791
 31
0.0
  0
LINE
  5
60
  8
0
 10
203.2860707456787
 20
143.64781489944781
 30
0.0
 11
203.2860707456787
 21
143.94781489944791
 31
0.0
  0
LINE
  5
61
  8
0
 10
197.78607074567859
 20
205.6983196788868
 30
0.0
 11
197.78607074567859
 21
170.64781489944789
 31
0.0
  0
LINE
  5
62
  8
0
 10
197.78607074567859
 20
170.64781489944781
 30
0.0
 11
220.7860707456787
 21
170.64781489944781
 31
0.0
  0
LINE
  5
63
  8
0
 10
203.2860707456787
 20
143.94781489944791
 30
0.0
 11
217.85817936986791
 21
143.94781489944791
 31
0.0
  0
LINE
  5
64
  8
0
 10
199.38845311827541
 20
206.96487669168431
 30
0.0
 11
219.18368837308199
 21
206.96487669168431
 31
0.0
  0
LINE
  5
65
  8
0
 10
215.2860707456787
 20
143.64781489944781
 30
0.0
 11
215.2860707456787
 21
143.94781489944791
 31
0.0
  0
ARC
  5
66
  8
0
 10
200.71396593618681
 20
144.94781489944791
 30
0.0
 40
1.0
 50
184.28381852627271
 51
270.0
  0
ARC
  5
67
  8
0
 10
218.7860707456787
 20
205.6983196788868
 30
0.0
 40
2.0
 50
0.0
 51
78.584842257269244
  0
ARC
  5
68
  8
0
 10
199.7860707456787
 20
205.6983196788868
 30
0.0
 40
2.0
 50
101.4151577427299
 51
180.0
  0
POLYLINE
  5
69
  8
0
 66
     1
 10
0.0
 20
0.0
 30
0.0
  0
VERTEX
  5
6A
  8
0
 10
456.73576918682801
 20
363.33262252058341
 30
0.0
 42
0.0527983245003831
  0
VERTEX
  5
6B
  8
0
 10
456.65730492369011
 20
363.55399226177121
 30
0.0
 42
0.1030981112244583
  0
VERTEX
  5
6C
  8
0
 10
456.33286084663882
 20
363.9793617193094
 30
0.0
 42
0.09258894598495
 70
     2
 50
139.10660535086751
  0
VERTEX
  5
6D
  8
0
 10
455.86192398739769
 20
364.25470548925938
 30
0.0
 42
0.0863188075832797
 50
139.10660535086751
  0
VERTEX
  5
6E
  8
0
 10
455.28607074567861
 20
364.35486570702233
 30
0.0
 42
0.0863188075832881
  0
SEQEND
  5
6F
  8
0
  0
POLYLINE
  5
70
  8
0
 66
     1
 10
0.0
 20
0.0
 30
0.0
  0
VERTEX
  5
71
  8
0
 10
453.83637230452962
 20
362.81300727831263
 30
0.0
 42
0.0527983245003908
  0
VERTEX
  5
72
  8
0
 10
453.91483656766718
 20
362.5916375371246
 30
0.0
 42
0.1030981112244488
  0
VERTEX
  5
73
  8
0
 10
454.23928064471858
 20
362.1662680795863
 30
0.0
 42
0.092588945984904
 70
     2
 50
319.1066053508676
  0
VERTEX
  5
74
  8
0
 10
454.7102175039596
 20
361.89092430963632
 30
0.0
 42
0.0863188075832314
 50
319.1066053508676
  0
VERTEX
  5
75
  8
0
 10
455.28607074567861
 20
361.79076409187343
 30
0.0
 42
0.0863188075832723
  0
VERTEX
  5
76
  8
0
 10
455.86192398739752
 20
361.89092430963638
 30
0.0
 42
0.0925889459849795
  0
VERTEX
  5
77
  8
0
 10
456.33286084663882
 20
362.1662680795863
 30
0.0
 42
0.1030981112244816
 70
     2
 50
40.893394649132397
  0
VERTEX
  5
78
  8
0
 10
456.65730492369011
 20
362.59163753712471
 30
0.0
 42
0.0527983245004103
 50
40.893394649132397
  0
VERTEX
  5
79
  8
0
 10
456.73576918682801
 20
362.81300727831263
 30
0.0
 42
0.1119976344768461
  0
SEQEND
  5
7A
  8
0
  0
POLYLINE
  5
7B
  8
0
 66
     1
 10
0.0
 20
0.0
 30
0.0
  0
VERTEX
  5
7C
  8
0
 10
455.28607074567861
 20
364.35486570702233
 30
0.0
 42
0.0863188075832881
  0
VERTEX
  5
7D
  8
0
 10
454.7102175039596
 20
364.25470548925938
 30
0.0
 42
0.0925889459849757
  0
VERTEX
  5
7E
  8
0
 10
454.23928064471858
 20
363.9793617193094
 30
0.0
 42
0.103098111224484
 70
     2
 50
220.8933946491324
  0
VERTEX
  5
7F
  8
0
 10
453.88909643414189
 20
363.52024510036779
 30
0.0
 42
0.0566339567253786
 50
220.8933946491324
  0
VERTEX
  5
80
  8
0
 10
453.82420476960192
 20
363.33262252058341
 30
0.0
 42
0.1119976344768021
  0
SEQEND
  5
81
  8
0
  0
LINE
  5
82
  8
0
 10
453.70175903521857
 20
362.81300727831263
 30
0.0
 11
456.88397740103068
 21
362.81300727831263
 31
0.0
  0
LINE
  5
83
  8
0
 10
453.67355881943939
 20
363.33262252058341
 30
0.0
 11
456.88678366704579
 21
363.33262252058341
 31
0.0
  0
POLYLINE
  5
84
  8
0
 66
     1
 10
0.0
 20
0.0
 30
0.0
  0
VERTEX
  5
85
  8
0
 10
453.66507074567897
 20
363.11346546478779
 30
0.0
 42
0.1108812691171155
  0
VERTEX
  5
86
  8
0
 10
453.78491873836168
 20
362.57967601684038
 30
0.0
 42
0.1027895172517152
  0
VERTEX
  5
87
  8
0
 10
454.1398506533755
 20
362.10945687098922
 30
0.0
 42
0.0930937538249732
 70
     2
 50
318.78390878048839
  0
VERTEX
  5
88
  8
0
 10
454.65626607546801
 20
361.80430517457307
 30
0.0
 42
0.0872331770479979
 50
318.78390878048839
  0
VERTEX
  5
89
  8
0
 10
455.28607074567861
 20
361.69358289469869
 30
0.0
 42
0.0872331770480054
  0
SEQEND
  5
8A
  8
0
  0
POLYLINE
  5
8B
  8
0
 66
     1
 10
0.0
 20
0.0
 30
0.0
  0
VERTEX
  5
8C
  8
0
 10
455.28607074567861
 20
361.69358289469869
 30
0.0
 42
0.0872331770480054
  0
VERTEX
  5
8D
  8
0
 10
455.91587541588899
 20
361.80430517457307
 30
0.0
 42
0.0930937538249981
  0
VERTEX
  5
8E
  8
0
 10
456.43229083798178
 20
362.10945687098911
 30
0.0
 42
0.1027895172516275
 70
     2
 50
41.216091219507042
  0
VERTEX
  5
8F
  8
0
 10
456.81558687027052
 20
362.61725322653479
 30
0.0
 42
0.1304340167391393
 50
41.216091219507042
  0
VERTEX
  5
90
  8
0
 10
456.90707074567689
 20
363.11346546478768
 30
0.0
 42
0.1108812691169103
  0
SEQEND
  5
91
  8
0
  0
POLYLINE
  5
92
  8
3
 66
     1
 10
0.0
 20
0.0
 30
0.0
  0
VERTEX
  5
93
  8
3
 10
453.28607074567589
 20
363.11346546478779
 30
0.0
 42
0.1106229841545537
  0
VERTEX
  5
94
  8
3
 10
453.43403377544399
 20
362.452877877579
 30
0.0
 42
0.102716336420071
  0
VERTEX
  5
95
  8
3
 10
453.87185718330358
 20
361.87143481635161
 30
0.0
 42
0.0932102541235317
 70
     2
 50
318.70883493014611
  0
VERTEX
  5
96
  8
3
 10
454.50922965533681
 20
361.49388047453323
 30
0.0
 42
0.0874468681841979
 50
318.70883493014611
  0
VERTEX
  5
97
  8
3
 10
455.28607074567861
 20
361.35696887688613
 30
0.0
 42
0.0874468681842011
  0
SEQEND
  5
98
  8
3
  0
POLYLINE
  5
99
  8
3
 66
     1
 10
0.0
 20
0.0
 30
0.0
  0
VERTEX
  5
9A
  8
3
 10
455.28607074567861
 20
361.35696887688613
 30
0.0
 42
0.0874468681842011
  0
VERTEX
  5
9B
  8
3
 10
456.06291183602048
 20
361.49388047453323
 30
0.0
 42
0.093210254123493
  0
VERTEX
  5
9C
  8
3
 10
456.70028430805382
 20
361.8714348163515
 30
0.0
 42
0.1027163364200571
 70
     2
 50
41.291165069850187
  0
VERTEX
  5
9D
  8
3
 10
457.17315513640511
 20
362.49942193870697
 30
0.0
 42
0.1301490483610055
 50
41.291165069850187
  0
VERTEX
  5
9E
  8
3
 10
457.28607074567981
 20
363.11346546478768
 30
0.0
 42
0.1106229841545122
  0
SEQEND
  5
9F
  8
3
  0
POLYLINE
  5
A0
  8
3
 66
     1
 10
0.0
 20
0.0
 30
0.0
  0
VERTEX
  5
A1
  8
3
 10
457.28607074567861
 20
363.11346546478768
 30
0.0
 42
0.113404662881431
  0
VERTEX
  5
A2
  8
3
 10
457.13912379749888
 20
363.7530208234104
 30
0.0
 42
0.1034693734145731
  0
VERTEX
  5
A3
  8
3
 10
456.70028430805172
 20
364.3209245591346
 30
0.0
 42
0.0919500459242088
 70
     2
 50
139.5092169343838
  0
VERTEX
  5
A4
  8
3
 10
456.06518147750461
 20
364.68735944088451
 30
0.0
 42
0.0851873299303885
 50
139.5092169343838
  0
VERTEX
  5
A5
  8
3
 10
455.28607074567861
 20
364.82107049202392
 30
0.0
 42
0.0851873299303349
  0
VERTEX
  5
A6
  8
3
 10
454.50696001385279
 20
364.68735944088451
 30
0.0
 42
0.0919500459241574
  0
VERTEX
  5
A7
  8
3
 10
453.87185718330551
 20
364.3209245591346
 30
0.0
 42
0.1034693734145564
 70
     2
 50
220.4907830656162
  0
VERTEX
  5
A8
  8
3
 10
453.43301769385857
 20
363.75302082341051
 30
0.0
 42
0.1134046628814541
 50
220.4907830656162
  0
VERTEX
  5
A9
  8
3
 10
453.28607074567861
 20
363.11346546478768
 30
0.0
 42
0.1134046628814773
  0
SEQEND
  5
AA
  8
3
  0
POLYLINE
  5
AB
  8
0
 66
     1
 10
0.0
 20
0.0
 30
0.0
  0
VERTEX
  5
AC
  8
0
 10
456.90707074567842
 20
363.11346546478768
 30
0.0
 42
0.1131352598247072
  0
VERTEX
  5
AD
  8
0
 10
456.78789004964301
 20
363.63344143217478
 30
0.0
 42
0.1033998029791407
  0
VERTEX
  5
AE
  8
0
 10
456.4322908379819
 20
364.09476830751458
 30
0.0
 42
0.0920725865221147
 70
     2
 50
139.43248083981629
  0
VERTEX
  5
AF
  8
0
 10
455.91736608119731
 20
364.39261701442553
 30
0.0
 42
0.0854021943295844
 50
139.43248083981629
  0
VERTEX
  5
B0
  8
0
 10
455.28607074567861
 20
364.50123725376727
 30
0.0
 42
0.0854021943295411
  0
SEQEND
  5
B1
  8
0
  0
POLYLINE
  5
B2
  8
0
 66
     1
 10
0.0
 20
0.0
 30
0.0
  0
VERTEX
  5
B3
  8
0
 10
455.28607074567861
 20
364.50123725376727
 30
0.0
 42
0.0854021943295411
  0
VERTEX
  5
B4
  8
0
 10
454.6547754101602
 20
364.39261701442553
 30
0.0
 42
0.0920725865221242
  0
VERTEX
  5
B5
  8
0
 10
454.1398506533755
 20
364.09476830751458
 30
0.0
 42
0.1033998029791623
 70
     2
 50
220.56751916018371
  0
VERTEX
  5
B6
  8
0
 10
453.75624600383122
 20
363.5971093461423
 30
0.0
 42
0.1329218329327737
 50
220.56751916018371
  0
VERTEX
  5
B7
  8
0
 10
453.66507074567897
 20
363.11346546478768
 30
0.0
 42
0.1131352598246788
  0
SEQEND
  5
B8
  8
0
  0
LINE
  5
B9
  8
1
 10
448.28607074567418
 20
363.11346546478768
 30
0.0
 11
462.28607074568009
 21
363.11346546478768
 31
0.0
  0
LINE
  5
BA
  8
1
 10
455.28607074567878
 20
356.35696887688852
 30
0.0
 11
455.28607074567861
 21
369.82107049201937
 31
0.0
  0
ARC
  5
BB
  8
0
 10
366.2355659662399
 20
386.14781489944778
 30
0.0
 40
2.0
 50
191.41515774273009
 51
270.0
  0
ARC
  5
BC
  8
0
 10
366.2355659662399
 20
405.14781489944778
 30
0.0
 40
2.0
 50
90.0
 51
168.5848422572694
  0
ARC
  5
BD
  8
0
 10
426.9860707456786
 20
387.07571008995598
 30
0.0
 40
1.0
 50
274.28381852627308
 51
0.0
  0
LINE
  5
BE
  8
0
 10
428.28607074567873
 20
401.64781489944778
 30
0.0
 11
427.98607074567872
 21
401.64781489944778
 31
0.0
  0
LINE
  5
BF
  8
0
 10
364.96900895344231
 20
385.75019727204449
 30
0.0
 11
364.96900895344231
 21
405.54543252685107
 31
0.0
  0
LINE
  5
C0
  8
0
 10
427.98607074567872
 20
389.64781489944789
 30
0.0
 11
427.98607074567872
 21
404.21992352363702
 31
0.0
  0
LINE
  5
C1
  8
0
 10
401.28607074567878
 20
384.14781489944789
 30
0.0
 11
401.28607074567878
 21
407.14781489944778
 31
0.0
  0
LINE
  5
C2
  8
0
 10
366.2355659662399
 20
384.14781489944778
 30
0.0
 11
401.28607074567878
 21
384.14781489944789
 31
0.0
  0
LINE
  5
C3
  8
0
 10
428.28607074567873
 20
389.64781489944789
 30
0.0
 11
427.98607074567872
 21
389.64781489944789
 31
0.0
  0
LINE
  5
C4
  8
0
 10
427.98607074567872
 20
389.64781489944789
 30
0.0
 11
427.98607074567872
 21
387.07571008995598
 31
0.0
  0
LINE
  5
C5
  8
0
 10
427.0607678444988
 20
386.07850382070779
 30
0.0
 11
401.28607074567878
 21
384.14781489944789
 31
0.0
  0
ARC
  5
C6
  8
0
 10
413.28607074567878
 20
395.64781489944778
 30
0.0
 40
50.0
 50
168.58484306067911
 51
191.41515774273051
  0
ARC
  5
C7
  8
0
 10
426.9860707456786
 20
404.2199197089397
 30
0.0
 40
1.0
 50
0.0
 51
85.716181473727673
  0
LINE
  5
C8
  8
0
 10
427.06076974120509
 20
405.21712583611247
 30
0.0
 11
401.28607074567878
 21
407.14781489944778
 31
0.0
  0
LINE
  5
C9
  8
0
 10
366.2355659662399
 20
407.14781489944778
 30
0.0
 11
401.28607074567878
 21
407.14781489944778
 31
0.0
  0
LINE
  5
CA
  8
1
 10
453.28607074567839
 20
395.64781489944789
 30
0.0
 11
353.28607074567878
 21
395.64781489944778
 31
0.0
  0
LINE
  5
CB
  8
1
 10
455.28607074567878
 20
296.71308290377351
 30
0.0
 11
455.28607074567878
 21
313.79781489944793
 31
0.0
  0
LINE
  5
CC
  8
0
 10
429.68607074567859
 20
405.14781489944789
 30
0.0
 11
429.68607074567848
 21
280.14781489944789
 31
0.0
  0
LINE
  5
CD
  8
0
 10
442.88607074567881
 20
405.14781489944789
 30
0.0
 11
442.88607074567858
 21
280.14781489944801
 31
0.0
  0
LINE
  5
CE
  8
0
 10
488.28607074567861
 20
357.64781489944789
 30
0.0
 11
488.28607074567861
 21
327.64781489944789
 31
0.0
  0
ARC
  5
CF
  8
0
 10
446.28607074567861
 20
386.05353073567068
 30
0.0
 40
2.0
 50
180.0
 51
267.00000000000011
  0
LINE
  5
D0
  8
0
 10
444.28607074567873
 20
281.5478148994481
 30
0.0
 11
444.28607074567861
 21
403.74781489944792
 31
0.0
  0
ARC
  5
D1
  8
0
 10
466.28607074567861
 20
304.29574403287762
 30
0.0
 40
2.0
 50
272.99999999999989
 51
0.0
  0
ARC
  5
D2
  8
0
 10
466.28607074567861
 20
380.99988576601822
 30
0.0
 40
2.0
 50
0.0
 51
87.000000000000114
  0
ARC
  5
D3
  8
0
 10
470.28607074567861
 20
316.89781489944789
 30
0.0
 40
2.0
 50
90.0
 51
180.0
  0
ARC
  5
D4
  8
0
 10
470.28607074567861
 20
368.39781489944789
 30
0.0
 40
2.0
 50
180.0
 51
270.0
  0
LINE
  5
D5
  8
0
 10
489.28607074567873
 20
328.64781489944789
 30
0.0
 11
488.28607074567861
 21
327.64781489944789
 31
0.0
  0
LINE
  5
D6
  8
0
 10
488.28607074567861
 20
357.64781489944789
 30
0.0
 11
489.28607074567873
 21
356.64781489944789
 31
0.0
  0
LINE
  5
D7
  8
0
 10
429.68607074567871
 20
280.14781489944801
 30
0.0
 11
428.28607074567873
 21
281.54781489944793
 31
0.0
  0
LINE
  5
D8
  8
0
 10
444.28607074567861
 20
281.54781489944793
 30
0.0
 11
442.88607074567858
 21
280.14781489944789
 31
0.0
  0
LINE
  5
D9
  8
0
 10
442.88607074567858
 20
405.14781489944789
 30
0.0
 11
444.28607074567861
 21
403.74781489944792
 31
0.0
  0
LINE
  5
DA
  8
0
 10
429.68607074567859
 20
405.14781489944789
 30
0.0
 11
428.28607074567861
 21
403.74781489944792
 31
0.0
  0
LINE
  5
DB
  8
0
 10
466.39074265816453
 20
302.29848496336848
 30
0.0
 11
444.28607074567861
 21
301.14002819665478
 31
0.0
  0
LINE
  5
DC
  8
0
 10
466.39074265816453
 20
382.99714483552731
 30
0.0
 11
446.18139883319282
 21
384.05627166616159
 31
0.0
  0
LINE
  5
DD
  8
0
 10
470.28607074567861
 20
318.89781489944789
 30
0.0
 11
477.28607074567873
 21
318.89781489944789
 31
0.0
  0
LINE
  5
DE
  8
0
 10
470.28607074567861
 20
366.39781489944789
 30
0.0
 11
477.28607074567873
 21
366.39781489944789
 31
0.0
  0
LINE
  5
DF
  8
0
 10
477.28607074567873
 20
327.64781489944789
 30
0.0
 11
488.28607074567861
 21
327.64781489944789
 31
0.0
  0
LINE
  5
E0
  8
0
 10
477.28607074567873
 20
357.64781489944789
 30
0.0
 11
488.28607074567861
 21
357.64781489944789
 31
0.0
  0
LINE
  5
E1
  8
0
 10
468.28607074567873
 20
380.99988576601822
 30
0.0
 11
468.28607074567873
 21
304.29573863808099
 31
0.0
  0
LINE
  5
E2
  8
0
 10
477.28607074567873
 20
366.39781489944789
 30
0.0
 11
477.28607074567873
 21
318.89781489944789
 31
0.0
  0
LINE
  5
E3
  8
1
 10
418.28607074567873
 20
342.64781489944789
 30
0.0
 11
499.28607074567861
 21
342.64781489944789
 31
0.0
  0
LINE
  5
E4
  8
0
 10
442.88607074567858
 20
280.14781489944789
 30
0.0
 11
429.68607074567871
 21
280.14781489944801
 31
0.0
  0
LINE
  5
E5
  8
0
 10
489.28607074567873
 20
356.64781489944789
 30
0.0
 11
489.28607074567873
 21
328.64781489944789
 31
0.0
  0
LINE
  5
E6
  8
0
 10
429.68607074567859
 20
405.14781489944789
 30
0.0
 11
442.88607074567858
 21
405.14781489944789
 31
0.0
  0
LINE
  5
E7
  8
0
 10
428.28607074567873
 20
281.54781489944793
 30
0.0
 11
428.28607074567861
 21
403.74781489944792
 31
0.0
  0
CIRCLE
  5
EF
  8
3
 10
209.2860707456787
 20
116.64781489944779
 30
0.0
 40
1.6209999999999991
  0
CIRCLE
  5
F0
  8
0
 10
209.2860707456787
 20
116.64781489944779
 30
0.0
 40
2.0
  0
LINE
  5
F1
  8
0
 10
207.3086987523493
 20
116.94781489944781
 30
0.0
 11
211.2634427390044
 21
116.94781489944781
 31
0.0
  0
LINE
  5
F2
  8
0
 10
207.3086987523493
 20
116.3478148994478
 30
0.0
 11
211.2634427390081
 21
116.3478148994478
 31
0.0
  0
SOLID
  5
F3
  8
0
 10
212.57993138314441
 20
344.93474656926469
 30
0.0
 11
211.121448413336
 21
340.63513853997893
 31
0.0
 12
231.693469714538
 22
344.68704795389789
 32
0.0
 13
231.693469714538
 23
344.68704795389789
 33
0.0
  0
SOLID
  5
F4
  8
0
 10
205.1381441952563
 20
339.67819115882207
 30
0.0
 11
205.15795061632221
 21
339.460555230453
 31
0.0
 12
205.48311493221311
 22
339.52460029113701
 32
0.0
 13
205.48311493221311
 23
339.52460029113701
 33
0.0
  0
SOLID
  5
F5
  8
0
 10
204.65040816721461
 20
345.03750786270228
 30
0.0
 11
205.10328971327061
 21
340.06117743986761
 31
0.0
 12
207.86821771899119
 22
344.9958072127929
 32
0.0
 13
207.86821771899119
 23
344.9958072127929
 33
0.0
  0
LINE
  5
F6
  8
0
 10
204.9385022347459
 20
339.7670774864327
 30
0.0
 11
219.86122346564949
 21
366.39999679815548
 31
0.0
  0
LINE
  5
F7
  8
0
 10
219.86122346564949
 20
366.39999679815548
 30
0.0
 11
210.05435679754439
 21
337.48935228520821
 31
0.0
  0
CIRCLE
  5
F8
  8
0
 10
209.2860707456787
 20
342.64781489944789
 30
0.0
 40
1.0
  0
POLYLINE
  5
F9
  8
0
 66
     1
 10
0.0
 20
0.0
 30
0.0
 70
     1
 40
1.0
 41
1.0
  0
VERTEX
  5
FA
  8
0
 10
208.78607074567859
 20
342.64781489944789
 30
0.0
 42
1.0
  0
VERTEX
  5
FB
  8
0
 10
209.7860707456787
 20
342.64781489944789
 30
0.0
 42
1.0
  0
SEQEND
  5
FC
  8
0
  0
LINE
  5
FD
  8
0
 10
210.05435679754439
 20
337.48935228520821
 30
0.0
 11
204.9385022347459
 21
339.7670774864327
 31
0.0
  0
LINE
  5
FE
  8
0
 10
204.65040816721461
 20
345.03750786270228
 30
0.0
 11
207.86821771899119
 21
344.9958072127929
 31
0.0
  0
LINE
  5
FF
  8
0
 10
231.693469714538
 20
344.68704795389789
 30
0.0
 11
211.12144841333591
 21
340.63513853997893
 31
0.0
  0
LINE
  5
100
  8
0
 10
205.15795061632221
 20
339.460555230453
 30
0.0
 11
205.1381441952563
 21
339.67819115882207
 31
0.0
  0
LINE
  5
101
  8
0
 10
212.1512197364485
 20
343.67090456593701
 30
0.0
 11
208.12921565582721
 21
345.4616161550577
 31
0.0
  0
LINE
  5
102
  8
0
 10
212.08670087678991
 20
343.48070295729917
 30
0.0
 11
208.03103985825541
 21
345.28639958063837
 31
0.0
  0
LINE
  5
103
  8
0
 10
210.86084254327679
 20
339.86687239318081
 30
0.0
 11
206.16569970439249
 21
341.9572846666731
 31
0.0
  0
LINE
  5
104
  8
0
 10
210.7963236836182
 20
339.67667078454298
 30
0.0
 11
206.06752390682081
 21
341.78206809225389
 31
0.0
  0
LINE
  5
105
  8
0
 10
212.57993138314441
 20
344.93474656926469
 30
0.0
 11
231.693469714538
 21
344.68704795389789
 31
0.0
  0
LINE
  5
106
  8
0
 10
205.10328971327061
 20
340.06117743986749
 30
0.0
 11
204.65040816721449
 21
345.03750786270228
 31
0.0
  0
LINE
  5
107
  8
0
 10
205.48311493221311
 20
339.52460029113701
 30
0.0
 11
205.15795061632221
 21
339.460555230453
 31
0.0
  0
CIRCLE
  5
108
  8
0
 10
209.2860707456787
 20
342.64781489944789
 30
0.0
 40
34.25
  0
CIRCLE
  5
109
  8
0
 10
209.2860707456787
 20
342.64781489944789
 30
0.0
 40
30.0
  0
ARC
  5
10A
  8
0
 10
209.55273741234751
 20
332.99909695072932
 30
0.0
 40
0.2871794871796385
 50
270.0
 51
0.0
  0
LINE
  5
10B
  8
0
 10
209.83991689952711
 20
333.12217387380622
 30
0.0
 11
209.83991689952711
 21
332.99909695072932
 31
0.0
  0
ARC
  5
10C
  8
0
 10
206.8655579251666
 20
332.99909695072932
 30
0.0
 40
0.2871794871796385
 50
270.0
 51
0.0
  0
LINE
  5
10D
  8
0
 10
207.1527374123462
 20
333.12217387380628
 30
0.0
 11
207.1527374123462
 21
332.99909695072932
 31
0.0
  0
ARC
  5
10E
  8
0
 10
211.91902149930269
 20
333.53243028406291
 30
0.0
 40
0.061538461538494
 50
90.0
 51
235.439678220009
  0
ARC
  5
10F
  8
0
 10
212.11683997645139
 20
333.8196097712426
 30
0.0
 40
0.4102564102566264
 50
40.541601873497768
 51
90.0
  0
ARC
  5
110
  8
0
 10
212.11683997645139
 20
333.8196097712426
 30
0.0
 40
0.4102564102566264
 50
235.439678220009
 51
326.63298703076362
  0
ARC
  5
111
  8
0
 10
212.79372749374849
 20
332.95811871540542
 30
0.0
 40
0.4102564102566264
 50
194.95437033353539
 51
216.87817385345451
  0
LINE
  5
112
  8
0
 10
210.35273741234789
 20
333.55856082059819
 30
0.0
 11
210.35273741234789
 21
333.53243028406291
 31
0.0
  0
LINE
  5
113
  8
0
 10
210.2706861302965
 20
332.7119174635497
 30
0.0
 11
209.92196818157839
 21
332.7119174635497
 31
0.0
  0
LINE
  5
114
  8
0
 10
211.91902149930269
 20
333.59396874560139
 30
0.0
 11
212.4594716295488
 21
333.59396874560139
 31
0.0
  0
LINE
  5
115
  8
0
 10
211.28193259248599
 20
334.08627643790942
 30
0.0
 11
212.42860785652491
 21
334.08627643790942
 31
0.0
  0
ARC
  5
116
  8
0
 10
211.9322245918359
 20
333.55294310457577
 30
0.0
 40
0.8410256410260839
 50
140.64330107273889
 51
303.5774873791861
  0
ARC
  5
117
  8
0
 10
213.57185070137621
 20
333.0062644341142
 30
0.0
 40
0.4102564102566264
 50
175.26603745311311
 51
225.84605298605391
  0
LINE
  5
118
  8
0
 10
211.17325023286111
 20
334.96832771996111
 30
0.0
 11
210.74248081041861
 21
334.96832771996111
 31
0.0
  0
ARC
  5
119
  8
0
 10
211.66555792516911
 20
334.55807130970447
 30
0.0
 40
0.4102564102566264
 50
90.0
 51
180.0
  0
ARC
  5
11A
  8
0
 10
210.43536046876329
 20
334.58869759688281
 30
0.0
 40
0.8205128205132528
 50
334.06662005680511
 51
357.86089300734187
  0
ARC
  5
11B
  8
0
 10
212.1694531862976
 20
333.97217036612358
 30
0.0
 40
0.996224746408062
 50
4.2068467171522643
 51
90.666449776468255
  0
LINE
  5
11C
  8
0
 10
213.16299382260581
 20
334.04525079688369
 30
0.0
 11
213.16299382260581
 21
333.04012259175499
 31
0.0
  0
LINE
  5
11D
  8
0
 10
211.17325023286111
 20
334.22986618149918
 30
0.0
 11
212.11683997645139
 21
334.22986618149918
 31
0.0
  0
ARC
  5
11E
  8
0
 10
207.97267845849549
 20
333.09154758662811
 30
0.0
 40
0.8205128205132528
 50
154.06662005680511
 51
177.8608930073419
  0
ARC
  5
11F
  8
0
 10
210.65985794567641
 20
333.09154758662811
 30
0.0
 40
0.8205128205132528
 50
154.06662005680511
 51
177.86089300734159
  0
LINE
  5
120
  8
0
 10
209.92196818157839
 20
333.45037900201157
 30
0.0
 11
209.92196818157839
 21
332.7119174635497
 31
0.0
  0
LINE
  5
121
  8
0
 10
207.52196818157719
 20
332.7119174635497
 30
0.0
 11
208.42453228414169
 21
332.7119174635497
 31
0.0
  0
ARC
  5
122
  8
0
 10
210.2706861302965
 20
333.55856082059819
 30
0.0
 40
0.0820512820513253
 50
0.0000000000008142
 51
54.900367804606333
  0
ARC
  5
123
  8
0
 10
210.2706861302965
 20
333.53243028406291
 30
0.0
 40
0.0820512820513253
 50
270.0
 51
0.0000000000004071
  0
ARC
  5
124
  8
0
 10
210.74248100209169
 20
334.12168436291262
 30
0.0
 40
0.0820512820513253
 50
180.0
 51
234.9003678046063
  0
ARC
  5
125
  8
0
 10
210.74248100209169
 20
334.14781489944778
 30
0.0
 40
0.0820512820513253
 50
90.0
 51
179.9999999999994
  0
LINE
  5
126
  8
0
 10
210.66042972004041
 20
334.12168436291262
 30
0.0
 11
210.66042972004041
 21
334.14781489944778
 31
0.0
  0
ARC
  5
127
  8
0
 10
210.2706861302965
 20
333.45037900201157
 30
0.0
 40
0.7384615384619276
 50
270.0
 51
54.900367804606262
  0
ARC
  5
128
  8
0
 10
210.74248100209169
 20
334.22986618149918
 30
0.0
 40
0.7384615384619276
 50
90.0
 51
234.90036780460639
  0
LINE
  5
129
  8
0
 10
210.74248100209169
 20
334.22986618149918
 30
0.0
 11
211.17325023286111
 21
334.22986618149918
 31
0.0
  0
LINE
  5
12A
  8
0
 10
211.17325023286111
 20
334.22986618149918
 30
0.0
 11
211.17325023286111
 21
334.96832771996111
 31
0.0
  0
ARC
  5
12B
  8
0
 10
209.18350664311649
 20
333.8401225917554
 30
0.0
 40
1.1282051282057219
 50
90.0
 51
270.0
  0
LINE
  5
12C
  8
0
 10
209.92196818157839
 20
334.22986618149918
 30
0.0
 11
209.92196818157839
 21
334.96832771996111
 31
0.0
  0
ARC
  5
12D
  8
0
 10
209.18350664311649
 20
333.8401225917554
 30
0.0
 40
0.389743589743795
 50
90.0
 51
140.83328928387951
  0
LINE
  5
12E
  8
0
 10
209.83991689952711
 20
333.59396874560139
 30
0.0
 11
209.83991689952711
 21
334.08627643790942
 31
0.0
  0
LINE
  5
12F
  8
0
 10
208.88133392798491
 20
334.08627643790942
 30
0.0
 11
209.83991689952711
 21
334.08627643790942
 31
0.0
  0
LINE
  5
130
  8
0
 10
208.88133392798491
 20
333.59396874560139
 30
0.0
 11
209.83991689952711
 21
333.59396874560139
 31
0.0
  0
LINE
  5
131
  8
0
 10
209.18350664311649
 20
334.22986618149918
 30
0.0
 11
209.92196818157839
 21
334.22986618149918
 31
0.0
  0
LINE
  5
132
  8
0
 10
209.18350664311649
 20
333.45037900201157
 30
0.0
 11
210.2706861302965
 21
333.45037900201157
 31
0.0
  0
ARC
  5
133
  8
0
 10
209.18350664311649
 20
333.8401225917554
 30
0.0
 40
0.389743589743795
 50
219.16671071611941
 51
270.0
  0
LINE
  5
134
  8
0
 10
209.55273741234751
 20
332.7119174635497
 30
0.0
 11
209.18350664311649
 21
332.7119174635497
 31
0.0
  0
LINE
  5
135
  8
0
 10
209.92196818157839
 20
334.96832771996111
 30
0.0
 11
209.18350664311649
 21
334.96832771996111
 31
0.0
  0
LINE
  5
136
  8
0
 10
207.1527374123462
 20
334.96832771996111
 30
0.0
 11
206.41427587388429
 21
334.96832771996111
 31
0.0
  0
ARC
  5
137
  8
0
 10
209.40686614946031
 20
333.75920998403637
 30
0.0
 40
1.435897435898192
 50
176.76968023270689
 51
226.83313873999651
  0
ARC
  5
138
  8
0
 10
209.28455300104619
 20
333.76122809824932
 30
0.0
 40
2.0512820512831311
 50
177.79579960996611
 51
210.76639186197551
  0
LINE
  5
139
  8
0
 10
207.9732502328595
 20
333.8401225917554
 30
0.0
 11
207.9732502328595
 21
335.58371233534598
 31
0.0
  0
LINE
  5
13A
  8
0
 10
207.23478869439759
 20
333.8401225917554
 30
0.0
 11
207.23478869439759
 21
335.58371233534598
 31
0.0
  0
LINE
  5
13B
  8
0
 10
206.8655579251666
 20
332.7119174635497
 30
0.0
 11
206.41427587388429
 21
332.7119174635497
 31
0.0
  0
ARC
  5
13C
  8
0
 10
206.41427587388429
 20
333.8401225917554
 30
0.0
 40
0.389743589743795
 50
219.16671071611941
 51
270.0
  0
LINE
  5
13D
  8
0
 10
206.41427587388429
 20
333.45037900201157
 30
0.0
 11
207.23478869439759
 21
333.45037900201157
 31
0.0
  0
LINE
  5
13E
  8
0
 10
206.41427587388429
 20
334.22986618149918
 30
0.0
 11
207.1527374123462
 21
334.22986618149918
 31
0.0
  0
LINE
  5
13F
  8
0
 10
206.11210315875269
 20
333.59396874560139
 30
0.0
 11
207.07068613029489
 21
333.59396874560139
 31
0.0
  0
LINE
  5
140
  8
0
 10
206.11210315875269
 20
334.08627643790942
 30
0.0
 11
207.07068613029489
 21
334.08627643790942
 31
0.0
  0
LINE
  5
141
  8
0
 10
207.07068613029489
 20
333.59396874560139
 30
0.0
 11
207.07068613029489
 21
334.08627643790942
 31
0.0
  0
ARC
  5
142
  8
0
 10
206.41427587388429
 20
333.8401225917554
 30
0.0
 40
0.389743589743795
 50
90.0
 51
140.83328928387951
  0
LINE
  5
143
  8
0
 10
207.1527374123462
 20
334.22986618149918
 30
0.0
 11
207.1527374123462
 21
334.96832771996111
 31
0.0
  0
ARC
  5
144
  8
0
 10
206.41427587388429
 20
333.8401225917554
 30
0.0
 40
1.1282051282057219
 50
90.0
 51
270.0
  0
LINE
  5
145
  8
0
 10
212.157865617477
 20
334.96832771996111
 30
0.0
 11
211.66555792516911
 21
334.96832771996111
 31
0.0
  0
LINE
  5
146
  8
0
 10
213.28607074568279
 20
332.7119174635497
 30
0.0
 11
212.46555792516949
 21
332.7119174635497
 31
0.0
  0
LINE
  5
147
  8
0
 10
207.23478869439759
 20
335.58371233534598
 30
0.0
 11
207.9732502328595
 21
335.58371233534598
 31
0.0
  0
TEXT
  5
148
  8
0
 10
206.19857074567869
 20
330.14781489944789
 30
0.0
 40
1.5
  1
CLAYTON
 41
0.65
  7
06500
 72
     1
 11
209.2860707456787
 21
330.14781489944789
 31
0.0
  0
LINE
  5
149
  8
3
 10
231.86878594220329
 20
329.60967820170168
 30
0.0
 11
235.2668328592118
 21
327.64781489944789
 31
0.0
  0
LINE
  5
14A
  8
3
 10
186.70335554915161
 20
329.60967820170038
 30
0.0
 11
183.30530863214551
 21
327.64781489944789
 31
0.0
  0
LINE
  5
14B
  8
3
 10
228.77164233082851
 20
353.89781489944789
 30
0.0
 11
235.2668328592118
 21
357.64781489944789
 31
0.0
  0
LINE
  5
14C
  8
3
 10
226.00682931892021
 20
357.70325354252219
 30
0.0
 11
231.58041551000051
 21
362.7217330902136
 31
0.0
  0
LINE
  5
14D
  8
3
 10
231.66281339146471
 20
340.29592447592569
 30
0.0
 11
239.12172760672689
 21
339.51196100141829
 31
0.0
  0
LINE
  5
14E
  8
3
 10
231.66281339146479
 20
344.9997053229701
 30
0.0
 11
239.12172760672689
 21
345.7836687974775
 31
0.0
  0
LINE
  5
14F
  8
3
 10
226.0068293189199
 20
327.59237625637371
 30
0.0
 11
231.58041551000051
 21
322.57389670868213
 31
0.0
  0
LINE
  5
150
  8
3
 10
228.77164233082851
 20
331.39781489944789
 30
0.0
 11
229.34566039456729
 21
331.06640541582863
 31
0.0
  0
LINE
  5
151
  8
3
 10
213.96408378907819
 20
320.63949388293707
 30
0.0
 11
215.5234214702115
 21
313.3033868774337
 31
0.0
  0
LINE
  5
152
  8
3
 10
218.4376452148843
 20
322.09304210248928
 30
0.0
 11
221.4881700379527
 21
315.24145117016991
 31
0.0
  0
LINE
  5
153
  8
3
 10
200.1344962764731
 20
322.09304210248939
 30
0.0
 11
197.08397145340459
 21
315.24145117016991
 31
0.0
  0
LINE
  5
154
  8
3
 10
204.6080577022791
 20
320.63949388293742
 30
0.0
 11
203.0487200211459
 21
313.3033868774337
 31
0.0
  0
LINE
  5
155
  8
3
 10
189.80049916052869
 20
331.39781489944789
 30
0.0
 11
189.22648109679241
 21
331.0664054158301
 31
0.0
  0
LINE
  5
156
  8
3
 10
192.5653121724373
 20
327.5923762563736
 30
0.0
 11
186.99172598135681
 21
322.57389670868218
 31
0.0
  0
LINE
  5
157
  8
3
 10
186.90932809989249
 20
344.9997053229701
 30
0.0
 11
179.45041388463039
 21
345.7836687974775
 31
0.0
  0
LINE
  5
158
  8
3
 10
186.90932809989249
 20
340.29592447592569
 30
0.0
 11
179.45041388463039
 21
339.51196100141829
 31
0.0
  0
LINE
  5
159
  8
3
 10
192.5653121724373
 20
357.70325354252219
 30
0.0
 11
186.99172598135681
 21
362.72173309021372
 31
0.0
  0
LINE
  5
15A
  8
3
 10
189.80049916052869
 20
353.89781489944801
 30
0.0
 11
183.30530863214551
 21
357.64781489944789
 31
0.0
  0
LINE
  5
15B
  8
3
 10
204.6080577022791
 20
364.65613591595849
 30
0.0
 11
203.0487200211459
 21
371.99224292146209
 31
0.0
  0
LINE
  5
15C
  8
3
 10
200.1344962764731
 20
363.2025876964064
 30
0.0
 11
197.08397145340459
 21
370.05417862872599
 31
0.0
  0
LINE
  5
15D
  8
3
 10
213.96408378907819
 20
364.65613591595837
 30
0.0
 11
215.5234214702115
 21
371.99224292146209
 31
0.0
  0
POLYLINE
  5
15E
  8
0
 66
     1
 10
0.0
 20
0.0
 30
0.0
 70
     1
 40
1.0
 41
1.0
  0
VERTEX
  5
15F
  8
0
 10
208.78607074567859
 20
342.64781489944789
 30
0.0
 42
1.0
  0
VERTEX
  5
160
  8
0
 10
209.7860707456787
 20
342.64781489944789
 30
0.0
 42
1.0
  0
SEQEND
  5
161
  8
0
  0
CIRCLE
  5
162
  8
0
 10
209.2860707456787
 20
342.64781489944789
 30
0.0
 40
1.0
  0
LINE
  5
163
  8
0
 10
231.0360707456787
 20
332.14781489944789
 30
0.0
 11
231.0360707456787
 21
329.16879495367431
 31
0.0
  0
LINE
  5
164
  8
0
 10
230.5360707456787
 20
332.14781489944789
 30
0.0
 11
230.5360707456787
 21
329.168794953673
 31
0.0
  0
LINE
  5
165
  8
0
 10
187.5360707456787
 20
332.14781489944789
 30
0.0
 11
187.5360707456787
 21
329.168794953673
 31
0.0
  0
LINE
  5
166
  8
0
 10
188.03607074567859
 20
332.14781489944789
 30
0.0
 11
188.03607074567859
 21
329.16879495367419
 31
0.0
  0
CIRCLE
  5
167
  8
0
 10
187.78607074567859
 20
330.64781489944789
 30
0.0
 40
1.5
  0
CIRCLE
  5
168
  8
0
 10
230.7860707456787
 20
330.64781489944789
 30
0.0
 40
1.5
  0
TEXT
  5
169
  8
0
 10
206.21464217425009
 20
321.89781489944789
 30
0.0
 40
4.0
  1
15
 41
0.75
  7
07500
 72
     4
 11
209.2860707456787
 21
323.89781489944789
 31
0.0
  0
TEXT
  5
16A
  8
0
 10
195.40795440805201
 20
355.81688354397801
 30
0.0
 40
4.0
  1
27
 41
0.75
  7
07500
 72
     4
 11
198.26509726519481
 21
357.81688354397789
 31
0.0
  0
TEXT
  5
16B
  8
0
 10
188.5251896365732
 20
346.44188354397812
 30
0.0
 40
4.0
  1
24
 41
0.75
  7
07500
 72
     4
 11
191.45376106514459
 21
348.44188354397812
 31
0.0
  0
TEXT
  5
16C
  8
0
 10
189.025189636573
 20
334.85374625491761
 30
0.0
 40
4.0
  1
21
 41
0.75
  7
07500
 72
     4
 11
191.45376106514439
 21
336.85374625491761
 31
0.0
  0
TEXT
  5
16D
  8
0
 10
195.1936686937662
 20
325.47874625491772
 30
0.0
 40
4.0
  1
18
 41
0.75
  7
07500
 72
     4
 11
198.26509726519481
 21
327.47874625491772
 31
0.0
  0
TEXT
  5
16E
  8
0
 10
217.23561565473381
 20
325.47874625491801
 30
0.0
 40
4.0
  1
12
 41
0.75
  7
07500
 72
     4
 11
220.30704422616239
 21
327.47874625491801
 31
0.0
  0
TEXT
  5
16F
  8
0
 10
225.30885661668901
 20
334.85374625491761
 30
0.0
 40
4.0
  1
9
 72
     4
 11
227.11838042621281
 21
336.85374625491761
 31
0.0
  0
TEXT
  5
170
  8
0
 10
225.11838042621301
 20
346.44188354397818
 30
0.0
 40
4.0
  1
6
 72
     4
 11
227.11838042621301
 21
348.44188354397818
 31
0.0
  0
TEXT
  5
171
  8
0
 10
218.40228232140061
 20
355.81688354397812
 30
0.0
 40
4.0
  1
3
 72
     4
 11
220.3070442261625
 21
357.81688354397812
 31
0.0
  0
TEXT
  5
172
  8
0
 10
207.3813088409168
 20
359.39781489944789
 30
0.0
 40
4.0
  1
0
 72
     4
 11
209.2860707456787
 21
361.39781489944789
 31
0.0
  0
LINE
  5
173
  8
0
 10
222.51123892225931
 20
360.85069727288408
 30
0.0
 11
226.91962831445289
 21
366.91832473069633
 31
0.0
  0
LINE
  5
174
  8
0
 10
230.68484236231961
 20
349.60069727288419
 30
0.0
 11
237.81776623453331
 21
351.91832473069633
 31
0.0
  0
LINE
  5
175
  8
0
 10
230.68484236231961
 20
335.6949325260116
 30
0.0
 11
237.81776623453331
 21
333.37730506819941
 31
0.0
  0
LINE
  5
176
  8
0
 10
222.51123892225931
 20
324.4449325260116
 30
0.0
 11
226.91962831445281
 21
318.37730506819952
 31
0.0
  0
LINE
  5
177
  8
0
 10
209.2860707456787
 20
320.14781489944789
 30
0.0
 11
209.2860707456787
 21
312.64781489944789
 31
0.0
  0
LINE
  5
178
  8
0
 10
196.06090256909789
 20
324.4449325260116
 30
0.0
 11
191.65251317690439
 21
318.37730506819952
 31
0.0
  0
LINE
  5
179
  8
0
 10
187.88729912903759
 20
335.6949325260116
 30
0.0
 11
180.75437525682401
 21
333.37730506819941
 31
0.0
  0
LINE
  5
17A
  8
0
 10
187.8872991290377
 20
349.6006972728843
 30
0.0
 11
180.75437525682409
 21
351.91832473069633
 31
0.0
  0
LINE
  5
17B
  8
0
 10
196.06090256909789
 20
360.8506972728843
 30
0.0
 11
191.65251317690451
 21
366.91832473069633
 31
0.0
  0
LINE
  5
17C
  8
0
 10
209.2860707456787
 20
365.14781489944789
 30
0.0
 11
209.2860707456787
 21
372.64781489944789
 31
0.0
  0
LINE
  5
17D
  8
3
 10
219.8612234656492
 20
366.39999679815497
 30
0.0
 11
221.4881700379527
 21
370.05417862872599
 31
0.0
  0
TEXT
  5
2D0
  8
0
 62
     3
 10
0.0
 20
0.0
 30
0.0
 40
10.0
  1
PDH125R-1/30
  7
STANDARD1
  0
ENDSEC
  0
EOF
