  0
SECTION
  2
HEADER
  9
$ACADVER
  1
AC1009
  9
$INSBASE
 10
0.0
 20
0.0
 30
0.0
  9
$EXTMIN
 10
0.0
 20
-2.960436562073669
 30
0.0
  9
$EXTMAX
 10
325.41989108406602
 20
259.0
 30
0.0
  9
$LIMMIN
 10
0.0
 20
0.0
  9
$LIMMAX
 10
375.0
 20
270.0
  9
$ORTHOMODE
 70
     1
  9
$REGENMODE
 70
     1
  9
$FILLMODE
 70
     1
  9
$QTEXTMODE
 70
     0
  9
$MIRRTEXT
 70
     0
  9
$DRAGMODE
 70
     2
  9
$LTSCALE
 40
10.0
  9
$OSMODE
 70
  3071
  9
$ATTMODE
 70
     1
  9
$TEXTSIZE
 40
2.0
  9
$TRACEWID
 40
0.05
  9
$TEXTSTYLE
  7
K50
  9
$CLAYER
  8
0
  9
$CELTYPE
  6
BYLAYER
  9
$CECOLOR
 62
   256
  9
$DIMSCALE
 40
1.0
  9
$DIMASZ
 40
3.0
  9
$DIMEXO
 40
2.0
  9
$DIMDLI
 40
0.38
  9
$DIMRND
 40
0.0
  9
$DIMDLE
 40
0.0
  9
$DIMEXE
 40
2.0
  9
$DIMTP
 40
0.0
  9
$DIMTM
 40
0.0
  9
$DIMTXT
 40
3.2000000000000002
  9
$DIMCEN
 40
0.0
  9
$DIMTSZ
 40
0.0
  9
$DIMTOL
 70
     0
  9
$DIMLIM
 70
     0
  9
$DIMTIH
 70
     0
  9
$DIMTOH
 70
     0
  9
$DIMSE1
 70
     0
  9
$DIMSE2
 70
     0
  9
$DIMTAD
 70
     1
  9
$DIMZIN
 70
     0
  9
$DIMBLK
  1

  9
$DIMASO
 70
     0
  9
$DIMSHO
 70
     0
  9
$DIMPOST
  1

  9
$DIMAPOST
  1

  9
$DIMALT
 70
     0
  9
$DIMALTD
 70
     2
  9
$DIMALTF
 40
25.399999999999999
  9
$DIMLFAC
 40
1.0
  9
$DIMTOFL
 70
     1
  9
$DIMTVP
 40
1.6000000000000001
  9
$DIMTIX
 70
     1
  9
$DIMSOXD
 70
     0
  9
$DIMSAH
 70
     0
  9
$DIMBLK1
  1

  9
$DIMBLK2
  1

  9
$DIMSTYLE
  2
STANDARD
  9
$DIMCLRD
 70
     0
  9
$DIMCLRE
 70
     0
  9
$DIMCLRT
 70
     0
  9
$DIMTFAC
 40
1.0
  9
$DIMGAP
 40
0.09
  9
$LUNITS
 70
     2
  9
$LUPREC
 70
     4
  9
$SKETCHINC
 40
0.1
  9
$FILLETRAD
 40
1.5
  9
$AUNITS
 70
     0
  9
$AUPREC
 70
     4
  9
$MENU
  1
E:\r13\win\SUPPORT\ACAD
  9
$ELEVATION
 40
0.0
  9
$PELEVATION
 40
0.0
  9
$THICKNESS
 40
0.0
  9
$LIMCHECK
 70
     0
  9
$BLIPMODE
 70
     0
  9
$CHAMFERA
 40
0.0
  9
$CHAMFERB
 40
0.0
  9
$SKPOLY
 70
     0
  9
$TDCREATE
 40
2449839.791736111
  9
$TDUPDATE
 40
2456597.7132438659
  9
$TDINDWG
 40
0.0002669329
  9
$TDUSRTIMER
 40
0.0002669329
  9
$USRTIMER
 70
     1
  9
$ANGBASE
 50
0.0
  9
$ANGDIR
 70
     0
  9
$PDMODE
 70
     0
  9
$PDSIZE
 40
0.0
  9
$PLINEWID
 40
0.0
  9
$COORDS
 70
     1
  9
$SPLFRAME
 70
     0
  9
$SPLINETYPE
 70
     6
  9
$SPLINESEGS
 70
     8
  9
$ATTDIA
 70
     0
  9
$ATTREQ
 70
     1
  9
$HANDLING
 70
     1
  9
$HANDSEED
  5
2E7
  9
$SURFTAB1
 70
     6
  9
$SURFTAB2
 70
     6
  9
$SURFTYPE
 70
     6
  9
$SURFU
 70
     6
  9
$SURFV
 70
     6
  9
$UCSNAME
  2

  9
$UCSORG
 10
0.0
 20
0.0
 30
0.0
  9
$UCSXDIR
 10
1.0
 20
0.0
 30
0.0
  9
$UCSYDIR
 10
0.0
 20
1.0
 30
0.0
  9
$PUCSNAME
  2

  9
$PUCSORG
 10
0.0
 20
0.0
 30
0.0
  9
$PUCSXDIR
 10
1.0
 20
0.0
 30
0.0
  9
$PUCSYDIR
 10
0.0
 20
1.0
 30
0.0
  9
$USERI1
 70
     0
  9
$USERI2
 70
     1
  9
$USERI3
 70
     0
  9
$USERI4
 70
     0
  9
$USERI5
 70
     0
  9
$USERR1
 40
0.0
  9
$USERR2
 40
0.0
  9
$USERR3
 40
0.0
  9
$USERR4
 40
0.0
  9
$USERR5
 40
0.0
  9
$WORLDVIEW
 70
     1
  9
$SHADEDGE
 70
     3
  9
$SHADEDIF
 70
    70
  9
$TILEMODE
 70
     1
  9
$MAXACTVP
 70
    16
  9
$PLIMCHECK
 70
     0
  9
$PEXTMIN
 10
1.0000000000000000E+020
 20
1.0000000000000000E+020
 30
1.0000000000000000E+020
  9
$PEXTMAX
 10
-1.0000000000000000E+020
 20
-1.0000000000000000E+020
 30
-1.0000000000000000E+020
  9
$PLIMMIN
 10
0.0
 20
0.0
  9
$PLIMMAX
 10
12.0
 20
9.0
  9
$UNITMODE
 70
     0
  9
$VISRETAIN
 70
     0
  9
$PLINEGEN
 70
     0
  9
$PSLTSCALE
 70
     0
  0
ENDSEC
  0
SECTION
  2
TABLES
  0
TABLE
  2
VPORT
 70
     1
  0
VPORT
  2
*ACTIVE
 70
     0
 10
0.0
 20
0.0
 11
1.0
 21
1.0
 12
187.49427839065231
 22
134.10366293909439
 13
0.0
 23
0.0
 14
10.0
 24
10.0
 15
10.0
 25
10.0
 16
0.0
 26
0.0
 36
1.0
 17
0.0
 27
0.0
 37
0.0
 40
277.29405978699532
 41
2.304913294797688
 42
50.0
 43
0.0
 44
0.0
 50
0.0
 51
0.0
 71
     0
 72
   500
 73
     1
 74
     0
 75
     0
 76
     0
 77
     0
 78
     2
  0
ENDTAB
  0
TABLE
  2
LTYPE
 70
     3
  0
LTYPE
  2
CONTINUOUS
 70
     0
  3
Solid Line
 72
    65
 73
     0
 40
0.0
  0
LTYPE
  2
CENTER
 70
     0
  3
____ _ ____ _ ____ _ ____ _ ____ _ ____ _ ____
 72
    65
 73
     4
 40
2.0
 49
1.25
 49
-0.25
 49
0.25
 49
-0.25
  0
LTYPE
  2
PHANTOM2
 70
     0
  3
___ _ _ ___ _ _ ___ _ _ ___ _ _
 72
    65
 73
     6
 40
1.25
 49
0.625
 49
-0.125
 49
0.125
 49
-0.125
 49
0.125
 49
-0.125
  0
ENDTAB
  0
TABLE
  2
LAYER
 70
     3
  0
LAYER
  2
0
 70
     0
 62
     7
  6
CONTINUOUS
  0
LAYER
  2
1
 70
     0
 62
     1
  6
CENTER
  0
LAYER
  2
3
 70
     0
 62
     3
  6
CONTINUOUS
  0
ENDTAB
  0
TABLE
  2
STYLE
 70
     6
  0
STYLE
  2
STANDARD
 70
     0
 40
0.0
 41
1.0
 50
0.0
 71
     0
 42
0.2
  3
romans.shx
  4

  0
STYLE
  2
06500
 70
     0
 40
0.0
 41
1.0
 50
0.0
 71
     0
 42
1.0
  3
romans.shx
  4

  0
STYLE
  2
08000
 70
     0
 40
0.0
 41
1.0
 50
0.0
 71
     0
 42
2.0
  3
romans.shx
  4

  0
STYLE
  2
07500
 70
     0
 40
0.0
 41
1.0
 50
0.0
 71
     0
 42
0.2
  3
romans.shx
  4

  0
STYLE
  2
K50
 70
     0
 40
0.0
 41
1.0
 50
0.0
 71
     0
 42
2.0
  3
romans.shx
  4

  0
STYLE
  2
STANDARD1
 70
     0
 40
0.0
 41
1.0
 50
0.0
 71
     0
 42
3.0
  3
txt
  4

  0
ENDTAB
  0
TABLE
  2
VIEW
 70
     0
  0
ENDTAB
  0
TABLE
  2
UCS
 70
     0
  0
ENDTAB
  0
TABLE
  2
APPID
 70
     3
  0
APPID
  2
ACAD
 70
     0
  0
APPID
  2
ACAD_MLEADERVER
 70
     0
  0
APPID
  2
ACAD_NAV_VCDISPLAY
 70
     0
  0
ENDTAB
  0
TABLE
  2
DIMSTYLE
 70
     1
  0
DIMSTYLE
  2
STANDARD
 70
     0
  3

  4

  5

  6

  7

 40
1.0
 41
0.18
 42
0.0625
 43
0.38
 44
0.18
 45
0.0
 46
0.0
 47
0.0
 48
0.0
140
0.18
141
0.09
142
0.0
143
25.399999999999999
144
1.0
145
0.0
146
1.0
147
0.09
 71
     0
 72
     0
 73
     1
 74
     1
 75
     0
 76
     0
 77
     0
 78
     0
170
     0
171
     2
172
     0
173
     0
174
     0
175
     0
176
     0
177
     0
178
     0
  0
ENDTAB
  0
ENDSEC
  0
SECTION
  2
BLOCKS
  0
BLOCK
  8
0
  2
$MODEL_SPACE
 70
     0
 10
0.0
 20
0.0
 30
0.0
  3
$MODEL_SPACE
  1

  0
ENDBLK
  5
185
  8
0
  0
BLOCK
 67
     1
  8
0
  2
$PAPER_SPACE
 70
     0
 10
0.0
 20
0.0
 30
0.0
  3
$PAPER_SPACE
  1

  0
ENDBLK
  5
183
 67
     1
  8
0
  0
ENDSEC
  0
SECTION
  2
ENTITIES
  0
LINE
  5
35
  8
0
 10
159.5
 20
32.380108915933889
 30
0.0
 11
80.500000000000085
 21
32.380108915933903
 31
0.0
  0
LINE
  5
36
  8
0
 10
81.999999999999972
 20
30.88010891593402
 30
0.0
 11
80.499999999999972
 21
32.380108915934017
 31
0.0
  0
LINE
  5
37
  8
0
 10
159.5
 20
32.380108915933953
 30
0.0
 11
158.0
 21
30.880108915933949
 31
0.0
  0
LINE
  5
38
  8
0
 10
67.499999999999972
 20
55.580108915934012
 30
0.0
 11
172.49999999999989
 21
55.580108915933991
 31
0.0
  0
LINE
  5
39
  8
0
 10
134.99999999999989
 20
10.58010891593411
 30
0.0
 11
105.0
 21
10.58010891593411
 31
0.0
  0
LINE
  5
3A
  8
0
 10
174.0
 20
57.080108915933991
 30
0.0
 11
65.999999999999972
 21
57.080108915933998
 31
0.0
  0
LINE
  5
3B
  8
0
 10
174.0
 20
68.080108915933991
 30
0.0
 11
66.000000000000014
 21
68.080108915934005
 31
0.0
  0
ARC
  5
3C
  8
0
 10
161.5
 20
53.580108915933991
 30
0.0
 40
2.0
 50
89.999999999999986
 51
180.0
  0
ARC
  5
3D
  8
0
 10
78.5
 20
53.580108915934012
 30
0.0
 40
2.0
 50
360.0
 51
89.999999999999915
  0
ARC
  5
3E
  8
0
 10
145.0
 20
28.880108915933828
 30
0.0
 40
2.0
 50
90.000000000000185
 51
180.0
  0
ARC
  5
3F
  8
0
 10
94.999999999999986
 20
28.880108915933899
 30
0.0
 40
2.0
 50
359.99999999999989
 51
89.99999999999973
  0
ARC
  5
40
  8
0
 10
98.999999999999986
 20
23.480108915933979
 30
0.0
 40
2.0
 50
180.0
 51
270.0
  0
ARC
  5
41
  8
0
 10
140.99999999999989
 20
23.480108915933972
 30
0.0
 40
2.0
 50
270.0
 51
360.0
  0
LINE
  5
42
  8
0
 10
106.0
 20
9.5801089159340584
 30
0.0
 11
105.0
 21
10.58010891593406
 31
0.0
  0
LINE
  5
43
  8
0
 10
134.99999999999989
 20
10.58010891593405
 30
0.0
 11
133.99999999999989
 21
9.5801089159340531
 31
0.0
  0
LINE
  5
44
  8
0
 10
67.500000000000014
 20
69.580108915934005
 30
0.0
 11
66.000000000000014
 21
68.080108915934005
 31
0.0
  0
LINE
  5
45
  8
0
 10
67.499999999999972
 20
55.580108915934012
 30
0.0
 11
65.999999999999972
 21
57.080108915933998
 31
0.0
  0
LINE
  5
46
  8
0
 10
174.0
 20
57.080108915933991
 30
0.0
 11
172.49999999999989
 21
55.580108915933991
 31
0.0
  0
LINE
  5
47
  8
0
 10
174.0
 20
68.080108915933991
 30
0.0
 11
172.49999999999989
 21
69.580108915933991
 31
0.0
  0
LINE
  5
48
  8
0
 10
158.0
 20
30.880108915933949
 30
0.0
 11
82.000000000000014
 21
30.88010891593396
 31
0.0
  0
LINE
  5
49
  8
0
 10
80.5
 20
53.580108915934012
 30
0.0
 11
80.499999999999972
 21
32.380108915934017
 31
0.0
  0
LINE
  5
4A
  8
0
 10
159.49999999999989
 20
53.580108915933991
 30
0.0
 11
159.5
 21
32.380108915933953
 31
0.0
  0
LINE
  5
4B
  8
0
 10
96.999999999999972
 20
28.880108915933899
 30
0.0
 11
96.999999999999972
 21
23.480108915933979
 31
0.0
  0
LINE
  5
4C
  8
0
 10
142.99999999999989
 20
28.880108915933828
 30
0.0
 11
142.99999999999989
 21
23.480108915933972
 31
0.0
  0
LINE
  5
4D
  8
0
 10
105.0
 20
21.480108915933979
 30
0.0
 11
105.0
 21
10.58010891593406
 31
0.0
  0
LINE
  5
4E
  8
0
 10
134.99999999999989
 20
21.480108915933972
 30
0.0
 11
134.99999999999989
 21
10.58010891593405
 31
0.0
  0
LINE
  5
4F
  8
0
 10
140.99999999999989
 20
21.480108915933972
 30
0.0
 11
98.999996696375234
 21
21.480108915933979
 31
0.0
  0
LINE
  5
50
  8
1
 10
119.9999999999999
 20
124.58010891593391
 30
0.0
 11
119.9999999999999
 21
4.580108915933998
 31
0.0
  0
LINE
  5
51
  8
0
 10
65.999999999999972
 20
57.080108915933998
 30
0.0
 11
66.000000000000014
 21
68.080108915934005
 31
0.0
  0
LINE
  5
52
  8
0
 10
133.99999999999989
 20
9.5801089159340531
 30
0.0
 11
106.0
 21
9.5801089159340584
 31
0.0
  0
LINE
  5
53
  8
0
 10
174.0
 20
68.080108915933991
 30
0.0
 11
174.0
 21
57.080108915933991
 31
0.0
  0
LINE
  5
54
  8
0
 10
67.500000000000014
 20
69.580108915934005
 30
0.0
 11
172.5
 21
69.580108915933991
 31
0.0
  0
CIRCLE
  5
55
  8
0
 10
120.0
 20
245.0
 30
0.0
 40
10.5
  0
LINE
  5
56
  8
1
 10
135.5000000000002
 20
245.0
 30
0.0
 11
104.5000000000001
 21
245.0
 31
0.0
  0
ARC
  5
57
  8
0
 10
120.0
 20
200.0
 30
0.0
 40
36.25
 50
98.240834062214617
 51
81.759165937785397
  0
ARC
  5
58
  8
0
 10
120.0
 20
200.0
 30
0.0
 40
52.5
 50
98.670578746781842
 51
81.329421253218158
  0
ARC
  5
59
  8
0
 10
120.0
 20
200.0
 30
0.0
 40
54.0
 50
96.289273613179873
 51
83.710726386820127
  0
LINE
  5
5A
  8
1
 10
120.0
 20
259.0
 30
0.0
 11
120.0
 21
141.0
 31
0.0
  0
LINE
  5
5B
  8
1
 10
179.0
 20
200.0
 30
0.0
 11
61.0
 21
200.0
 31
0.0
  0
LINE
  5
5C
  8
0
 10
115.0
 20
69.880108915933718
 30
0.0
 11
127.59007001182221
 21
69.880108915933718
 31
0.0
  0
LINE
  5
5D
  8
0
 10
125.0
 20
69.580108915933991
 30
0.0
 11
125.0
 21
69.880108915933718
 31
0.0
  0
LINE
  5
5E
  8
0
 10
111.0352361151369
 20
118.1497084814345
 30
0.0
 11
128.96476388486309
 21
118.1497084814346
 31
0.0
  0
LINE
  5
5F
  8
0
 10
109.5
 20
91.037898902744942
 30
0.0
 11
130.5
 21
91.037898902744942
 31
0.0
  0
LINE
  5
60
  8
0
 10
109.5
 20
117.0300852698053
 30
0.0
 11
109.5
 21
91.037898902745098
 31
0.0
  0
LINE
  5
61
  8
0
 10
115.0
 20
69.580108915933991
 30
0.0
 11
115.0
 21
69.880108915933718
 31
0.0
  0
LINE
  5
62
  8
0
 10
115.0
 20
69.880108915933718
 30
0.0
 11
112.4099280808291
 21
69.880108915933718
 31
0.0
  0
LINE
  5
63
  8
0
 10
111.4143682022754
 20
70.785998712158815
 30
0.0
 11
109.5
 21
91.037898902745098
 31
0.0
  0
ARC
  5
64
  8
0
 10
120.0
 20
69.580108915933991
 30
0.0
 40
50.0
 50
79.551762668042755
 51
100.4482373319574
  0
ARC
  5
65
  8
0
 10
112.40992998817769
 20
70.880108915933945
 30
0.0
 40
1.0
 50
185.40000000000001
 51
270.0
  0
ARC
  5
66
  8
0
 10
111.25
 20
117.0300825724071
 30
0.0
 40
1.75
 50
100.4482373319572
 51
180.0
  0
ARC
  5
67
  8
0
 10
128.75
 20
117.0300825724071
 30
0.0
 40
1.75
 50
360.0
 51
79.551762668042855
  0
ARC
  5
68
  8
0
 10
127.59007001182221
 20
70.880108915933945
 30
0.0
 40
1.0
 50
270.00000000000011
 51
354.60000000000002
  0
LINE
  5
69
  8
0
 10
128.58563197642539
 20
70.786000602615175
 30
0.0
 11
130.49999999999989
 21
91.037898902745098
 31
0.0
  0
LINE
  5
6A
  8
0
 10
130.5
 20
117.0300825724071
 30
0.0
 11
130.49999999999989
 21
91.037898902745098
 31
0.0
  0
LINE
  5
72
  8
0
 10
212.96991742759289
 20
255.5
 30
0.0
 11
238.9621010972549
 21
255.5
 31
0.0
  0
LINE
  5
73
  8
0
 10
259.21399939738478
 20
253.58563197642539
 30
0.0
 11
238.9621010972549
 21
255.5
 31
0.0
  0
ARC
  5
74
  8
0
 10
259.11989108406601
 20
252.59007001182229
 30
0.0
 40
1.0
 50
0.0000000000000763
 51
84.599999999999994
  0
ARC
  5
75
  8
0
 10
212.96991742759289
 20
253.75
 30
0.0
 40
1.75
 50
90.000000000000028
 51
169.5517626680429
  0
ARC
  5
76
  8
0
 10
212.96991742759289
 20
236.25
 30
0.0
 40
1.75
 50
190.44823733195719
 51
270.00000000000011
  0
ARC
  5
77
  8
0
 10
259.11989108406601
 20
237.40992998817779
 30
0.0
 40
1.0
 50
275.40000000000009
 51
360.0
  0
ARC
  5
78
  8
0
 10
260.41989108406602
 20
245.0
 30
0.0
 40
50.0
 50
169.55176266804281
 51
190.44823733195739
  0
LINE
  5
79
  8
0
 10
259.21400128784109
 20
236.4143682022754
 30
0.0
 11
238.9621010972549
 21
234.50000000000011
 31
0.0
  0
LINE
  5
7A
  8
0
 10
260.1198910840663
 20
240.0
 30
0.0
 11
260.1198910840663
 21
237.4099280808291
 31
0.0
  0
LINE
  5
7B
  8
0
 10
260.41989108406602
 20
240.0
 30
0.0
 11
260.1198910840663
 21
240.0
 31
0.0
  0
LINE
  5
7C
  8
0
 10
212.9699147301946
 20
234.50000000000011
 30
0.0
 11
238.9621010972549
 21
234.50000000000011
 31
0.0
  0
LINE
  5
7D
  8
0
 10
238.96210109725499
 20
234.50000000000011
 30
0.0
 11
238.96210109725499
 21
255.5
 31
0.0
  0
LINE
  5
7E
  8
0
 10
211.8502915185654
 20
236.035236115137
 30
0.0
 11
211.8502915185654
 21
253.96476388486309
 31
0.0
  0
LINE
  5
7F
  8
0
 10
260.41989108406602
 20
250.0
 30
0.0
 11
260.1198910840663
 21
250.0
 31
0.0
  0
LINE
  5
80
  8
0
 10
260.1198910840663
 20
240.0
 30
0.0
 11
260.1198910840663
 21
252.59007001182229
 31
0.0
  0
LINE
  5
81
  8
0
 10
260.41989108406602
 20
147.5
 30
0.0
 11
260.41989108406602
 21
252.5
 31
0.0
  0
LINE
  5
82
  8
0
 10
261.91989108406602
 20
254.0
 30
0.0
 11
272.91989108406602
 21
254.0
 31
0.0
  0
LINE
  5
83
  8
0
 10
320.41989108406591
 20
214.0
 30
0.0
 11
320.41989108406591
 21
186.0
 31
0.0
  0
LINE
  5
84
  8
0
 10
272.91989108406602
 20
146.0
 30
0.0
 11
261.91989108406602
 21
146.0
 31
0.0
  0
LINE
  5
85
  8
1
 10
255.41989108406599
 20
200.0
 30
0.0
 11
325.41989108406602
 21
200.0
 31
0.0
  0
LINE
  5
86
  8
0
 10
308.51989108406599
 20
221.0
 30
0.0
 11
308.51989108406599
 21
178.99999669637521
 31
0.0
  0
LINE
  5
87
  8
0
 10
308.51989108406599
 20
215.0
 30
0.0
 11
319.41989108406591
 21
215.0
 31
0.0
  0
LINE
  5
88
  8
0
 10
308.51989108406599
 20
185.0
 30
0.0
 11
319.41989108406591
 21
185.0
 31
0.0
  0
LINE
  5
89
  8
0
 10
301.11989108406613
 20
223.0
 30
0.0
 11
306.51989108406599
 21
223.0
 31
0.0
  0
LINE
  5
8A
  8
0
 10
301.11989108406613
 20
177.0
 30
0.0
 11
306.51989108406599
 21
177.0
 31
0.0
  0
LINE
  5
8B
  8
0
 10
276.41989108406602
 20
239.5
 30
0.0
 11
297.61989108406601
 21
239.5
 31
0.0
  0
LINE
  5
8C
  8
0
 10
276.41989108406602
 20
160.5
 30
0.0
 11
297.6198910840659
 21
160.5
 31
0.0
  0
LINE
  5
8D
  8
0
 10
299.11989108406601
 20
238.0
 30
0.0
 11
299.11989108406601
 21
162.0
 31
0.0
  0
LINE
  5
8E
  8
0
 10
261.91989108406602
 20
254.0
 30
0.0
 11
260.41989108406602
 21
252.5
 31
0.0
  0
LINE
  5
8F
  8
0
 10
272.91989108406602
 20
254.0
 30
0.0
 11
274.41989108406602
 21
252.5
 31
0.0
  0
LINE
  5
90
  8
0
 10
274.41989108406602
 20
147.5
 30
0.0
 11
272.91989108406602
 21
146.0
 31
0.0
  0
LINE
  5
91
  8
0
 10
260.41989108406602
 20
147.5
 30
0.0
 11
261.91989108406602
 21
146.0
 31
0.0
  0
LINE
  5
92
  8
0
 10
319.41989108406591
 20
215.0
 30
0.0
 11
320.41989108406591
 21
214.0
 31
0.0
  0
LINE
  5
93
  8
0
 10
320.41989108406591
 20
186.0
 30
0.0
 11
319.41989108406591
 21
185.0
 31
0.0
  0
ARC
  5
94
  8
0
 10
306.51989108406599
 20
221.0
 30
0.0
 40
2.0
 50
0.0
 51
90.0
  0
ARC
  5
95
  8
0
 10
306.51989108406599
 20
179.0
 30
0.0
 40
2.0
 50
270.0
 51
0.0
  0
ARC
  5
96
  8
0
 10
301.11989108406613
 20
175.0
 30
0.0
 40
2.0
 50
89.999999999999886
 51
179.99999999999969
  0
ARC
  5
97
  8
0
 10
301.11989108406613
 20
225.0
 30
0.0
 40
2.0
 50
180.0000000000002
 51
269.99999999999989
  0
ARC
  5
98
  8
0
 10
276.41989108406602
 20
158.5
 30
0.0
 40
2.0
 50
89.999999999999957
 51
179.99999999999989
  0
ARC
  5
99
  8
0
 10
276.41989108406602
 20
241.5
 30
0.0
 40
2.0
 50
180.0
 51
269.99999999999989
  0
LINE
  5
9A
  8
0
 10
261.91989108406602
 20
254.0
 30
0.0
 11
261.91989108406602
 21
146.0
 31
0.0
  0
LINE
  5
9B
  8
0
 10
272.91989108406602
 20
254.0
 30
0.0
 11
272.91989108406602
 21
146.0
 31
0.0
  0
LINE
  5
9C
  8
0
 10
319.4198910840658
 20
215.0
 30
0.0
 11
319.4198910840658
 21
185.0
 31
0.0
  0
LINE
  5
9D
  8
0
 10
274.41989108406602
 20
147.5
 30
0.0
 11
274.41989108406602
 21
252.5
 31
0.0
  0
LINE
  5
9E
  8
1
 10
286.1198910840659
 20
158.0
 30
0.0
 11
286.11989108406601
 21
169.0
 31
0.0
  0
LINE
  5
9F
  8
0
 10
297.61989108406601
 20
239.5
 30
0.0
 11
299.11989108406601
 21
238.0
 31
0.0
  0
LINE
  5
A0
  8
0
 10
299.11989108406601
 20
162.0
 30
0.0
 11
297.6198910840659
 21
160.5
 31
0.0
  0
LINE
  5
A1
  8
0
 10
297.61989108406613
 20
239.5
 30
0.0
 11
297.61989108406613
 21
160.50000000000011
 31
0.0
  0
LINE
  5
A2
  8
1
 10
278.41989108406591
 20
245.0
 30
0.0
 11
205.41989108406591
 21
245.0
 31
0.0
  0
LINE
  5
A3
  8
1
 10
115.4999999999999
 20
43.880108915934017
 30
0.0
 11
124.4999999999999
 21
43.880108915934017
 31
0.0
  0
CIRCLE
  5
A4
  8
3
 10
119.9999999999999
 20
43.880108915934038
 30
0.0
 40
1.6209999999999991
  0
CIRCLE
  5
A5
  8
0
 10
119.9999999999999
 20
43.880108915934038
 30
0.0
 40
2.0
  0
LINE
  5
A6
  8
0
 10
118.0226280066714
 20
44.180108915934007
 30
0.0
 11
121.9773719933284
 21
44.180108915934007
 31
0.0
  0
LINE
  5
A7
  8
0
 10
118.0226280066714
 20
43.580108915934012
 30
0.0
 11
121.9773719933284
 21
43.580108915934012
 31
0.0
  0
ARC
  5
A8
  8
0
 10
120.2666666666688
 20
190.3512820512814
 30
0.0
 40
0.2871794871796385
 50
269.99999999999977
 51
360.0
  0
LINE
  5
A9
  8
0
 10
120.5538461538484
 20
190.4743589743583
 30
0.0
 11
120.5538461538484
 21
190.3512820512814
 31
0.0
  0
ARC
  5
AA
  8
0
 10
117.5794871794879
 20
190.3512820512814
 30
0.0
 40
0.2871794871796385
 50
270.0
 51
360.0
  0
LINE
  5
AB
  8
0
 10
117.8666666666675
 20
190.47435897435841
 30
0.0
 11
117.8666666666675
 21
190.3512820512814
 31
0.0
  0
ARC
  5
AC
  8
0
 10
122.6329507536241
 20
190.88461538461499
 30
0.0
 40
0.061538461538494
 50
89.999999999999986
 51
235.439678220009
  0
ARC
  5
AD
  8
0
 10
122.8307692307727
 20
191.1717948717947
 30
0.0
 40
0.4102564102566264
 50
40.541601873497967
 51
89.999999999999986
  0
ARC
  5
AE
  8
0
 10
122.8307692307727
 20
191.1717948717947
 30
0.0
 40
0.4102564102566264
 50
235.43967822000889
 51
326.63298703076367
  0
ARC
  5
AF
  8
0
 10
123.50765674806981
 20
190.3103038159575
 30
0.0
 40
0.4102564102566264
 50
194.95437033353551
 51
216.87817385345451
  0
LINE
  5
B0
  8
0
 10
121.06666666666921
 20
190.91074592115029
 30
0.0
 11
121.06666666666921
 21
190.88461538461499
 31
0.0
  0
LINE
  5
B1
  8
0
 10
120.9846153846179
 20
190.0641025641018
 30
0.0
 11
120.63589743589969
 21
190.0641025641018
 31
0.0
  0
LINE
  5
B2
  8
0
 10
122.6329507536241
 20
190.94615384615349
 30
0.0
 11
123.1734008838701
 21
190.94615384615349
 31
0.0
  0
LINE
  5
B3
  8
0
 10
121.9958618468073
 20
191.4384615384615
 30
0.0
 11
123.14253711084611
 21
191.4384615384615
 31
0.0
  0
ARC
  5
B4
  8
0
 10
122.6461538461572
 20
190.90512820512791
 30
0.0
 40
0.8410256410260839
 50
140.64330107273881
 51
303.57748737918632
  0
ARC
  5
B5
  8
0
 10
124.28577995569751
 20
190.35844953466631
 30
0.0
 40
0.4102564102566264
 50
175.26603745311311
 51
225.8460529860541
  0
LINE
  5
B6
  8
0
 10
121.88717948718249
 20
192.32051282051319
 30
0.0
 11
121.4564100647399
 21
192.32051282051319
 31
0.0
  0
ARC
  5
B7
  8
0
 10
122.3794871794904
 20
191.91025641025661
 30
0.0
 40
0.4102564102566264
 50
89.999999999999986
 51
180.0
  0
ARC
  5
B8
  8
0
 10
121.14928972308461
 20
191.9408826974348
 30
0.0
 40
0.8205128205132528
 50
334.06662005680522
 51
357.86089300734187
  0
ARC
  5
B9
  8
0
 10
122.8833824406189
 20
191.32435546667571
 30
0.0
 40
0.996224746408062
 50
4.2068467171522084
 51
90.666449776468014
  0
LINE
  5
BA
  8
0
 10
123.8769230769271
 20
191.3974358974358
 30
0.0
 11
123.8769230769271
 21
190.3923076923071
 31
0.0
  0
LINE
  5
BB
  8
0
 10
121.88717948718249
 20
191.58205128205131
 30
0.0
 11
122.8307692307727
 21
191.58205128205131
 31
0.0
  0
ARC
  5
BC
  8
0
 10
118.68660771281679
 20
190.44373268718019
 30
0.0
 40
0.8205128205132528
 50
154.06662005680519
 51
177.8608930073419
  0
ARC
  5
BD
  8
0
 10
121.37378719999769
 20
190.44373268718019
 30
0.0
 40
0.8205128205132528
 50
154.06662005680519
 51
177.86089300734179
  0
LINE
  5
BE
  8
0
 10
120.63589743589969
 20
190.80256410256371
 30
0.0
 11
120.63589743589969
 21
190.0641025641018
 31
0.0
  0
LINE
  5
BF
  8
0
 10
118.23589743589849
 20
190.0641025641018
 30
0.0
 11
119.1384615384631
 21
190.0641025641018
 31
0.0
  0
ARC
  5
C0
  8
0
 10
120.9846153846179
 20
190.91074592115029
 30
0.0
 40
0.0820512820513253
 50
0.0000000000008002
 51
54.900367804606418
  0
ARC
  5
C1
  8
0
 10
120.9846153846179
 20
190.88461538461499
 30
0.0
 40
0.0820512820513253
 50
270.0
 51
0.0000000000003931
  0
ARC
  5
C2
  8
0
 10
121.45641025641299
 20
191.47386946346469
 30
0.0
 40
0.0820512820513253
 50
180.0
 51
234.90036780460591
  0
ARC
  5
C3
  8
0
 10
121.45641025641299
 20
191.5
 30
0.0
 40
0.0820512820513253
 50
90.000000000000085
 51
179.9999999999994
  0
LINE
  5
C4
  8
0
 10
121.3743589743617
 20
191.47386946346469
 30
0.0
 11
121.3743589743617
 21
191.5
 31
0.0
  0
ARC
  5
C5
  8
0
 10
120.9846153846179
 20
190.80256410256371
 30
0.0
 40
0.7384615384619276
 50
270.00000000000011
 51
54.90036780460607
  0
ARC
  5
C6
  8
0
 10
121.45641025641299
 20
191.58205128205131
 30
0.0
 40
0.7384615384619276
 50
89.999999999999986
 51
234.9003678046067
  0
LINE
  5
C7
  8
0
 10
121.45641025641299
 20
191.58205128205131
 30
0.0
 11
121.88717948718249
 21
191.58205128205131
 31
0.0
  0
LINE
  5
C8
  8
0
 10
121.88717948718249
 20
191.58205128205131
 30
0.0
 11
121.88717948718249
 21
192.32051282051319
 31
0.0
  0
ARC
  5
C9
  8
0
 10
119.8974358974378
 20
191.19230769230751
 30
0.0
 40
1.1282051282057219
 50
89.999999999999986
 51
270.0
  0
LINE
  5
CA
  8
0
 10
120.63589743589981
 20
191.58205128205131
 30
0.0
 11
120.63589743589981
 21
192.32051282051319
 31
0.0
  0
ARC
  5
CB
  8
0
 10
119.8974358974378
 20
191.19230769230751
 30
0.0
 40
0.389743589743795
 50
89.999999999999986
 51
140.83328928387959
  0
LINE
  5
CC
  8
0
 10
120.5538461538484
 20
190.94615384615349
 30
0.0
 11
120.5538461538484
 21
191.4384615384615
 31
0.0
  0
LINE
  5
CD
  8
0
 10
119.5952631823062
 20
191.4384615384615
 30
0.0
 11
120.5538461538484
 21
191.4384615384615
 31
0.0
  0
LINE
  5
CE
  8
0
 10
119.5952631823062
 20
190.94615384615349
 30
0.0
 11
120.5538461538484
 21
190.94615384615349
 31
0.0
  0
LINE
  5
CF
  8
0
 10
119.8974358974378
 20
191.58205128205131
 30
0.0
 11
120.63589743589981
 21
191.58205128205131
 31
0.0
  0
LINE
  5
D0
  8
0
 10
119.8974358974378
 20
190.80256410256371
 30
0.0
 11
120.9846153846179
 21
190.80256410256371
 31
0.0
  0
ARC
  5
D1
  8
0
 10
119.8974358974378
 20
191.19230769230751
 30
0.0
 40
0.389743589743795
 50
219.1667107161197
 51
270.0
  0
LINE
  5
D2
  8
0
 10
120.2666666666688
 20
190.0641025641018
 30
0.0
 11
119.8974358974378
 21
190.0641025641018
 31
0.0
  0
LINE
  5
D3
  8
0
 10
120.63589743589981
 20
192.32051282051319
 30
0.0
 11
119.8974358974378
 21
192.32051282051319
 31
0.0
  0
LINE
  5
D4
  8
0
 10
117.8666666666675
 20
192.32051282051319
 30
0.0
 11
117.12820512820559
 21
192.32051282051319
 31
0.0
  0
ARC
  5
D5
  8
0
 10
120.1207954037816
 20
191.11139508458851
 30
0.0
 40
1.435897435898192
 50
176.7696802327068
 51
226.83313873999671
  0
ARC
  5
D6
  8
0
 10
119.99848225536751
 20
191.1134131988014
 30
0.0
 40
2.0512820512831311
 50
177.79579960996611
 51
210.76639186197559
  0
LINE
  5
D7
  8
0
 10
118.6871794871808
 20
191.19230769230751
 30
0.0
 11
118.6871794871808
 21
192.9358974358982
 31
0.0
  0
LINE
  5
D8
  8
0
 10
117.94871794871889
 20
191.19230769230751
 30
0.0
 11
117.94871794871889
 21
192.9358974358982
 31
0.0
  0
LINE
  5
D9
  8
0
 10
117.5794871794879
 20
190.0641025641018
 30
0.0
 11
117.12820512820559
 21
190.0641025641018
 31
0.0
  0
ARC
  5
DA
  8
0
 10
117.12820512820559
 20
191.19230769230751
 30
0.0
 40
0.389743589743795
 50
219.1667107161197
 51
270.0
  0
LINE
  5
DB
  8
0
 10
117.12820512820559
 20
190.80256410256371
 30
0.0
 11
117.94871794871889
 21
190.80256410256371
 31
0.0
  0
LINE
  5
DC
  8
0
 10
117.12820512820559
 20
191.58205128205131
 30
0.0
 11
117.8666666666675
 21
191.58205128205131
 31
0.0
  0
LINE
  5
DD
  8
0
 10
116.826032413074
 20
190.94615384615349
 30
0.0
 11
117.7846153846163
 21
190.94615384615349
 31
0.0
  0
LINE
  5
DE
  8
0
 10
116.826032413074
 20
191.4384615384615
 30
0.0
 11
117.7846153846163
 21
191.4384615384615
 31
0.0
  0
LINE
  5
DF
  8
0
 10
117.7846153846163
 20
190.94615384615349
 30
0.0
 11
117.7846153846163
 21
191.4384615384615
 31
0.0
  0
ARC
  5
E0
  8
0
 10
117.12820512820559
 20
191.19230769230751
 30
0.0
 40
0.389743589743795
 50
89.999999999999986
 51
140.83328928387959
  0
LINE
  5
E1
  8
0
 10
117.8666666666675
 20
191.58205128205131
 30
0.0
 11
117.8666666666675
 21
192.32051282051319
 31
0.0
  0
ARC
  5
E2
  8
0
 10
117.12820512820559
 20
191.19230769230751
 30
0.0
 40
1.1282051282057219
 50
89.999999999999986
 51
270.0
  0
LINE
  5
E3
  8
0
 10
122.8717948717983
 20
192.32051282051319
 30
0.0
 11
122.3794871794904
 21
192.32051282051319
 31
0.0
  0
LINE
  5
E4
  8
0
 10
124.00000000000411
 20
190.0641025641018
 30
0.0
 11
123.17948717949081
 21
190.0641025641018
 31
0.0
  0
LINE
  5
E5
  8
0
 10
117.94871794871889
 20
192.9358974358982
 30
0.0
 11
118.6871794871808
 21
192.9358974358982
 31
0.0
  0
TEXT
  5
E6
  8
0
 10
116.91249999999989
 20
187.5
 30
0.0
 40
1.5
  1
CLAYTON
 41
0.65
  7
06500
 72
     1
 11
119.9999999999999
 21
187.5
 31
0.0
  0
LINE
  5
E7
  8
0
 10
114.7945265183313
 20
199.67899247416301
 30
0.0
 11
141.0344418537486
 21
215.28241655960429
 31
0.0
  0
LINE
  5
E8
  8
0
 10
141.0344418537486
 20
215.28241655960429
 30
0.0
 11
118.0861239311691
 21
195.1484973056632
 31
0.0
  0
CIRCLE
  5
E9
  8
0
 10
119.9999999999999
 20
200.0
 30
0.0
 40
1.0
  0
POLYLINE
  5
EA
  8
0
 66
     1
 10
0.0
 20
0.0
 30
0.0
 70
     1
 40
1.0
 41
1.0
  0
VERTEX
  5
EB
  8
0
 10
119.5
 20
200.0
 30
0.0
 42
1.0
  0
VERTEX
  5
EC
  8
0
 10
120.5
 20
200.0
 30
0.0
 42
1.0
  0
SEQEND
  5
ED
  8
0
  0
LINE
  5
EE
  8
0
 10
118.0861239311691
 20
195.1484973056632
 30
0.0
 11
114.7945265183313
 21
199.67899247416301
 31
0.0
  0
LINE
  5
EF
  8
0
 10
115.7367826121543
 20
203.00416003301601
 30
0.0
 11
119.4398587682341
 21
202.44131423421749
 31
0.0
  0
LINE
  5
F0
  8
0
 10
142.47502218664431
 20
198.94010485903311
 30
0.0
 11
121.0225189321157
 21
197.7247706537226
 31
0.0
  0
LINE
  5
F1
  8
0
 10
115.4729864881803
 20
197.4103767332289
 30
0.0
 11
115.5320970747885
 21
198.66381369518339
 31
0.0
  0
LINE
  5
F2
  8
0
 10
122.99283664487859
 20
199.45344714614399
 30
0.0
 11
120.4050347314961
 21
203.01525091348441
 31
0.0
  0
LINE
  5
F3
  8
0
 10
122.84186086907209
 20
199.32098715105229
 30
0.0
 11
120.2324037095526
 21
202.9125968076591
 31
0.0
  0
LINE
  5
F4
  8
0
 10
119.9733211287497
 20
196.80424724430969
 30
0.0
 11
116.95241429262541
 21
200.96216879697889
 31
0.0
  0
LINE
  5
F5
  8
0
 10
119.8223453529433
 20
196.671787249218
 30
0.0
 11
116.7797832706819
 21
200.85951469115361
 31
0.0
  0
LINE
  5
F6
  8
0
 10
125.3708687104851
 20
201.5398356018791
 30
0.0
 11
142.47502218664431
 21
198.94010485903311
 31
0.0
  0
LINE
  5
F7
  8
0
 10
115.6026332065223
 20
200.15952875642409
 30
0.0
 11
115.7367826121542
 21
203.00416003301601
 31
0.0
  0
LINE
  5
F8
  8
0
 10
116.4044336661311
 20
197.4631453822939
 30
0.0
 11
115.4729864881803
 21
197.4103767332289
 31
0.0
  0
SOLID
  5
F9
  8
0
 10
115.7367826121542
 20
203.00416003301601
 30
0.0
 11
115.6026332065223
 21
200.15952875642409
 31
0.0
 12
119.4398587682341
 22
202.44131423421749
 32
0.0
 13
119.4398587682341
 23
202.44131423421749
 33
0.0
  0
SOLID
  5
FA
  8
0
 10
115.5320970747885
 20
198.66381369518339
 30
0.0
 11
115.4729864881803
 21
197.4103767332289
 31
0.0
 12
116.4044336661311
 22
197.4631453822939
 32
0.0
 13
116.4044336661311
 23
197.4631453822939
 33
0.0
  0
SOLID
  5
FB
  8
0
 10
125.3708687104851
 20
201.5398356018791
 30
0.0
 11
121.0225189321157
 21
197.7247706537226
 31
0.0
 12
142.47502218664431
 22
198.94010485903311
 32
0.0
 13
142.47502218664431
 23
198.94010485903311
 33
0.0
  0
LINE
  5
FC
  8
3
 10
101.7971176265637
 20
186.77483182341939
 30
0.0
 11
95.729490168751653
 21
182.36644243122589
 31
0.0
  0
LINE
  5
FD
  8
0
 10
98.601228383359057
 20
193.0471176265637
 30
0.0
 11
91.468304511145334
 21
190.7294901687516
 31
0.0
  0
LINE
  5
FE
  8
3
 10
97.5
 20
200.0
 30
0.0
 11
90.0
 21
200.0
 31
0.0
  0
LINE
  5
FF
  8
0
 10
98.601228383358972
 20
206.95288237343641
 30
0.0
 11
91.468304511145405
 21
209.27050983124849
 31
0.0
  0
LINE
  5
100
  8
3
 10
101.79711762656351
 20
213.22516817658069
 30
0.0
 11
95.729490168751596
 21
217.63355756877419
 31
0.0
  0
LINE
  5
101
  8
0
 10
106.7748318234194
 20
218.2028823734363
 30
0.0
 11
102.36644243122581
 21
224.27050983124849
 31
0.0
  0
LINE
  5
102
  8
3
 10
113.0471176265637
 20
221.398771616641
 30
0.0
 11
110.7294901687515
 21
228.53169548885481
 31
0.0
  0
LINE
  5
103
  8
0
 10
120.0
 20
222.5
 30
0.0
 11
120.0
 21
230.0
 31
0.0
  0
LINE
  5
104
  8
3
 10
126.9528823734363
 20
221.398771616641
 30
0.0
 11
129.2705098312484
 21
228.5316954888545
 31
0.0
  0
LINE
  5
105
  8
0
 10
133.22516817658069
 20
218.20288237343641
 30
0.0
 11
137.63355756877419
 21
224.2705098312484
 31
0.0
  0
LINE
  5
106
  8
3
 10
141.03444185374849
 20
215.2824165596042
 30
0.0
 11
144.2705098312484
 21
217.63355756877419
 31
0.0
  0
LINE
  5
107
  8
0
 10
141.39877161664089
 20
206.9528823734363
 30
0.0
 11
148.53169548885461
 21
209.27050983124849
 31
0.0
  0
LINE
  5
108
  8
3
 10
142.5
 20
200.0
 30
0.0
 11
150.0
 21
200.0
 31
0.0
  0
LINE
  5
109
  8
0
 10
141.3987716166408
 20
193.0471176265637
 30
0.0
 11
148.53169548885461
 21
190.7294901687516
 31
0.0
  0
LINE
  5
10A
  8
3
 10
138.20288237343641
 20
186.77483182341931
 30
0.0
 11
144.27050983124849
 21
182.36644243122569
 31
0.0
  0
LINE
  5
10B
  8
0
 10
133.22516817658069
 20
181.79711762656359
 30
0.0
 11
137.63355756877411
 21
175.7294901687516
 31
0.0
  0
CIRCLE
  5
10C
  8
0
 10
120.0
 20
200.0
 30
0.0
 40
34.25
  0
CIRCLE
  5
10D
  8
0
 10
120.0
 20
200.0
 30
0.0
 40
30.0
  0
LINE
  5
10E
  8
0
 10
106.77483182341931
 20
181.7971176265637
 30
0.0
 11
102.36644243122581
 21
175.7294901687516
 31
0.0
  0
LINE
  5
10F
  8
3
 10
113.0471176265636
 20
178.601228383359
 30
0.0
 11
110.7294901687515
 21
171.46830451114539
 31
0.0
  0
LINE
  5
110
  8
3
 10
126.9528823734363
 20
178.60122838335911
 30
0.0
 11
129.2705098312484
 21
171.46830451114539
 31
0.0
  0
LINE
  5
111
  8
0
 10
141.75
 20
189.5
 30
0.0
 11
141.75
 21
186.5209800542263
 31
0.0
  0
LINE
  5
112
  8
0
 10
141.25
 20
189.5
 30
0.0
 11
141.25
 21
186.52098005422511
 31
0.0
  0
LINE
  5
113
  8
0
 10
98.250000000000014
 20
189.5
 30
0.0
 11
98.250000000000014
 21
186.52098005422511
 31
0.0
  0
LINE
  5
114
  8
0
 10
98.75
 20
189.5
 30
0.0
 11
98.75
 21
186.5209800542263
 31
0.0
  0
CIRCLE
  5
115
  8
0
 10
98.500000000000014
 20
188.0
 30
0.0
 40
1.5
  0
CIRCLE
  5
116
  8
0
 10
141.5
 20
188.0
 30
0.0
 40
1.5
  0
TEXT
  5
117
  8
0
 10
118.4761904761904
 20
207.55000000000021
 30
0.0
 40
2.0
  1
20
 41
0.8
  7
08000
 72
     1
 11
119.9999999999999
 21
207.55000000000021
 31
0.0
  0
TEXT
  5
118
  8
0
 10
119.1904761904761
 20
209.7500000000002
 30
0.0
 40
2.0
  1
1
 72
     1
 11
119.9999999999999
 21
209.7500000000002
 31
0.0
  0
LINE
  5
119
  8
0
 10
121.5
 20
209.7500000000002
 30
0.0
 11
118.5
 21
209.7500000000002
 31
0.0
  0
TEXT
  5
11A
  8
0
 10
116.9285714285714
 20
179.25
 30
0.0
 40
4.0
  1
10
 41
0.75
  7
07500
 72
     4
 11
120.0
 21
181.25
 31
0.0
  0
TEXT
  5
11B
  8
0
 10
105.9075979480877
 20
213.16906864453011
 30
0.0
 40
4.0
  1
18
 41
0.75
  7
07500
 72
     4
 11
108.9790265195162
 21
215.16906864453011
 31
0.0
  0
TEXT
  5
11C
  8
0
 10
99.096261748037378
 20
203.79406864453031
 30
0.0
 40
4.0
  1
16
 41
0.75
  7
07500
 72
     4
 11
102.1676903194659
 21
205.79406864453031
 31
0.0
  0
TEXT
  5
11D
  8
0
 10
99.024833176608638
 20
192.20593135546969
 30
0.0
 40
4.0
  1
14
 41
0.75
  7
07500
 72
     4
 11
102.16769031946571
 21
194.20593135546969
 31
0.0
  0
TEXT
  5
11E
  8
0
 10
105.9075979480875
 20
182.83093135546969
 30
0.0
 40
4.0
  1
12
 41
0.75
  7
07500
 72
     4
 11
108.979026519516
 21
184.83093135546969
 31
0.0
  0
TEXT
  5
11F
  8
0
 10
129.11621157572171
 20
182.83093135547
 30
0.0
 40
4.0
  1
8
 72
     4
 11
131.0209734804836
 21
184.83093135547
 31
0.0
  0
TEXT
  5
120
  8
0
 10
135.83230968053411
 20
192.20593135546969
 30
0.0
 40
4.0
  1
6
 72
     4
 11
137.83230968053411
 21
194.2059313554698
 31
0.0
  0
TEXT
  5
121
  8
0
 10
135.83230968053431
 20
203.7940686445304
 30
0.0
 40
4.0
  1
4
 72
     4
 11
137.83230968053431
 21
205.7940686445304
 31
0.0
  0
TEXT
  5
122
  8
0
 10
129.11621157572191
 20
213.16906864453031
 30
0.0
 40
4.0
  1
2
 72
     4
 11
131.0209734804838
 21
215.16906864453031
 31
0.0
  0
TEXT
  5
123
  8
0
 10
118.0952380952381
 20
216.75
 30
0.0
 40
4.0
  1
0
 72
     4
 11
120.0
 21
218.75
 31
0.0
  0
LINE
  5
124
  8
0
 10
120.0
 20
177.5
 30
0.0
 11
120.0
 21
170.0
 31
0.0
  0
TEXT
  5
253
  8
0
 62
     3
 10
0.0
 20
0.0
 30
0.0
 40
10.0
  1
PDH100R-1/20
  7
STANDARD1
  0
ENDSEC
  0
EOF
