  0
SECTION
  2
HEADER
  9
$ACADVER
  1
AC1009
  9
$INSBASE
 10
0.0
 20
0.0
 30
0.0
  9
$EXTMIN
 10
0.0
 20
-2.960436562073669
 30
0.0
  9
$EXTMAX
 10
325.41989108406602
 20
279.0
 30
0.0
  9
$LIMMIN
 10
0.0
 20
0.0
  9
$LIMMAX
 10
375.0
 20
270.0
  9
$ORTHOMODE
 70
     1
  9
$REGENMODE
 70
     1
  9
$FILLMODE
 70
     1
  9
$QTEXTMODE
 70
     0
  9
$MIRRTEXT
 70
     0
  9
$DRAGMODE
 70
     2
  9
$LTSCALE
 40
10.0
  9
$OSMODE
 70
    37
  9
$ATTMODE
 70
     1
  9
$TEXTSIZE
 40
2.0
  9
$TRACEWID
 40
0.05
  9
$TEXTSTYLE
  7
K50
  9
$CLAYER
  8
0
  9
$CELTYPE
  6
BYLAYER
  9
$CECOLOR
 62
   256
  9
$DIMSCALE
 40
1.0
  9
$DIMASZ
 40
3.0
  9
$DIMEXO
 40
2.0
  9
$DIMDLI
 40
0.38
  9
$DIMRND
 40
0.0
  9
$DIMDLE
 40
0.0
  9
$DIMEXE
 40
2.0
  9
$DIMTP
 40
0.0
  9
$DIMTM
 40
0.0
  9
$DIMTXT
 40
3.2000000000000002
  9
$DIMCEN
 40
0.0
  9
$DIMTSZ
 40
0.0
  9
$DIMTOL
 70
     0
  9
$DIMLIM
 70
     0
  9
$DIMTIH
 70
     0
  9
$DIMTOH
 70
     0
  9
$DIMSE1
 70
     0
  9
$DIMSE2
 70
     0
  9
$DIMTAD
 70
     1
  9
$DIMZIN
 70
     0
  9
$DIMBLK
  1

  9
$DIMASO
 70
     0
  9
$DIMSHO
 70
     0
  9
$DIMPOST
  1

  9
$DIMAPOST
  1

  9
$DIMALT
 70
     0
  9
$DIMALTD
 70
     2
  9
$DIMALTF
 40
25.399999999999999
  9
$DIMLFAC
 40
1.0
  9
$DIMTOFL
 70
     1
  9
$DIMTVP
 40
1.6000000000000001
  9
$DIMTIX
 70
     1
  9
$DIMSOXD
 70
     0
  9
$DIMSAH
 70
     0
  9
$DIMBLK1
  1

  9
$DIMBLK2
  1

  9
$DIMSTYLE
  2
STANDARD
  9
$DIMCLRD
 70
     0
  9
$DIMCLRE
 70
     0
  9
$DIMCLRT
 70
     0
  9
$DIMTFAC
 40
1.0
  9
$DIMGAP
 40
0.09
  9
$LUNITS
 70
     2
  9
$LUPREC
 70
     1
  9
$SKETCHINC
 40
0.1
  9
$FILLETRAD
 40
1.5
  9
$AUNITS
 70
     0
  9
$AUPREC
 70
     1
  9
$MENU
  1
E:\r13\win\SUPPORT\ACAD
  9
$ELEVATION
 40
0.0
  9
$PELEVATION
 40
0.0
  9
$THICKNESS
 40
0.0
  9
$LIMCHECK
 70
     0
  9
$BLIPMODE
 70
     0
  9
$CHAMFERA
 40
0.0
  9
$CHAMFERB
 40
0.0
  9
$SKPOLY
 70
     0
  9
$TDCREATE
 40
2449839.791701389
  9
$TDUPDATE
 40
2457897.4091087379
  9
$TDINDWG
 40
0.0140052083
  9
$TDUSRTIMER
 40
0.0140052083
  9
$USRTIMER
 70
     1
  9
$ANGBASE
 50
0.0
  9
$ANGDIR
 70
     0
  9
$PDMODE
 70
     0
  9
$PDSIZE
 40
0.0
  9
$PLINEWID
 40
0.0
  9
$COORDS
 70
     1
  9
$SPLFRAME
 70
     0
  9
$SPLINETYPE
 70
     6
  9
$SPLINESEGS
 70
     8
  9
$ATTDIA
 70
     0
  9
$ATTREQ
 70
     1
  9
$HANDLING
 70
     1
  9
$HANDSEED
  5
568
  9
$SURFTAB1
 70
     6
  9
$SURFTAB2
 70
     6
  9
$SURFTYPE
 70
     6
  9
$SURFU
 70
     6
  9
$SURFV
 70
     6
  9
$UCSNAME
  2

  9
$UCSORG
 10
0.0
 20
0.0
 30
0.0
  9
$UCSXDIR
 10
1.0
 20
0.0
 30
0.0
  9
$UCSYDIR
 10
0.0
 20
1.0
 30
0.0
  9
$PUCSNAME
  2

  9
$PUCSORG
 10
0.0
 20
0.0
 30
0.0
  9
$PUCSXDIR
 10
1.0
 20
0.0
 30
0.0
  9
$PUCSYDIR
 10
0.0
 20
1.0
 30
0.0
  9
$USERI1
 70
     0
  9
$USERI2
 70
     1
  9
$USERI3
 70
     0
  9
$USERI4
 70
     0
  9
$USERI5
 70
     0
  9
$USERR1
 40
0.0
  9
$USERR2
 40
0.0
  9
$USERR3
 40
0.0
  9
$USERR4
 40
0.0
  9
$USERR5
 40
0.0
  9
$WORLDVIEW
 70
     1
  9
$SHADEDGE
 70
     3
  9
$SHADEDIF
 70
    70
  9
$TILEMODE
 70
     1
  9
$MAXACTVP
 70
    16
  9
$PLIMCHECK
 70
     0
  9
$PEXTMIN
 10
1.0000000000000000E+020
 20
1.0000000000000000E+020
 30
1.0000000000000000E+020
  9
$PEXTMAX
 10
-1.0000000000000000E+020
 20
-1.0000000000000000E+020
 30
-1.0000000000000000E+020
  9
$PLIMMIN
 10
0.0
 20
0.0
  9
$PLIMMAX
 10
12.0
 20
9.0
  9
$UNITMODE
 70
     0
  9
$VISRETAIN
 70
     0
  9
$PLINEGEN
 70
     0
  9
$PSLTSCALE
 70
     0
  0
ENDSEC
  0
SECTION
  2
TABLES
  0
TABLE
  2
VPORT
 70
     1
  0
VPORT
  2
*ACTIVE
 70
     0
 10
0.0
 20
0.0
 11
1.0
 21
1.0
 12
272.4358974358974
 22
150.0
 13
0.0
 23
0.0
 14
10.0
 24
10.0
 15
10.0
 25
10.0
 16
0.0
 26
0.0
 36
1.0
 17
0.0
 27
0.0
 37
0.0
 40
300.0
 41
1.816239316239316
 42
50.0
 43
0.0
 44
0.0
 50
0.0
 51
0.0
 71
     0
 72
   500
 73
     1
 74
     0
 75
     0
 76
     0
 77
     0
 78
     2
  0
ENDTAB
  0
TABLE
  2
LTYPE
 70
     3
  0
LTYPE
  2
CONTINUOUS
 70
     0
  3
Solid Line
 72
    65
 73
     0
 40
0.0
  0
LTYPE
  2
CENTER
 70
     0
  3
____ _ ____ _ ____ _ ____ _ ____ _ ____ _ ____
 72
    65
 73
     4
 40
2.0
 49
1.25
 49
-0.25
 49
0.25
 49
-0.25
  0
LTYPE
  2
PHANTOM2
 70
     0
  3
___ _ _ ___ _ _ ___ _ _ ___ _ _
 72
    65
 73
     6
 40
1.25
 49
0.625
 49
-0.125
 49
0.125
 49
-0.125
 49
0.125
 49
-0.125
  0
ENDTAB
  0
TABLE
  2
LAYER
 70
     4
  0
LAYER
  2
0
 70
     0
 62
     7
  6
CONTINUOUS
  0
LAYER
  2
1
 70
     0
 62
     1
  6
CENTER
  0
LAYER
  2
3
 70
     0
 62
     3
  6
CONTINUOUS
  0
LAYER
  2
DEFPOINTS
 70
     0
 62
     7
  6
CONTINUOUS
  0
ENDTAB
  0
TABLE
  2
STYLE
 70
     5
  0
STYLE
  2
STANDARD
 70
     0
 40
0.0
 41
1.0
 50
0.0
 71
     0
 42
0.2
  3
romans.shx
  4

  0
STYLE
  2
06500
 70
     0
 40
0.0
 41
1.0
 50
0.0
 71
     0
 42
1.0
  3
romans.shx
  4

  0
STYLE
  2
08000
 70
     0
 40
0.0
 41
1.0
 50
0.0
 71
     0
 42
2.0
  3
romans.shx
  4

  0
STYLE
  2
K50
 70
     0
 40
0.0
 41
1.0
 50
0.0
 71
     0
 42
2.0
  3
romans.shx
  4

  0
STYLE
  2
STANDARD1
 70
     0
 40
0.0
 41
1.0
 50
0.0
 71
     0
 42
3.0
  3
txt
  4

  0
ENDTAB
  0
TABLE
  2
VIEW
 70
     0
  0
ENDTAB
  0
TABLE
  2
UCS
 70
     0
  0
ENDTAB
  0
TABLE
  2
APPID
 70
    14
  0
APPID
  2
ACAD
 70
     0
  0
APPID
  2
ACAD_MLEADERVER
 70
     0
  0
APPID
  2
ACAD_DSTYLE_DIMJAG
 70
     0
  0
APPID
  2
ACAD_DSTYLE_DIMTALN
 70
     0
  0
APPID
  2
ACAD_EXEMPT_FROM_CAD_STANDARDS
 70
     0
  0
APPID
  2
ACAD_NAV_VCDISPLAY
 70
     0
  0
APPID
  2
GENIUS_GENODEF_13
 70
     0
  0
APPID
  2
GENIUS_GENOBJ-N-FIL_13
 70
     0
  0
APPID
  2
GENIUS_GENOREF_13
 70
     0
  0
APPID
  2
ACAD_PSEXT
 70
     0
  0
APPID
  2
ACAD_DSTYLE_DIMRADIAL_EXTENSION
 70
     0
  0
APPID
  2
GRADIENTCOLOR1ACI
 70
     0
  0
APPID
  2
GRADIENTCOLOR2ACI
 70
     0
  0
APPID
  2
ACADANNOMONITORALERTICONDI
 70
     0
  0
ENDTAB
  0
TABLE
  2
DIMSTYLE
 70
     1
  0
DIMSTYLE
  2
STANDARD
 70
     0
  3

  4

  5

  6

  7

 40
1.0
 41
0.18
 42
0.0625
 43
0.38
 44
0.18
 45
0.0
 46
0.0
 47
0.0
 48
0.0
140
0.18
141
0.09
142
0.0
143
25.399999999999999
144
1.0
145
0.0
146
1.0
147
0.09
 71
     0
 72
     0
 73
     1
 74
     1
 75
     0
 76
     0
 77
     0
 78
     0
170
     0
171
     2
172
     0
173
     0
174
     0
175
     0
176
     0
177
     0
178
     0
  0
ENDTAB
  0
ENDSEC
  0
SECTION
  2
BLOCKS
  0
BLOCK
  8
0
  2
$MODEL_SPACE
 70
     0
 10
0.0
 20
0.0
 30
0.0
  3
$MODEL_SPACE
  1

  0
ENDBLK
  5
185
  8
0
  0
BLOCK
 67
     1
  8
0
  2
$PAPER_SPACE
 70
     0
 10
0.0
 20
0.0
 30
0.0
  3
$PAPER_SPACE
  1

  0
ENDBLK
  5
183
 67
     1
  8
0
  0
BLOCK
  8
0
  2
*U0
 70
     1
 10
0.0
 20
0.0
 30
0.0
  3
*U0
  1

  0
SOLID
  5
54F
  8
0
  6
CONTINUOUS
 10
140.04764679423829
 20
230.21478624413979
 30
0.0
 11
120.7892849251436
 21
222.80000000000001
 31
0.0
 12
128.60474099410459
 22
222.80000000000001
 32
0.0
 13
128.60474099410459
 23
222.80000000000001
 33
0.0
210
0.0
220
0.0
230
1.0
  0
SOLID
  5
550
  8
0
  6
CONTINUOUS
 10
-119.7366983380228
 20
222.39473684210529
 30
0.0
 11
-120.0
 21
222.39473684210529
 31
0.0
 12
-119.6539037251143
 22
222.36285955362891
 32
0.0
 13
-119.6539037251143
 23
222.36285955362891
 33
0.0
210
0.0
220
0.0
230
-1.0
  0
SOLID
  5
551
  8
0
  6
CONTINUOUS
 10
120.7892849251436
 20
222.80000000000001
 30
0.0
 11
119.7366983380228
 21
222.39473684210529
 31
0.0
 12
120.0
 22
222.39473684210529
 32
0.0
 13
120.0
 23
222.39473684210529
 33
0.0
210
0.0
220
0.0
230
1.0
  0
SOLID
  5
552
  8
0
  6
CONTINUOUS
 10
-120.7892849251436
 20
222.80000000000001
 30
0.0
 11
-124.40000000000001
 21
222.80000000000001
 31
0.0
 12
-120.0
 22
222.39473684210529
 32
0.0
 13
-120.0
 23
222.39473684210529
 33
0.0
210
0.0
220
0.0
230
-1.0
  0
SOLID
  5
553
  8
0
  6
CONTINUOUS
 10
-124.40000000000001
 20
222.36285955362891
 30
0.0
 11
-127.93012182309261
 21
222.36285955362891
 31
0.0
 12
-124.40000000000001
 22
220.07540746836409
 32
0.0
 13
-124.40000000000001
 23
220.07540746836409
 33
0.0
210
0.0
220
0.0
230
-1.0
  0
SOLID
  5
554
  8
0
  6
CONTINUOUS
 10
124.40000000000001
 20
222.80000000000001
 30
0.0
 11
124.40000000000001
 21
222.36285955362891
 31
0.0
 12
127.93012182309261
 22
222.36285955362891
 32
0.0
 13
127.93012182309261
 23
222.36285955362891
 33
0.0
210
0.0
220
0.0
230
1.0
  0
SOLID
  5
555
  8
0
  6
CONTINUOUS
 10
-124.40000000000001
 20
222.80000000000001
 30
0.0
 11
-128.60474099410459
 21
222.80000000000001
 31
0.0
 12
-127.93012182309261
 22
222.36285955362891
 32
0.0
 13
-127.93012182309261
 23
222.36285955362891
 33
0.0
210
0.0
220
0.0
230
-1.0
  0
SOLID
  5
556
  8
0
  6
CONTINUOUS
 10
116.0988636883407
 20
217.96457834449501
 30
0.0
 11
116.30610194475
 21
217.5578503653235
 31
0.0
 12
120.5147674622019
 22
217.5578503653235
 32
0.0
 13
120.5147674622019
 23
217.5578503653235
 33
0.0
210
0.0
220
0.0
230
1.0
  0
SOLID
  5
557
  8
0
  6
CONTINUOUS
 10
-116.30610194475
 20
217.5578503653235
 30
0.0
 11
-120.5147674622019
 21
217.5578503653235
 31
0.0
 12
-117.3507446928419
 22
215.50762353341861
 32
0.0
 13
-117.3507446928419
 23
215.50762353341861
 33
0.0
210
0.0
220
0.0
230
-1.0
  0
LINE
  5
558
  8
0
  6
CONTINUOUS
 10
140.04764679423829
 20
230.21478624413979
 30
0.0
 11
120.7892849251436
 21
222.80000000000001
 31
0.0
  0
LINE
  5
559
  8
0
  6
CONTINUOUS
 10
128.60474099410459
 20
222.80000000000001
 30
0.0
 11
140.04764679423829
 21
230.21478624413979
 31
0.0
  0
LINE
  5
55A
  8
0
  6
CONTINUOUS
 10
120.0
 20
222.39473684210529
 30
0.0
 11
119.6539037251143
 21
222.36285955362891
 31
0.0
  0
LINE
  5
55B
  8
0
  6
CONTINUOUS
 10
119.6539037251143
 20
222.36285955362891
 30
0.0
 11
119.7366983380228
 21
222.39473684210529
 31
0.0
  0
LINE
  5
55C
  8
0
  6
CONTINUOUS
 10
120.7892849251436
 20
222.80000000000001
 30
0.0
 11
119.7366983380228
 21
222.39473684210529
 31
0.0
  0
LINE
  5
55D
  8
0
  6
CONTINUOUS
 10
124.40000000000001
 20
222.80000000000001
 30
0.0
 11
120.0
 21
222.39473684210529
 31
0.0
  0
LINE
  5
55E
  8
0
  6
CONTINUOUS
 10
127.93012182309261
 20
222.36285955362891
 30
0.0
 11
124.40000000000001
 21
220.07540746836409
 31
0.0
  0
LINE
  5
55F
  8
0
  6
CONTINUOUS
 10
124.40000000000001
 20
220.07540746836409
 30
0.0
 11
124.40000000000001
 21
222.36285955362891
 31
0.0
  0
LINE
  5
560
  8
0
  6
CONTINUOUS
 10
124.40000000000001
 20
222.80000000000001
 30
0.0
 11
124.40000000000001
 21
222.36285955362891
 31
0.0
  0
LINE
  5
561
  8
0
  6
CONTINUOUS
 10
128.60474099410459
 20
222.80000000000001
 30
0.0
 11
127.93012182309261
 21
222.36285955362891
 31
0.0
  0
LINE
  5
562
  8
0
  6
CONTINUOUS
 10
116.0988636883407
 20
217.96457834449501
 30
0.0
 11
116.30610194475
 21
217.5578503653235
 31
0.0
  0
LINE
  5
563
  8
0
  6
CONTINUOUS
 10
120.5147674622019
 20
217.5578503653235
 30
0.0
 11
116.0988636883407
 21
217.96457834449501
 31
0.0
  0
LINE
  5
564
  8
0
  6
CONTINUOUS
 10
120.5147674622019
 20
217.5578503653235
 30
0.0
 11
117.3507446928419
 21
215.50762353341861
 31
0.0
  0
LINE
  5
565
  8
0
  6
CONTINUOUS
 10
117.3507446928419
 20
215.50762353341861
 30
0.0
 11
116.30610194475
 21
217.5578503653235
 31
0.0
  0
ENDBLK
  5
567
  8
0
  0
ENDSEC
  0
SECTION
  2
ENTITIES
  0
LINE
  5
35
  8
0
 10
159.5
 20
52.380108915933889
 30
0.0
 11
80.500000000000085
 21
52.380108915933903
 31
0.0
  0
LINE
  5
36
  8
0
 10
81.999999999999972
 20
50.880108915934017
 30
0.0
 11
80.499999999999972
 21
52.380108915934009
 31
0.0
  0
LINE
  5
37
  8
0
 10
159.5
 20
52.380108915933938
 30
0.0
 11
158.0
 21
50.880108915933953
 31
0.0
  0
LINE
  5
38
  8
0
 10
67.499999999999972
 20
75.580108915934005
 30
0.0
 11
172.49999999999989
 21
75.580108915933991
 31
0.0
  0
LINE
  5
39
  8
0
 10
134.99999999999989
 20
30.580108915934112
 30
0.0
 11
105.0
 21
30.580108915934119
 31
0.0
  0
LINE
  5
3A
  8
0
 10
174.0
 20
77.080108915933991
 30
0.0
 11
65.999999999999972
 21
77.080108915934005
 31
0.0
  0
LINE
  5
3B
  8
0
 10
174.0
 20
88.080108915933991
 30
0.0
 11
66.000000000000014
 21
88.080108915934005
 31
0.0
  0
ARC
  5
3C
  8
0
 10
161.5
 20
73.580108915933991
 30
0.0
 40
2.0
 50
89.999999999999986
 51
180.0
  0
ARC
  5
3D
  8
0
 10
78.5
 20
73.580108915934005
 30
0.0
 40
2.0
 50
0.0
 51
89.999999999999915
  0
ARC
  5
3E
  8
0
 10
145.0
 20
48.880108915933832
 30
0.0
 40
2.0
 50
90.000000000000185
 51
180.0
  0
ARC
  5
3F
  8
0
 10
94.999999999999986
 20
48.880108915933903
 30
0.0
 40
2.0
 50
359.99999999999977
 51
89.99999999999973
  0
ARC
  5
40
  8
0
 10
98.999999999999986
 20
43.480108915933982
 30
0.0
 40
2.0
 50
180.0
 51
270.0
  0
ARC
  5
41
  8
0
 10
140.99999999999989
 20
43.480108915933961
 30
0.0
 40
2.0
 50
270.0
 51
0.0
  0
LINE
  5
42
  8
0
 10
106.0
 20
29.580108915934058
 30
0.0
 11
105.0
 21
30.580108915934058
 31
0.0
  0
LINE
  5
43
  8
0
 10
134.99999999999989
 20
30.580108915934058
 30
0.0
 11
133.99999999999989
 21
29.580108915934058
 31
0.0
  0
LINE
  5
44
  8
0
 10
67.500000000000014
 20
89.580108915934005
 30
0.0
 11
66.000000000000014
 21
88.080108915934005
 31
0.0
  0
LINE
  5
45
  8
0
 10
67.499999999999972
 20
75.580108915934005
 30
0.0
 11
65.999999999999972
 21
77.080108915934005
 31
0.0
  0
LINE
  5
46
  8
0
 10
174.0
 20
77.080108915933991
 30
0.0
 11
172.49999999999989
 21
75.580108915933991
 31
0.0
  0
LINE
  5
47
  8
0
 10
174.0
 20
88.080108915933991
 30
0.0
 11
172.49999999999989
 21
89.580108915933991
 31
0.0
  0
LINE
  5
48
  8
0
 10
158.0
 20
50.880108915933953
 30
0.0
 11
82.000000000000014
 21
50.88010891593396
 31
0.0
  0
LINE
  5
49
  8
0
 10
80.5
 20
73.580108915934005
 30
0.0
 11
80.499999999999972
 21
52.380108915934009
 31
0.0
  0
LINE
  5
4A
  8
0
 10
159.49999999999989
 20
73.580108915933991
 30
0.0
 11
159.5
 21
52.380108915933938
 31
0.0
  0
LINE
  5
4B
  8
0
 10
96.999999999999972
 20
48.880108915933903
 30
0.0
 11
96.999999999999972
 21
43.480108915933982
 31
0.0
  0
LINE
  5
4C
  8
0
 10
142.99999999999989
 20
48.880108915933832
 30
0.0
 11
142.99999999999989
 21
43.480108915933961
 31
0.0
  0
LINE
  5
4D
  8
0
 10
105.0
 20
41.480108915933982
 30
0.0
 11
105.0
 21
30.580108915934058
 31
0.0
  0
LINE
  5
4E
  8
0
 10
134.99999999999989
 20
41.480108915933961
 30
0.0
 11
134.99999999999989
 21
30.580108915934058
 31
0.0
  0
LINE
  5
4F
  8
0
 10
140.99999999999989
 20
41.480108915933961
 30
0.0
 11
98.999996696375234
 21
41.480108915933982
 31
0.0
  0
LINE
  5
50
  8
1
 10
119.9999999999999
 20
144.58010891593389
 30
0.0
 11
119.9999999999999
 21
24.580108915934002
 31
0.0
  0
LINE
  5
51
  8
0
 10
65.999999999999972
 20
77.080108915934005
 30
0.0
 11
66.000000000000014
 21
88.080108915934005
 31
0.0
  0
LINE
  5
52
  8
0
 10
133.99999999999989
 20
29.580108915934058
 30
0.0
 11
106.0
 21
29.580108915934058
 31
0.0
  0
LINE
  5
53
  8
0
 10
174.0
 20
88.080108915933991
 30
0.0
 11
174.0
 21
77.080108915933991
 31
0.0
  0
LINE
  5
54
  8
0
 10
67.500000000000014
 20
89.580108915934005
 30
0.0
 11
172.5
 21
89.580108915933991
 31
0.0
  0
CIRCLE
  5
55
  8
0
 10
120.0
 20
265.0
 30
0.0
 40
10.5
  0
LINE
  5
56
  8
1
 10
135.5000000000002
 20
265.0
 30
0.0
 11
104.5000000000001
 21
265.0
 31
0.0
  0
ARC
  5
57
  8
0
 10
120.0
 20
220.0
 30
0.0
 40
36.25
 50
98.240834062214574
 51
81.759165937785411
  0
ARC
  5
58
  8
0
 10
120.0
 20
220.0
 30
0.0
 40
52.5
 50
98.670578746781828
 51
81.329421253218158
  0
ARC
  5
59
  8
0
 10
120.0
 20
220.0
 30
0.0
 40
54.0
 50
96.289273613179887
 51
83.710726386820113
  0
LINE
  5
D7
  8
1
 10
120.0
 20
279.0
 30
0.0
 11
120.0
 21
161.0
 31
0.0
  0
LINE
  5
D8
  8
1
 10
179.0
 20
220.0
 30
0.0
 11
61.0
 21
220.0
 31
0.0
  0
LINE
  5
D9
  8
0
 10
115.0
 20
89.880108915933718
 30
0.0
 11
127.59007001182221
 21
89.880108915933718
 31
0.0
  0
LINE
  5
DA
  8
0
 10
125.0
 20
89.580108915933991
 30
0.0
 11
125.0
 21
89.880108915933718
 31
0.0
  0
LINE
  5
DB
  8
0
 10
111.0352361151369
 20
138.14970848143449
 30
0.0
 11
128.96476388486309
 21
138.14970848143449
 31
0.0
  0
LINE
  5
DC
  8
0
 10
109.5
 20
111.0378989027449
 30
0.0
 11
130.5
 21
111.0378989027449
 31
0.0
  0
LINE
  5
DD
  8
0
 10
109.5
 20
137.03008526980531
 30
0.0
 11
109.5
 21
111.0378989027451
 31
0.0
  0
LINE
  5
DE
  8
0
 10
115.0
 20
89.580108915933991
 30
0.0
 11
115.0
 21
89.880108915933718
 31
0.0
  0
LINE
  5
DF
  8
0
 10
115.0
 20
89.880108915933718
 30
0.0
 11
112.4099280808291
 21
89.880108915933718
 31
0.0
  0
LINE
  5
E0
  8
0
 10
111.4143682022754
 20
90.785998712158815
 30
0.0
 11
109.5
 21
111.0378989027451
 31
0.0
  0
ARC
  5
E1
  8
0
 10
120.0
 20
89.580108915933991
 30
0.0
 40
50.0
 50
79.551762668042741
 51
100.4482373319574
  0
ARC
  5
E2
  8
0
 10
112.40992998817769
 20
90.880108915933945
 30
0.0
 40
1.0
 50
185.40000000000001
 51
270.0
  0
ARC
  5
E3
  8
0
 10
111.25
 20
137.030082572407
 30
0.0
 40
1.75
 50
100.4482373319572
 51
180.0
  0
ARC
  5
E4
  8
0
 10
128.75
 20
137.030082572407
 30
0.0
 40
1.75
 50
0.0
 51
79.551762668042855
  0
ARC
  5
E5
  8
0
 10
127.59007001182221
 20
90.880108915933945
 30
0.0
 40
1.0
 50
270.00000000000011
 51
354.60000000000002
  0
LINE
  5
E6
  8
0
 10
128.58563197642539
 20
90.786000602615175
 30
0.0
 11
130.49999999999989
 21
111.0378989027451
 31
0.0
  0
LINE
  5
E7
  8
0
 10
130.5
 20
137.030082572407
 30
0.0
 11
130.49999999999989
 21
111.0378989027451
 31
0.0
  0
LINE
  5
EF
  8
0
 10
212.96991742759289
 20
275.5
 30
0.0
 11
238.9621010972549
 21
275.5
 31
0.0
  0
LINE
  5
F0
  8
0
 10
259.21399939738478
 20
273.58563197642542
 30
0.0
 11
238.9621010972549
 21
275.5
 31
0.0
  0
ARC
  5
F1
  8
0
 10
259.11989108406601
 20
272.59007001182232
 30
0.0
 40
1.0
 50
0.0
 51
84.599999999999994
  0
ARC
  5
F2
  8
0
 10
212.96991742759289
 20
273.75
 30
0.0
 40
1.75
 50
90.000000000000028
 51
169.5517626680429
  0
ARC
  5
F3
  8
0
 10
212.96991742759289
 20
256.25
 30
0.0
 40
1.75
 50
190.44823733195719
 51
270.00000000000011
  0
ARC
  5
F4
  8
0
 10
259.11989108406601
 20
257.40992998817768
 30
0.0
 40
1.0
 50
275.40000000000009
 51
0.0
  0
ARC
  5
F5
  8
0
 10
260.41989108406602
 20
265.0
 30
0.0
 40
50.0
 50
169.5517626680427
 51
190.44823733195739
  0
LINE
  5
F6
  8
0
 10
259.21400128784109
 20
256.41436820227551
 30
0.0
 11
238.9621010972549
 21
254.50000000000011
 31
0.0
  0
LINE
  5
F7
  8
0
 10
260.1198910840663
 20
260.0
 30
0.0
 11
260.1198910840663
 21
257.4099280808291
 31
0.0
  0
LINE
  5
F8
  8
0
 10
260.41989108406602
 20
260.0
 30
0.0
 11
260.1198910840663
 21
260.0
 31
0.0
  0
LINE
  5
F9
  8
0
 10
212.9699147301946
 20
254.50000000000011
 30
0.0
 11
238.9621010972549
 21
254.50000000000011
 31
0.0
  0
LINE
  5
FA
  8
0
 10
238.96210109725499
 20
254.50000000000011
 30
0.0
 11
238.96210109725499
 21
275.5
 31
0.0
  0
LINE
  5
FB
  8
0
 10
211.8502915185654
 20
256.03523611513702
 30
0.0
 11
211.8502915185654
 21
273.96476388486309
 31
0.0
  0
LINE
  5
FC
  8
0
 10
260.41989108406602
 20
270.0
 30
0.0
 11
260.1198910840663
 21
270.0
 31
0.0
  0
LINE
  5
FD
  8
0
 10
260.1198910840663
 20
260.0
 30
0.0
 11
260.1198910840663
 21
272.59007001182232
 31
0.0
  0
LINE
  5
FE
  8
0
 10
260.41989108406602
 20
167.5
 30
0.0
 11
260.41989108406602
 21
272.5
 31
0.0
  0
LINE
  5
FF
  8
0
 10
261.91989108406602
 20
274.0
 30
0.0
 11
272.91989108406602
 21
274.0
 31
0.0
  0
LINE
  5
100
  8
0
 10
320.41989108406591
 20
234.0
 30
0.0
 11
320.41989108406591
 21
206.0
 31
0.0
  0
LINE
  5
101
  8
0
 10
272.91989108406602
 20
166.0
 30
0.0
 11
261.91989108406602
 21
166.0
 31
0.0
  0
LINE
  5
102
  8
1
 10
255.41989108406599
 20
220.0
 30
0.0
 11
325.41989108406602
 21
220.0
 31
0.0
  0
LINE
  5
103
  8
0
 10
308.51989108406599
 20
241.0
 30
0.0
 11
308.51989108406599
 21
198.99999669637521
 31
0.0
  0
LINE
  5
104
  8
0
 10
308.51989108406599
 20
235.0
 30
0.0
 11
319.41989108406591
 21
235.0
 31
0.0
  0
LINE
  5
105
  8
0
 10
308.51989108406599
 20
205.0
 30
0.0
 11
319.41989108406591
 21
205.0
 31
0.0
  0
LINE
  5
106
  8
0
 10
301.11989108406613
 20
243.0
 30
0.0
 11
306.51989108406599
 21
243.0
 31
0.0
  0
LINE
  5
107
  8
0
 10
301.11989108406613
 20
197.0
 30
0.0
 11
306.51989108406599
 21
197.0
 31
0.0
  0
LINE
  5
108
  8
0
 10
276.41989108406602
 20
259.5
 30
0.0
 11
297.61989108406601
 21
259.5
 31
0.0
  0
LINE
  5
109
  8
0
 10
276.41989108406602
 20
180.5
 30
0.0
 11
297.6198910840659
 21
180.5
 31
0.0
  0
LINE
  5
10A
  8
0
 10
299.11989108406601
 20
258.0
 30
0.0
 11
299.11989108406601
 21
182.0
 31
0.0
  0
LINE
  5
10B
  8
0
 10
261.91989108406602
 20
274.0
 30
0.0
 11
260.41989108406602
 21
272.5
 31
0.0
  0
LINE
  5
10C
  8
0
 10
272.91989108406602
 20
274.0
 30
0.0
 11
274.41989108406602
 21
272.5
 31
0.0
  0
LINE
  5
10D
  8
0
 10
274.41989108406602
 20
167.5
 30
0.0
 11
272.91989108406602
 21
166.0
 31
0.0
  0
LINE
  5
10E
  8
0
 10
260.41989108406602
 20
167.5
 30
0.0
 11
261.91989108406602
 21
166.0
 31
0.0
  0
LINE
  5
10F
  8
0
 10
319.41989108406591
 20
235.0
 30
0.0
 11
320.41989108406591
 21
234.0
 31
0.0
  0
LINE
  5
110
  8
0
 10
320.41989108406591
 20
206.0
 30
0.0
 11
319.41989108406591
 21
205.0
 31
0.0
  0
ARC
  5
111
  8
0
 10
306.51989108406599
 20
241.0
 30
0.0
 40
2.0
 50
0.0
 51
90.0
  0
ARC
  5
112
  8
0
 10
306.51989108406599
 20
199.0
 30
0.0
 40
2.0
 50
270.0
 51
0.0
  0
ARC
  5
113
  8
0
 10
301.11989108406613
 20
195.0
 30
0.0
 40
2.0
 50
89.999999999999886
 51
179.9999999999998
  0
ARC
  5
114
  8
0
 10
301.11989108406613
 20
245.0
 30
0.0
 40
2.0
 50
180.0000000000002
 51
269.99999999999989
  0
ARC
  5
115
  8
0
 10
276.41989108406602
 20
178.5
 30
0.0
 40
2.0
 50
89.999999999999957
 51
180.0
  0
ARC
  5
116
  8
0
 10
276.41989108406602
 20
261.5
 30
0.0
 40
2.0
 50
180.0
 51
269.99999999999989
  0
LINE
  5
117
  8
0
 10
261.91989108406602
 20
274.0
 30
0.0
 11
261.91989108406602
 21
166.0
 31
0.0
  0
LINE
  5
118
  8
0
 10
272.91989108406602
 20
274.0
 30
0.0
 11
272.91989108406602
 21
166.0
 31
0.0
  0
LINE
  5
119
  8
0
 10
319.4198910840658
 20
235.0
 30
0.0
 11
319.4198910840658
 21
205.0
 31
0.0
  0
LINE
  5
11A
  8
0
 10
274.41989108406602
 20
167.5
 30
0.0
 11
274.41989108406602
 21
272.5
 31
0.0
  0
LINE
  5
11B
  8
1
 10
286.1198910840659
 20
178.0
 30
0.0
 11
286.11989108406601
 21
189.0
 31
0.0
  0
LINE
  5
11C
  8
0
 10
297.61989108406601
 20
259.5
 30
0.0
 11
299.11989108406601
 21
258.0
 31
0.0
  0
LINE
  5
11D
  8
0
 10
299.11989108406601
 20
182.0
 30
0.0
 11
297.6198910840659
 21
180.5
 31
0.0
  0
LINE
  5
11E
  8
0
 10
297.61989108406613
 20
259.5
 30
0.0
 11
297.61989108406613
 21
180.50000000000011
 31
0.0
  0
LINE
  5
11F
  8
1
 10
278.41989108406591
 20
265.0
 30
0.0
 11
205.41989108406591
 21
265.0
 31
0.0
  0
LINE
  5
120
  8
1
 10
115.4999999999999
 20
63.880108915934017
 30
0.0
 11
124.4999999999999
 21
63.880108915934017
 31
0.0
  0
CIRCLE
  5
121
  8
3
 10
119.9999999999999
 20
63.880108915934038
 30
0.0
 40
1.6209999999999991
  0
CIRCLE
  5
122
  8
0
 10
119.9999999999999
 20
63.880108915934038
 30
0.0
 40
2.0
  0
LINE
  5
123
  8
0
 10
118.0226280066714
 20
64.180108915934014
 30
0.0
 11
121.9773719933284
 21
64.180108915934014
 31
0.0
  0
LINE
  5
124
  8
0
 10
118.0226280066714
 20
63.580108915934012
 30
0.0
 11
121.9773719933284
 21
63.580108915934012
 31
0.0
  0
TEXT
  5
254
  8
0
 62
     3
 10
0.0
 20
0.0
 30
0.0
 40
10.0
  1
PDH100R-1/10
  7
STANDARD1
  0
INSERT
  5
431
  8
0
  6
CONTINUOUS
  2
*U0
 10
0.0
 20
0.0
 30
0.0
1001
GRADIENTCOLOR1ACI
1070
     5
1001
GRADIENTCOLOR2ACI
1070
     2
1001
ACAD
1002
{
1000
R14_HATCH_DATA
1000
431
1011
1.0
1021
0.0
1031
0.0
1021
0.0
1031
0.0
1011
0.0
1021
0.0
1031
0.0
1021
1.0
1031
0.0
1011
0.0
1021
0.0
1031
0.0
1021
0.0
1031
1.0
1040
0.0
1010
0.0
1020
0.0
1030
1.0
1000
SOLID
1070
     1
1070
     0
1071
        2
1071
        1
1071
        5
1070
     1
1040
140.04764679423829
1040
230.21478624413979
1040
119.6539037251143
1040
222.36285955362899
1070
     1
1040
119.6539037251143
1040
222.36285955362891
1040
120.0
1040
222.3947368421052
1070
     1
1040
120.0
1040
222.39473684210529
1040
124.40000000000001
1040
222.80000000000001
1070
     1
1040
124.40000000000001
1040
222.80000000000001
1040
124.40000000000001
1040
220.07540746836409
1070
     1
1040
124.40000000000001
1040
220.07540746836409
1040
140.04764679423829
1040
230.21478624413979
1071
        0
1071
        1
1071
        3
1070
     1
1040
120.5147674622019
1040
217.5578503653235
1040
116.0988636883407
1040
217.9645783444949
1070
     1
1040
116.0988636883407
1040
217.96457834449501
1040
117.3507446928419
1040
215.50762353341869
1070
     1
1040
117.3507446928419
1040
215.50762353341861
1040
120.5147674622019
1040
217.5578503653235
1071
        0
1070
     1
1070
     1
1071
        2
1040
126.5592717073343
1040
223.43993908490279
1040
0.0
1040
118.2465569746898
1040
217.0164986264985
1040
0.0
1002
}
  0
LINE
  5
432
  8
0
 10
120.5147674622019
 20
217.5578503653235
 30
0.0
 11
117.3507446928419
 21
215.50762353341861
 31
0.0
  0
LINE
  5
433
  8
0
 10
119.6539037251142
 20
222.36285955362891
 30
0.0
 11
140.04764679423829
 21
230.21478624413979
 31
0.0
  0
LINE
  5
434
  8
0
 10
122.09999999999989
 20
222.5881578947369
 30
0.0
 11
122.09999999999989
 21
217.4118421052631
 31
0.0
  0
LINE
  5
435
  8
0
 10
121.90000000000001
 20
222.5697368421053
 30
0.0
 11
121.90000000000001
 21
217.4302631578947
 31
0.0
  0
LINE
  5
436
  8
0
 10
118.09999999999999
 20
222.21973684210531
 30
0.0
 11
118.09999999999989
 21
217.78026315789469
 31
0.0
  0
LINE
  5
437
  8
0
 10
117.90000000000001
 20
222.2013157894738
 30
0.0
 11
117.90000000000001
 21
217.79868421052629
 31
0.0
  0
LINE
  5
438
  8
0
 10
117.3507446928419
 20
215.50762353341861
 30
0.0
 11
116.0988636883407
 21
217.96457834449501
 31
0.0
  0
LINE
  5
439
  8
0
 10
140.04764679423829
 20
230.21478624413979
 30
0.0
 11
124.40000000000001
 21
220.07540746836409
 31
0.0
  0
LINE
  5
43A
  8
0
 10
93.999999999999957
 20
220.0
 30
0.0
 11
124.40000000000001
 21
222.80000000000001
 31
0.0
  0
LINE
  5
43B
  8
0
 10
124.40000000000001
 20
217.19999999999999
 30
0.0
 11
93.999999999999957
 21
220.0
 31
0.0
  0
LINE
  5
43C
  8
0
 10
124.40000000000001
 20
222.80000000000001
 30
0.0
 11
124.40000000000001
 21
217.19999999999999
 31
0.0
  0
CIRCLE
  5
43D
  8
0
 10
120.0
 20
220.0
 30
0.0
 40
30.0
  0
CIRCLE
  5
43E
  8
0
 10
120.0
 20
220.0
 30
0.0
 40
34.25
  0
POLYLINE
  5
43F
  8
0
 66
     1
 10
0.0
 20
0.0
 30
0.0
 70
     1
 40
1.0
 41
1.0
  0
VERTEX
  5
440
  8
0
 10
120.40450849718751
 20
219.7061073738538
 30
0.0
 42
1.0
  0
VERTEX
  5
441
  8
0
 10
119.59549150281249
 20
220.2938926261462
 30
0.0
 42
1.0
  0
SEQEND
  5
442
  8
0
  0
CIRCLE
  5
443
  8
0
 10
120.0
 20
220.0
 30
0.0
 40
1.0
  0
LINE
  5
444
  8
0
 10
141.75
 20
209.5
 30
0.0
 11
141.75
 21
206.5209800542263
 31
0.0
  0
LINE
  5
445
  8
0
 10
141.25
 20
209.5
 30
0.0
 11
141.25
 21
206.52098005422511
 31
0.0
  0
LINE
  5
446
  8
0
 10
98.250000000000014
 20
209.5
 30
0.0
 11
98.250000000000014
 21
206.52098005422511
 31
0.0
  0
LINE
  5
447
  8
0
 10
98.75
 20
209.5
 30
0.0
 11
98.75
 21
206.5209800542263
 31
0.0
  0
CIRCLE
  5
448
  8
0
 10
98.500000000000014
 20
208.0
 30
0.0
 40
1.5
  0
CIRCLE
  5
449
  8
0
 10
141.5
 20
208.0
 30
0.0
 40
1.5
  0
TEXT
  5
44A
  8
0
 10
116.91249999999989
 20
207.5
 30
0.0
 40
1.5
  1
CLAYTON
 41
0.65
  7
06500
 72
     1
 11
119.9999999999999
 21
207.5
 31
0.0
  0
TEXT
  5
44B
  8
0
 10
118.3619047619047
 20
227.55000000000021
 30
0.0
 40
2.0
  1
10
 41
0.8
  7
08000
 72
     1
 11
119.9999999999999
 21
227.55000000000021
 31
0.0
  0
TEXT
  5
44C
  8
0
 10
119.1904761904761
 20
229.7500000000002
 30
0.0
 40
2.0
  1
1
 72
     1
 11
119.9999999999999
 21
229.7500000000002
 31
0.0
  0
LINE
  5
44D
  8
0
 10
121.5
 20
229.7500000000002
 30
0.0
 11
118.5
 21
229.7500000000002
 31
0.0
  0
LINE
  5
44E
  8
0
 10
117.94871794871889
 20
212.93589743589811
 30
0.0
 11
118.6871794871808
 21
212.93589743589811
 31
0.0
  0
LINE
  5
44F
  8
0
 10
124.00000000000411
 20
210.0641025641018
 30
0.0
 11
123.17948717949081
 21
210.0641025641018
 31
0.0
  0
LINE
  5
450
  8
0
 10
122.8717948717983
 20
212.32051282051319
 30
0.0
 11
122.3794871794904
 21
212.32051282051319
 31
0.0
  0
ARC
  5
451
  8
0
 10
117.12820512820559
 20
211.19230769230751
 30
0.0
 40
1.1282051282057219
 50
90.0
 51
270.0
  0
LINE
  5
452
  8
0
 10
117.8666666666675
 20
211.58205128205131
 30
0.0
 11
117.8666666666675
 21
212.32051282051319
 31
0.0
  0
ARC
  5
453
  8
0
 10
117.12820512820559
 20
211.19230769230751
 30
0.0
 40
0.389743589743795
 50
90.0
 51
140.8332892838786
  0
LINE
  5
454
  8
0
 10
117.7846153846163
 20
210.94615384615349
 30
0.0
 11
117.7846153846163
 21
211.4384615384615
 31
0.0
  0
LINE
  5
455
  8
0
 10
116.826032413074
 20
211.4384615384615
 30
0.0
 11
117.7846153846163
 21
211.4384615384615
 31
0.0
  0
LINE
  5
456
  8
0
 10
116.826032413074
 20
210.94615384615349
 30
0.0
 11
117.7846153846163
 21
210.94615384615349
 31
0.0
  0
LINE
  5
457
  8
0
 10
117.12820512820559
 20
211.58205128205131
 30
0.0
 11
117.8666666666675
 21
211.58205128205131
 31
0.0
  0
LINE
  5
458
  8
0
 10
117.12820512820559
 20
210.80256410256371
 30
0.0
 11
117.94871794871889
 21
210.80256410256371
 31
0.0
  0
ARC
  5
459
  8
0
 10
117.12820512820559
 20
211.19230769230751
 30
0.0
 40
0.389743589743795
 50
219.1667107161212
 51
270.0
  0
LINE
  5
45A
  8
0
 10
117.5794871794879
 20
210.0641025641018
 30
0.0
 11
117.12820512820559
 21
210.0641025641018
 31
0.0
  0
LINE
  5
45B
  8
0
 10
117.94871794871889
 20
211.19230769230751
 30
0.0
 11
117.94871794871889
 21
212.93589743589811
 31
0.0
  0
LINE
  5
45C
  8
0
 10
118.6871794871808
 20
211.19230769230751
 30
0.0
 11
118.6871794871808
 21
212.93589743589811
 31
0.0
  0
ARC
  5
45D
  8
0
 10
119.99848225536751
 20
211.1134131988014
 30
0.0
 40
2.0512820512831311
 50
177.79579960996469
 51
210.76639186197471
  0
ARC
  5
45E
  8
0
 10
120.1207954037816
 20
211.11139508458851
 30
0.0
 40
1.435897435898192
 50
176.76968023270729
 51
226.83313873999651
  0
LINE
  5
45F
  8
0
 10
117.8666666666675
 20
212.32051282051319
 30
0.0
 11
117.12820512820559
 21
212.32051282051319
 31
0.0
  0
LINE
  5
460
  8
0
 10
120.63589743589981
 20
212.32051282051319
 30
0.0
 11
119.8974358974378
 21
212.32051282051319
 31
0.0
  0
LINE
  5
461
  8
0
 10
120.2666666666688
 20
210.0641025641018
 30
0.0
 11
119.8974358974378
 21
210.0641025641018
 31
0.0
  0
ARC
  5
462
  8
0
 10
119.8974358974378
 20
211.19230769230751
 30
0.0
 40
0.389743589743795
 50
219.1667107161212
 51
270.0
  0
LINE
  5
463
  8
0
 10
119.8974358974378
 20
210.80256410256371
 30
0.0
 11
120.9846153846179
 21
210.80256410256371
 31
0.0
  0
LINE
  5
464
  8
0
 10
119.8974358974378
 20
211.58205128205131
 30
0.0
 11
120.63589743589981
 21
211.58205128205131
 31
0.0
  0
LINE
  5
465
  8
0
 10
119.5952631823062
 20
210.94615384615349
 30
0.0
 11
120.5538461538484
 21
210.94615384615349
 31
0.0
  0
LINE
  5
466
  8
0
 10
119.5952631823062
 20
211.4384615384615
 30
0.0
 11
120.5538461538484
 21
211.4384615384615
 31
0.0
  0
LINE
  5
467
  8
0
 10
120.5538461538484
 20
210.94615384615349
 30
0.0
 11
120.5538461538484
 21
211.4384615384615
 31
0.0
  0
ARC
  5
468
  8
0
 10
119.8974358974378
 20
211.19230769230751
 30
0.0
 40
0.389743589743795
 50
90.0
 51
140.8332892838786
  0
LINE
  5
469
  8
0
 10
120.63589743589981
 20
211.58205128205131
 30
0.0
 11
120.63589743589981
 21
212.32051282051319
 31
0.0
  0
ARC
  5
46A
  8
0
 10
119.8974358974378
 20
211.19230769230751
 30
0.0
 40
1.1282051282057219
 50
90.0
 51
270.0
  0
LINE
  5
46B
  8
0
 10
121.88717948718249
 20
211.58205128205131
 30
0.0
 11
121.88717948718249
 21
212.32051282051319
 31
0.0
  0
LINE
  5
46C
  8
0
 10
121.45641025641299
 20
211.58205128205131
 30
0.0
 11
121.88717948718249
 21
211.58205128205131
 31
0.0
  0
ARC
  5
46D
  8
0
 10
121.45641025641299
 20
211.58205128205131
 30
0.0
 40
0.7384615384619276
 50
90.0
 51
234.90036780460741
  0
ARC
  5
46E
  8
0
 10
120.9846153846179
 20
210.80256410256371
 30
0.0
 40
0.7384615384619276
 50
270.0
 51
54.900367804605921
  0
LINE
  5
46F
  8
0
 10
121.3743589743617
 20
211.47386946346469
 30
0.0
 11
121.3743589743617
 21
211.49999999999989
 31
0.0
  0
ARC
  5
470
  8
0
 10
121.45641025641299
 20
211.49999999999989
 30
0.0
 40
0.0820512820513253
 50
90.0
 51
180.0
  0
ARC
  5
471
  8
0
 10
121.45641025641299
 20
211.47386946346469
 30
0.0
 40
0.0820512820513253
 50
180.0
 51
234.90036780460471
  0
ARC
  5
472
  8
0
 10
120.9846153846179
 20
210.88461538461499
 30
0.0
 40
0.0820512820513253
 50
270.0
 51
0.0
  0
ARC
  5
473
  8
0
 10
120.9846153846179
 20
210.91074592115029
 30
0.0
 40
0.0820512820513253
 50
0.0
 51
54.900367804607342
  0
LINE
  5
474
  8
0
 10
118.23589743589849
 20
210.0641025641018
 30
0.0
 11
119.1384615384631
 21
210.0641025641018
 31
0.0
  0
LINE
  5
475
  8
0
 10
120.63589743589969
 20
210.80256410256371
 30
0.0
 11
120.63589743589969
 21
210.0641025641018
 31
0.0
  0
ARC
  5
476
  8
0
 10
121.37378719999769
 20
210.4437326871801
 30
0.0
 40
0.8205128205132528
 50
154.066620056804
 51
177.8608930073427
  0
ARC
  5
477
  8
0
 10
118.68660771281679
 20
210.4437326871801
 30
0.0
 40
0.8205128205132528
 50
154.066620056804
 51
177.8608930073427
  0
LINE
  5
478
  8
0
 10
121.88717948718249
 20
211.58205128205131
 30
0.0
 11
122.8307692307727
 21
211.58205128205131
 31
0.0
  0
LINE
  5
479
  8
0
 10
123.8769230769271
 20
211.3974358974358
 30
0.0
 11
123.8769230769271
 21
210.3923076923071
 31
0.0
  0
ARC
  5
47A
  8
0
 10
122.8833824406189
 20
211.32435546667571
 30
0.0
 40
0.996224746408062
 50
4.206846717150631
 51
90.666449776467829
  0
ARC
  5
47B
  8
0
 10
121.14928972308461
 20
211.9408826974348
 30
0.0
 40
0.8205128205132528
 50
334.06662005680403
 51
357.86089300734272
  0
ARC
  5
47C
  8
0
 10
122.3794871794904
 20
211.91025641025661
 30
0.0
 40
0.4102564102566264
 50
90.0
 51
180.0
  0
LINE
  5
47D
  8
0
 10
121.88717948718249
 20
212.32051282051319
 30
0.0
 11
121.4564100647399
 21
212.32051282051319
 31
0.0
  0
ARC
  5
47E
  8
0
 10
124.28577995569751
 20
210.35844953466639
 30
0.0
 40
0.4102564102566264
 50
175.26603745311411
 51
225.84605298605479
  0
ARC
  5
47F
  8
0
 10
122.6461538461572
 20
210.90512820512791
 30
0.0
 40
0.8410256410260839
 50
140.64330107273921
 51
303.57748737918689
  0
LINE
  5
480
  8
0
 10
121.9958618468073
 20
211.4384615384615
 30
0.0
 11
123.14253711084611
 21
211.4384615384615
 31
0.0
  0
LINE
  5
481
  8
0
 10
122.6329507536241
 20
210.94615384615349
 30
0.0
 11
123.1734008838701
 21
210.94615384615349
 31
0.0
  0
LINE
  5
482
  8
0
 10
120.9846153846179
 20
210.0641025641018
 30
0.0
 11
120.63589743589969
 21
210.0641025641018
 31
0.0
  0
LINE
  5
483
  8
0
 10
121.06666666666921
 20
210.91074592115029
 30
0.0
 11
121.06666666666921
 21
210.88461538461499
 31
0.0
  0
ARC
  5
484
  8
0
 10
123.50765674806981
 20
210.3103038159575
 30
0.0
 40
0.4102564102566264
 50
194.9543703335342
 51
216.8781738534538
  0
ARC
  5
485
  8
0
 10
122.8307692307727
 20
211.17179487179459
 30
0.0
 40
0.4102564102566264
 50
235.43967822000769
 51
326.6329870307635
  0
ARC
  5
486
  8
0
 10
122.8307692307727
 20
211.17179487179459
 30
0.0
 40
0.4102564102566264
 50
40.54160187349833
 51
90.0
  0
ARC
  5
487
  8
0
 10
122.6329507536241
 20
210.88461538461499
 30
0.0
 40
0.061538461538494
 50
90.0
 51
235.4396782200088
  0
LINE
  5
488
  8
0
 10
117.8666666666675
 20
210.47435897435841
 30
0.0
 11
117.8666666666675
 21
210.3512820512814
 31
0.0
  0
ARC
  5
489
  8
0
 10
117.5794871794879
 20
210.3512820512814
 30
0.0
 40
0.2871794871796385
 50
270.0
 51
0.0
  0
LINE
  5
48A
  8
0
 10
120.5538461538484
 20
210.4743589743583
 30
0.0
 11
120.5538461538484
 21
210.3512820512814
 31
0.0
  0
ARC
  5
48B
  8
0
 10
120.2666666666688
 20
210.3512820512814
 30
0.0
 40
0.2871794871796385
 50
269.9999999999996
 51
0.0
  0
TEXT
  5
48C
  8
0
 10
118.0952380952381
 20
199.25
 30
0.0
 40
4.0
  1
5
 72
     4
 11
120.0
 21
201.25
 31
0.0
  0
TEXT
  5
48D
  8
0
 10
107.1695027099924
 20
233.16906864453011
 30
0.0
 40
4.0
  1
9
 72
     4
 11
108.9790265195162
 21
235.16906864453011
 31
0.0
  0
TEXT
  5
48E
  8
0
 10
100.26292841470401
 20
223.7940686445302
 30
0.0
 40
4.0
  1
8
 72
     4
 11
102.1676903194659
 21
225.7940686445302
 31
0.0
  0
TEXT
  5
48F
  8
0
 10
100.26292841470379
 20
212.20593135546969
 30
0.0
 40
4.0
  1
7
 72
     4
 11
102.16769031946571
 21
214.20593135546969
 31
0.0
  0
TEXT
  5
490
  8
0
 10
106.81175381033469
 20
203.6399483498447
 30
0.0
 40
4.0
  1
6
 72
     4
 11
108.81175381033469
 21
205.6399483498447
 31
0.0
  0
TEXT
  5
491
  8
0
 10
129.0209734804836
 20
202.83093135547011
 30
0.0
 40
4.0
  1
4
 72
     4
 11
131.0209734804836
 21
204.83093135547011
 31
0.0
  0
TEXT
  5
492
  8
0
 10
135.92754777577221
 20
212.20593135546969
 30
0.0
 40
4.0
  1
3
 72
     4
 11
137.83230968053411
 21
214.20593135546969
 31
0.0
  0
TEXT
  5
493
  8
0
 10
135.92754777577241
 20
223.79406864453031
 30
0.0
 40
4.0
  1
2
 72
     4
 11
137.83230968053431
 21
225.79406864453031
 31
0.0
  0
TEXT
  5
494
  8
0
 10
129.40192586143621
 20
233.16906864453031
 30
0.0
 40
4.0
  1
1
 72
     4
 11
131.0209734804838
 21
235.16906864453031
 31
0.0
  0
TEXT
  5
495
  8
0
 10
118.0952380952381
 20
236.75
 30
0.0
 40
4.0
  1
0
 72
     4
 11
120.0
 21
238.75
 31
0.0
  0
LINE
  5
496
  8
3
 10
138.2097012959816
 20
233.23012241380499
 30
0.0
 11
144.2705098312484
 21
237.63355756877419
 31
0.0
  0
LINE
  5
497
  8
0
 10
133.22516817658069
 20
238.2028823734363
 30
0.0
 11
137.63355756877419
 21
244.2705098312484
 31
0.0
  0
LINE
  5
498
  8
3
 10
142.5
 20
220.0
 30
0.0
 11
150.0
 21
220.0
 31
0.0
  0
LINE
  5
499
  8
0
 10
141.39877161664089
 20
226.9528823734363
 30
0.0
 11
148.53169548885461
 21
229.27050983124849
 31
0.0
  0
LINE
  5
49A
  8
3
 10
138.20288237343641
 20
206.77483182341931
 30
0.0
 11
144.27050983124849
 21
202.36644243122569
 31
0.0
  0
LINE
  5
49B
  8
0
 10
141.3987716166408
 20
213.0471176265637
 30
0.0
 11
148.53169548885461
 21
210.7294901687516
 31
0.0
  0
LINE
  5
49C
  8
3
 10
126.9528823734363
 20
198.601228383359
 30
0.0
 11
129.2705098312484
 21
191.46830451114539
 31
0.0
  0
LINE
  5
49D
  8
0
 10
133.22516817658069
 20
201.79711762656359
 30
0.0
 11
137.63355756877411
 21
195.7294901687516
 31
0.0
  0
LINE
  5
49E
  8
3
 10
113.0471176265636
 20
198.601228383359
 30
0.0
 11
110.7294901687515
 21
191.46830451114539
 31
0.0
  0
LINE
  5
49F
  8
0
 10
120.0
 20
197.5
 30
0.0
 11
120.0
 21
190.0
 31
0.0
  0
LINE
  5
4A0
  8
3
 10
101.7971176265637
 20
206.77483182341939
 30
0.0
 11
95.729490168751653
 21
202.36644243122589
 31
0.0
  0
LINE
  5
4A1
  8
0
 10
106.77483182341931
 20
201.7971176265637
 30
0.0
 11
102.36644243122581
 21
195.7294901687516
 31
0.0
  0
LINE
  5
4A2
  8
3
 10
94.000000000000114
 20
220.0
 30
0.0
 11
90.0
 21
220.0
 31
0.0
  0
LINE
  5
4A3
  8
0
 10
98.601228383359057
 20
213.0471176265637
 30
0.0
 11
91.468304511145334
 21
210.7294901687516
 31
0.0
  0
LINE
  5
4A4
  8
3
 10
101.79711762656351
 20
233.22516817658069
 30
0.0
 11
95.729490168751596
 21
237.63355756877419
 31
0.0
  0
LINE
  5
4A5
  8
0
 10
98.601228383358972
 20
226.95288237343641
 30
0.0
 11
91.468304511145405
 21
229.27050983124849
 31
0.0
  0
LINE
  5
4A6
  8
3
 10
113.0471176265637
 20
241.39877161664089
 30
0.0
 11
110.7294901687515
 21
248.53169548885469
 31
0.0
  0
LINE
  5
4A7
  8
0
 10
106.7748318234194
 20
238.20288237343621
 30
0.0
 11
102.36644243122581
 21
244.27050983124849
 31
0.0
  0
LINE
  5
4A8
  8
0
 10
120.0
 20
242.5
 30
0.0
 11
120.0
 21
250.0
 31
0.0
  0
LINE
  5
4A9
  8
3
 10
126.9528823734363
 20
241.39877161664089
 30
0.0
 11
129.2705098312484
 21
248.53169548885461
 31
0.0
  0
ENDSEC
  0
EOF
