  0
SECTION
  2
HEADER
  9
$ACADVER
  1
AC1009
  9
$INSBASE
 10
0.0
 20
0.0
 30
0.0
  9
$EXTMIN
 10
0.0
 20
-2.960436562073669
 30
0.0
  9
$EXTMAX
 10
163.80000000000001
 20
97.900000000000006
 30
0.0
  9
$LIMMIN
 10
0.0
 20
0.0
  9
$LIMMAX
 10
187.5
 20
135.0
  9
$ORTHOMODE
 70
     0
  9
$REGENMODE
 70
     1
  9
$FILLMODE
 70
     1
  9
$QTEXTMODE
 70
     0
  9
$MIRRTEXT
 70
     0
  9
$DRAGMODE
 70
     2
  9
$LTSCALE
 40
5.0
  9
$OSMODE
 70
    37
  9
$ATTMODE
 70
     1
  9
$TEXTSIZE
 40
1.0
  9
$TRACEWID
 40
0.05
  9
$TEXTSTYLE
  7
K50
  9
$CLAYER
  8
0
  9
$CELTYPE
  6
BYLAYER
  9
$CECOLOR
 62
   256
  9
$DIMSCALE
 40
1.0
  9
$DIMASZ
 40
3.0
  9
$DIMEXO
 40
2.0
  9
$DIMDLI
 40
0.38
  9
$DIMRND
 40
0.0
  9
$DIMDLE
 40
0.0
  9
$DIMEXE
 40
2.0
  9
$DIMTP
 40
0.0
  9
$DIMTM
 40
0.0
  9
$DIMTXT
 40
3.2000000000000002
  9
$DIMCEN
 40
0.0
  9
$DIMTSZ
 40
0.0
  9
$DIMTOL
 70
     0
  9
$DIMLIM
 70
     0
  9
$DIMTIH
 70
     0
  9
$DIMTOH
 70
     0
  9
$DIMSE1
 70
     0
  9
$DIMSE2
 70
     0
  9
$DIMTAD
 70
     1
  9
$DIMZIN
 70
     8
  9
$DIMBLK
  1

  9
$DIMASO
 70
     0
  9
$DIMSHO
 70
     0
  9
$DIMPOST
  1

  9
$DIMAPOST
  1

  9
$DIMALT
 70
     0
  9
$DIMALTD
 70
     2
  9
$DIMALTF
 40
25.399999999999999
  9
$DIMLFAC
 40
1.0
  9
$DIMTOFL
 70
     1
  9
$DIMTVP
 40
1.6000000000000001
  9
$DIMTIX
 70
     1
  9
$DIMSOXD
 70
     0
  9
$DIMSAH
 70
     0
  9
$DIMBLK1
  1

  9
$DIMBLK2
  1

  9
$DIMSTYLE
  2
STANDARD
  9
$DIMCLRD
 70
     0
  9
$DIMCLRE
 70
     0
  9
$DIMCLRT
 70
     0
  9
$DIMTFAC
 40
1.0
  9
$DIMGAP
 40
0.09
  9
$LUNITS
 70
     2
  9
$LUPREC
 70
     1
  9
$SKETCHINC
 40
0.1
  9
$FILLETRAD
 40
0.0
  9
$AUNITS
 70
     0
  9
$AUPREC
 70
     1
  9
$MENU
  1
E:\r13\win\SUPPORT\ACAD
  9
$ELEVATION
 40
0.0
  9
$PELEVATION
 40
0.0
  9
$THICKNESS
 40
0.0
  9
$LIMCHECK
 70
     0
  9
$BLIPMODE
 70
     0
  9
$CHAMFERA
 40
0.0
  9
$CHAMFERB
 40
0.0
  9
$SKPOLY
 70
     0
  9
$TDCREATE
 40
2449839.7913773148
  9
$TDUPDATE
 40
2457903.6210767478
  9
$TDINDWG
 40
0.1476082523
  9
$TDUSRTIMER
 40
0.1476082523
  9
$USRTIMER
 70
     1
  9
$ANGBASE
 50
0.0
  9
$ANGDIR
 70
     0
  9
$PDMODE
 70
     0
  9
$PDSIZE
 40
0.0
  9
$PLINEWID
 40
0.0
  9
$COORDS
 70
     1
  9
$SPLFRAME
 70
     0
  9
$SPLINETYPE
 70
     6
  9
$SPLINESEGS
 70
     8
  9
$ATTDIA
 70
     0
  9
$ATTREQ
 70
     1
  9
$HANDLING
 70
     1
  9
$HANDSEED
  5
F61
  9
$SURFTAB1
 70
     6
  9
$SURFTAB2
 70
     6
  9
$SURFTYPE
 70
     6
  9
$SURFU
 70
     6
  9
$SURFV
 70
     6
  9
$UCSNAME
  2

  9
$UCSORG
 10
0.0
 20
0.0
 30
0.0
  9
$UCSXDIR
 10
1.0
 20
0.0
 30
0.0
  9
$UCSYDIR
 10
0.0
 20
1.0
 30
0.0
  9
$PUCSNAME
  2

  9
$PUCSORG
 10
0.0
 20
0.0
 30
0.0
  9
$PUCSXDIR
 10
1.0
 20
0.0
 30
0.0
  9
$PUCSYDIR
 10
0.0
 20
1.0
 30
0.0
  9
$USERI1
 70
     0
  9
$USERI2
 70
     1
  9
$USERI3
 70
     0
  9
$USERI4
 70
     0
  9
$USERI5
 70
     0
  9
$USERR1
 40
0.0
  9
$USERR2
 40
0.0
  9
$USERR3
 40
0.0
  9
$USERR4
 40
0.0
  9
$USERR5
 40
0.0
  9
$WORLDVIEW
 70
     1
  9
$SHADEDGE
 70
     3
  9
$SHADEDIF
 70
    70
  9
$TILEMODE
 70
     1
  9
$MAXACTVP
 70
    16
  9
$PLIMCHECK
 70
     0
  9
$PEXTMIN
 10
1.0000000000000000E+020
 20
1.0000000000000000E+020
 30
1.0000000000000000E+020
  9
$PEXTMAX
 10
-1.0000000000000000E+020
 20
-1.0000000000000000E+020
 30
-1.0000000000000000E+020
  9
$PLIMMIN
 10
0.0
 20
0.0
  9
$PLIMMAX
 10
12.0
 20
9.0
  9
$UNITMODE
 70
     0
  9
$VISRETAIN
 70
     0
  9
$PLINEGEN
 70
     0
  9
$PSLTSCALE
 70
     0
  0
ENDSEC
  0
SECTION
  2
TABLES
  0
TABLE
  2
VPORT
 70
     1
  0
VPORT
  2
*ACTIVE
 70
     0
 10
0.0
 20
0.0
 11
1.0
 21
1.0
 12
181.62393162393161
 22
100.0
 13
0.0
 23
0.0
 14
5.0
 24
5.0
 15
5.0
 25
5.0
 16
0.0
 26
0.0
 36
1.0
 17
0.0
 27
0.0
 37
0.0
 40
200.0
 41
1.816239316239316
 42
50.0
 43
0.0
 44
0.0
 50
0.0
 51
0.0
 71
     0
 72
   500
 73
     1
 74
     0
 75
     0
 76
     0
 77
     0
 78
     2
  0
ENDTAB
  0
TABLE
  2
LTYPE
 70
     4
  0
LTYPE
  2
CONTINUOUS
 70
     0
  3
Solid Line
 72
    65
 73
     0
 40
0.0
  0
LTYPE
  2
CENTER
 70
     0
  3
____ _ ____ _ ____ _ ____ _ ____ _ ____ _ ____
 72
    65
 73
     4
 40
2.0
 49
1.25
 49
-0.25
 49
0.25
 49
-0.25
  0
LTYPE
  2
PHANTOM2
 70
     0
  3
___ _ _ ___ _ _ ___ _ _ ___ _ _
 72
    65
 73
     6
 40
1.25
 49
0.625
 49
-0.125
 49
0.125
 49
-0.125
 49
0.125
 49
-0.125
  0
LTYPE
  2
HIDDEN
 70
     0
  3
Hidden __ __ __ __ __ __ __ __ __ __ __ __ __ __
 72
    65
 73
     2
 40
1.905
 49
1.27
 49
-0.635
  0
ENDTAB
  0
TABLE
  2
LAYER
 70
     4
  0
LAYER
  2
0
 70
     0
 62
     7
  6
CONTINUOUS
  0
LAYER
  2
1
 70
     0
 62
     1
  6
CENTER
  0
LAYER
  2
3
 70
     0
 62
     3
  6
CONTINUOUS
  0
LAYER
  2
2
 70
     0
 62
     2
  6
HIDDEN
  0
ENDTAB
  0
TABLE
  2
STYLE
 70
     4
  0
STYLE
  2
STANDARD
 70
     0
 40
0.0
 41
1.0
 50
0.0
 71
     0
 42
4.000000000000048
  3
romans.shx
  4

  0
STYLE
  2
K50
 70
     0
 40
0.0
 41
1.0
 50
0.0
 71
     0
 42
1.0
  3
romans.shx
  4

  0
STYLE
  2
07500
 70
     0
 40
0.0
 41
1.0
 50
0.0
 71
     0
 42
3.0000000000000502
  3
romans.shx
  4

  0
STYLE
  2
STANDARD1
 70
     0
 40
0.0
 41
1.0
 50
0.0
 71
     0
 42
3.0
  3
txt
  4

  0
ENDTAB
  0
TABLE
  2
VIEW
 70
     1
  0
VIEW
  2
ALL
 70
     0
 40
135.0
 10
110.4957983193277
 20
67.5
 41
0.0
 11
0.0
 21
0.0
 31
1.0
 12
0.0
 22
0.0
 32
0.0
 42
0.0
 43
0.0
 44
0.0
 50
0.0
 71
     0
  0
ENDTAB
  0
TABLE
  2
UCS
 70
     0
  0
ENDTAB
  0
TABLE
  2
APPID
 70
     8
  0
APPID
  2
ACAD
 70
     0
  0
APPID
  2
ACAD_EXEMPT_FROM_CAD_STANDARDS
 70
     0
  0
APPID
  2
ACAD_MLEADERVER
 70
     0
  0
APPID
  2
ACAD_NAV_VCDISPLAY
 70
     0
  0
APPID
  2
ACAD_DSTYLE_DIMJAG
 70
     0
  0
APPID
  2
ACAD_DSTYLE_DIMTALN
 70
     0
  0
APPID
  2
GRADIENTCOLOR1ACI
 70
     0
  0
APPID
  2
GRADIENTCOLOR2ACI
 70
     0
  0
ENDTAB
  0
TABLE
  2
DIMSTYLE
 70
     1
  0
DIMSTYLE
  2
STANDARD
 70
     0
  3

  4

  5

  6

  7

 40
1.0
 41
0.18
 42
0.0625
 43
0.38
 44
0.18
 45
0.0
 46
0.0
 47
0.0
 48
0.0
140
0.18
141
0.09
142
0.0
143
25.399999999999999
144
1.0
145
0.0
146
1.0
147
0.09
 71
     0
 72
     0
 73
     1
 74
     1
 75
     0
 76
     0
 77
     0
 78
     0
170
     0
171
     2
172
     0
173
     0
174
     0
175
     0
176
     0
177
     0
178
     0
  0
ENDTAB
  0
ENDSEC
  0
SECTION
  2
BLOCKS
  0
BLOCK
  8
0
  2
$MODEL_SPACE
 70
     0
 10
0.0
 20
0.0
 30
0.0
  3
$MODEL_SPACE
  1

  0
ENDBLK
  5
128
  8
0
  0
BLOCK
 67
     1
  8
0
  2
$PAPER_SPACE
 70
     0
 10
0.0
 20
0.0
 30
0.0
  3
$PAPER_SPACE
  1

  0
ENDBLK
  5
126
 67
     1
  8
0
  0
BLOCK
  8
0
  2
*U0
 70
     1
 10
0.0
 20
0.0
 30
0.0
  3
*U0
  1

  0
SOLID
  5
F0E
  8
0
  6
CONTINUOUS
 10
60.0
 20
70.995999999999995
 30
0.0
 11
59.618847301364369
 21
70.920184014381235
 31
0.0
 12
60.381152698635617
 22
70.920184014381235
 32
0.0
 13
60.381152698635617
 23
70.920184014381235
 33
0.0
210
0.0
220
0.0
230
1.0
  0
SOLID
  5
F0F
  8
0
  6
CONTINUOUS
 10
59.618847301364369
 20
70.920184014381235
 30
0.0
 11
59.295721645938201
 21
70.704278354061799
 31
0.0
 12
60.704278354061799
 22
70.704278354061799
 32
0.0
 13
60.704278354061799
 23
70.704278354061799
 33
0.0
210
0.0
220
0.0
230
1.0
  0
SOLID
  5
F10
  8
0
  6
CONTINUOUS
 10
-59.618847301364369
 20
70.920184014381235
 30
0.0
 11
-60.381152698635617
 21
70.920184014381235
 31
0.0
 12
-60.704278354061799
 22
70.704278354061799
 32
0.0
 13
-60.704278354061799
 23
70.704278354061799
 33
0.0
210
0.0
220
0.0
230
-1.0
  0
SOLID
  5
F11
  8
0
  6
CONTINUOUS
 10
59.295721645938201
 20
70.704278354061799
 30
0.0
 11
59.079815985618758
 21
70.381152698635631
 31
0.0
 12
60.920184014381242
 22
70.381152698635631
 32
0.0
 13
60.920184014381242
 23
70.381152698635631
 33
0.0
210
0.0
220
0.0
230
1.0
  0
SOLID
  5
F12
  8
0
  6
CONTINUOUS
 10
-59.295721645938201
 20
70.704278354061799
 30
0.0
 11
-60.704278354061799
 21
70.704278354061799
 31
0.0
 12
-60.920184014381242
 22
70.381152698635631
 32
0.0
 13
-60.920184014381242
 23
70.381152698635631
 33
0.0
210
0.0
220
0.0
230
-1.0
  0
SOLID
  5
F13
  8
0
  6
CONTINUOUS
 10
59.079815985618758
 20
70.381152698635631
 30
0.0
 11
59.004000000000012
 21
70.0
 31
0.0
 12
60.995999999999988
 22
70.0
 32
0.0
 13
60.995999999999988
 23
70.0
 33
0.0
210
0.0
220
0.0
230
1.0
  0
SOLID
  5
F14
  8
0
  6
CONTINUOUS
 10
-59.079815985618758
 20
70.381152698635631
 30
0.0
 11
-60.920184014381242
 21
70.381152698635631
 31
0.0
 12
-60.995999999999988
 22
70.0
 32
0.0
 13
-60.995999999999988
 23
70.0
 33
0.0
210
0.0
220
0.0
230
-1.0
  0
SOLID
  5
F15
  8
0
  6
CONTINUOUS
 10
59.004000000000012
 20
70.0
 30
0.0
 11
59.079815985618758
 21
69.618847301364369
 31
0.0
 12
60.920184014381242
 22
69.618847301364369
 32
0.0
 13
60.920184014381242
 23
69.618847301364369
 33
0.0
210
0.0
220
0.0
230
1.0
  0
SOLID
  5
F16
  8
0
  6
CONTINUOUS
 10
-59.004000000000012
 20
70.0
 30
0.0
 11
-60.995999999999988
 21
70.0
 31
0.0
 12
-60.920184014381242
 22
69.618847301364369
 32
0.0
 13
-60.920184014381242
 23
69.618847301364369
 33
0.0
210
0.0
220
0.0
230
-1.0
  0
SOLID
  5
F17
  8
0
  6
CONTINUOUS
 10
59.079815985618758
 20
69.618847301364369
 30
0.0
 11
59.295721645938201
 21
69.295721645938201
 31
0.0
 12
60.704278354061799
 22
69.295721645938201
 32
0.0
 13
60.704278354061799
 23
69.295721645938201
 33
0.0
210
0.0
220
0.0
230
1.0
  0
SOLID
  5
F18
  8
0
  6
CONTINUOUS
 10
-59.079815985618758
 20
69.618847301364369
 30
0.0
 11
-60.920184014381242
 21
69.618847301364369
 31
0.0
 12
-60.704278354061799
 22
69.295721645938201
 32
0.0
 13
-60.704278354061799
 23
69.295721645938201
 33
0.0
210
0.0
220
0.0
230
-1.0
  0
SOLID
  5
F19
  8
0
  6
CONTINUOUS
 10
-59.618847301364369
 20
69.079815985618765
 30
0.0
 11
-60.381152698635617
 21
69.079815985618765
 31
0.0
 12
-60.0
 22
69.004000000000005
 32
0.0
 13
-60.0
 23
69.004000000000005
 33
0.0
210
0.0
220
0.0
230
-1.0
  0
SOLID
  5
F1A
  8
0
  6
CONTINUOUS
 10
59.295721645938201
 20
69.295721645938201
 30
0.0
 11
59.618847301364369
 21
69.079815985618765
 31
0.0
 12
60.381152698635617
 22
69.079815985618765
 32
0.0
 13
60.381152698635617
 23
69.079815985618765
 33
0.0
210
0.0
220
0.0
230
1.0
  0
SOLID
  5
F1B
  8
0
  6
CONTINUOUS
 10
-59.295721645938201
 20
69.295721645938201
 30
0.0
 11
-60.704278354061799
 21
69.295721645938201
 31
0.0
 12
-60.381152698635617
 22
69.079815985618765
 32
0.0
 13
-60.381152698635617
 23
69.079815985618765
 33
0.0
210
0.0
220
0.0
230
-1.0
  0
LINE
  5
F1C
  8
0
  6
CONTINUOUS
 10
60.0
 20
70.995999999999995
 30
0.0
 11
59.618847301364369
 21
70.920184014381235
 31
0.0
  0
LINE
  5
F1D
  8
0
  6
CONTINUOUS
 10
60.381152698635617
 20
70.920184014381235
 30
0.0
 11
60.0
 21
70.995999999999995
 31
0.0
  0
LINE
  5
F1E
  8
0
  6
CONTINUOUS
 10
59.618847301364369
 20
70.920184014381235
 30
0.0
 11
59.295721645938201
 21
70.704278354061799
 31
0.0
  0
LINE
  5
F1F
  8
0
  6
CONTINUOUS
 10
60.381152698635617
 20
70.920184014381235
 30
0.0
 11
60.704278354061799
 21
70.704278354061799
 31
0.0
  0
LINE
  5
F20
  8
0
  6
CONTINUOUS
 10
59.295721645938201
 20
70.704278354061799
 30
0.0
 11
59.079815985618758
 21
70.381152698635631
 31
0.0
  0
LINE
  5
F21
  8
0
  6
CONTINUOUS
 10
60.704278354061799
 20
70.704278354061799
 30
0.0
 11
60.920184014381242
 21
70.381152698635631
 31
0.0
  0
LINE
  5
F22
  8
0
  6
CONTINUOUS
 10
59.079815985618758
 20
70.381152698635631
 30
0.0
 11
59.004000000000012
 21
70.0
 31
0.0
  0
LINE
  5
F23
  8
0
  6
CONTINUOUS
 10
60.920184014381242
 20
70.381152698635631
 30
0.0
 11
60.995999999999988
 21
70.0
 31
0.0
  0
LINE
  5
F24
  8
0
  6
CONTINUOUS
 10
59.004000000000012
 20
70.0
 30
0.0
 11
59.079815985618758
 21
69.618847301364369
 31
0.0
  0
LINE
  5
F25
  8
0
  6
CONTINUOUS
 10
60.995999999999988
 20
70.0
 30
0.0
 11
60.920184014381242
 21
69.618847301364369
 31
0.0
  0
LINE
  5
F26
  8
0
  6
CONTINUOUS
 10
59.079815985618758
 20
69.618847301364369
 30
0.0
 11
59.295721645938201
 21
69.295721645938201
 31
0.0
  0
LINE
  5
F27
  8
0
  6
CONTINUOUS
 10
60.920184014381242
 20
69.618847301364369
 30
0.0
 11
60.704278354061799
 21
69.295721645938201
 31
0.0
  0
LINE
  5
F28
  8
0
  6
CONTINUOUS
 10
60.381152698635617
 20
69.079815985618765
 30
0.0
 11
60.0
 21
69.004000000000005
 31
0.0
  0
LINE
  5
F29
  8
0
  6
CONTINUOUS
 10
60.0
 20
69.004000000000005
 30
0.0
 11
59.618847301364369
 21
69.079815985618765
 31
0.0
  0
LINE
  5
F2A
  8
0
  6
CONTINUOUS
 10
59.295721645938201
 20
69.295721645938201
 30
0.0
 11
59.618847301364369
 21
69.079815985618765
 31
0.0
  0
LINE
  5
F2B
  8
0
  6
CONTINUOUS
 10
60.704278354061799
 20
69.295721645938201
 30
0.0
 11
60.381152698635617
 21
69.079815985618765
 31
0.0
  0
ENDBLK
  5
F2D
  8
0
  0
BLOCK
  8
0
  2
*U1
 70
     1
 10
0.0
 20
0.0
 30
0.0
  3
*U1
  1

  0
SOLID
  5
F2F
  8
0
  6
CONTINUOUS
 10
62.931877172620318
 20
71.673159766584988
 30
0.0
 11
61.010214181346072
 21
71.639429198829262
 31
0.0
 12
63.057509887800137
 22
71.639429198829262
 32
0.0
 13
63.057509887800137
 23
71.639429198829262
 33
0.0
210
0.0
220
0.0
230
1.0
  0
SOLID
  5
F30
  8
0
  6
CONTINUOUS
 10
61.010214181346072
 20
71.639429198829262
 30
0.0
 11
61.031245096725208
 21
71.601823792803202
 31
0.0
 12
63.197574807510591
 22
71.601823792803202
 32
0.0
 13
63.197574807510591
 23
71.601823792803202
 33
0.0
210
0.0
220
0.0
230
1.0
  0
SOLID
  5
F31
  8
0
  6
CONTINUOUS
 10
-61.010214181346072
 20
71.639429198829262
 30
0.0
 11
-63.057509887800137
 21
71.639429198829262
 31
0.0
 12
-63.197574807510591
 22
71.601823792803202
 32
0.0
 13
-63.197574807510591
 23
71.601823792803202
 33
0.0
210
0.0
220
0.0
230
-1.0
  0
SOLID
  5
F32
  8
0
  6
CONTINUOUS
 10
57.685724806614537
 20
71.581075098960071
 30
0.0
 11
47.387078172743017
 21
71.400305005736755
 31
0.0
 12
57.747206902530102
 22
71.400305005736755
 32
0.0
 13
57.747206902530102
 23
71.400305005736755
 33
0.0
  0
SOLID
  5
F33
  8
0
  6
CONTINUOUS
 10
61.031245096725208
 20
71.601823792803202
 30
0.0
 11
61.143944971715612
 21
71.400305005736755
 31
0.0
 12
63.384855967270312
 22
71.400305005736755
 32
0.0
 13
63.384855967270312
 23
71.400305005736755
 33
0.0
210
0.0
220
0.0
230
1.0
  0
SOLID
  5
F34
  8
0
  6
CONTINUOUS
 10
-61.031245096725208
 20
71.601823792803202
 30
0.0
 11
-63.197574807510591
 21
71.601823792803202
 31
0.0
 12
-63.384855967270312
 22
71.400305005736755
 32
0.0
 13
-63.384855967270312
 23
71.400305005736755
 33
0.0
210
0.0
220
0.0
230
-1.0
  0
SOLID
  5
F35
  8
0
  6
CONTINUOUS
 10
47.387078172743017
 20
71.400305005736755
 30
0.0
 11
45.061734020760412
 21
71.359488702966672
 31
0.0
 12
57.761089020955119
 22
71.359488702966672
 32
0.0
 13
57.761089020955119
 23
71.359488702966672
 33
0.0
210
0.0
220
0.0
230
1.0
  0
SOLID
  5
F36
  8
0
  6
CONTINUOUS
 10
-47.387078172743017
 20
71.400305005736755
 30
0.0
 11
-57.747206902530102
 21
71.400305005736755
 31
0.0
 12
-57.761089020955119
 22
71.359488702966672
 32
0.0
 13
-57.761089020955119
 23
71.359488702966672
 33
0.0
210
0.0
220
0.0
230
-1.0
  0
SOLID
  5
F37
  8
0
  6
CONTINUOUS
 10
-46.198794675774749
 20
71.130101441027008
 30
0.0
 11
-57.839106404189849
 21
71.130101441027008
 31
0.0
 12
-58.69662250885424
 22
68.608826525585258
 32
0.0
 13
-58.69662250885424
 23
68.608826525585258
 33
0.0
210
0.0
220
0.0
230
-1.0
  0
SOLID
  5
F38
  8
0
  6
CONTINUOUS
 10
61.143944971715612
 20
71.400305005736755
 30
0.0
 11
61.295056976745251
 21
71.130101441027008
 31
0.0
 12
63.436567551657461
 22
71.130101441027008
 32
0.0
 13
63.436567551657461
 23
71.130101441027008
 33
0.0
210
0.0
220
0.0
230
1.0
  0
SOLID
  5
F39
  8
0
  6
CONTINUOUS
 10
-61.143944971715612
 20
71.400305005736755
 30
0.0
 11
-63.384855967270312
 21
71.400305005736755
 31
0.0
 12
-63.436567551657461
 22
71.130101441027008
 32
0.0
 13
-63.436567551657461
 23
71.130101441027008
 33
0.0
210
0.0
220
0.0
230
-1.0
  0
SOLID
  5
F3A
  8
0
  6
CONTINUOUS
 10
45.061734020760412
 20
71.359488702966672
 30
0.0
 11
46.198794675774749
 21
71.130101441027008
 31
0.0
 12
57.839106404189849
 22
71.130101441027008
 32
0.0
 13
57.839106404189849
 23
71.130101441027008
 33
0.0
210
0.0
220
0.0
230
1.0
  0
SOLID
  5
F3B
  8
0
  6
CONTINUOUS
 10
-45.061734020760412
 20
71.359488702966672
 30
0.0
 11
-57.761089020955119
 21
71.359488702966672
 31
0.0
 12
-57.839106404189849
 22
71.130101441027008
 32
0.0
 13
-57.839106404189849
 23
71.130101441027008
 33
0.0
210
0.0
220
0.0
230
-1.0
  0
SOLID
  5
F3C
  8
0
  6
CONTINUOUS
 10
61.295056976745251
 20
71.130101441027008
 30
0.0
 11
62.89563928075416
 21
68.268098226459543
 31
0.0
 12
63.176104855152609
 22
68.268098226459543
 32
0.0
 13
63.176104855152609
 23
68.268098226459543
 33
0.0
210
0.0
220
0.0
230
1.0
  0
SOLID
  5
F3D
  8
0
  6
CONTINUOUS
 10
-61.295056976745251
 20
71.130101441027008
 30
0.0
 11
-63.436567551657461
 21
71.130101441027008
 31
0.0
 12
-63.176104855152609
 22
68.268098226459543
 32
0.0
 13
-63.176104855152609
 23
68.268098226459543
 33
0.0
210
0.0
220
0.0
230
-1.0
  0
SOLID
  5
F3E
  8
0
  6
CONTINUOUS
 10
62.89563928075416
 20
68.268098226459543
 30
0.0
 11
62.903869193956503
 21
68.253382308395416
 31
0.0
 12
63.171308926794502
 22
68.253382308395416
 32
0.0
 13
63.171308926794502
 23
68.253382308395416
 33
0.0
210
0.0
220
0.0
230
1.0
  0
SOLID
  5
F3F
  8
0
  6
CONTINUOUS
 10
-62.89563928075416
 20
68.268098226459543
 30
0.0
 11
-63.176104855152609
 21
68.268098226459543
 31
0.0
 12
-63.171308926794502
 22
68.253382308395416
 32
0.0
 13
-63.171308926794502
 23
68.253382308395416
 33
0.0
210
0.0
220
0.0
230
-1.0
  0
SOLID
  5
F40
  8
0
  6
CONTINUOUS
 10
62.903869193956503
 20
68.253382308395416
 30
0.0
 11
62.962303526940403
 21
68.080128921062069
 31
0.0
 12
63.114845522348411
 22
68.080128921062069
 32
0.0
 13
63.114845522348411
 23
68.080128921062069
 33
0.0
210
0.0
220
0.0
230
1.0
  0
SOLID
  5
F41
  8
0
  6
CONTINUOUS
 10
-62.903869193956503
 20
68.253382308395416
 30
0.0
 11
-63.171308926794502
 21
68.253382308395416
 31
0.0
 12
-63.114845522348411
 22
68.080128921062069
 32
0.0
 13
-63.114845522348411
 23
68.080128921062069
 33
0.0
210
0.0
220
0.0
230
-1.0
  0
SOLID
  5
F42
  8
0
  6
CONTINUOUS
 10
-62.961307305962308
 20
68.057477377562236
 30
0.0
 11
-63.107463367911798
 21
68.057477377562236
 31
0.0
 12
-62.954269839172177
 22
67.897463195337195
 32
0.0
 13
-62.954269839172177
 23
67.897463195337195
 33
0.0
210
0.0
220
0.0
230
-1.0
  0
SOLID
  5
F43
  8
0
  6
CONTINUOUS
 10
62.962303526940403
 20
68.080128921062069
 30
0.0
 11
62.961307305962308
 21
68.057477377562236
 31
0.0
 12
63.107463367911798
 22
68.057477377562236
 32
0.0
 13
63.107463367911798
 23
68.057477377562236
 33
0.0
210
0.0
220
0.0
230
1.0
  0
SOLID
  5
F44
  8
0
  6
CONTINUOUS
 10
-62.962303526940403
 20
68.080128921062069
 30
0.0
 11
-63.114845522348411
 21
68.080128921062069
 31
0.0
 12
-63.107463367911798
 22
68.057477377562236
 32
0.0
 13
-63.107463367911798
 23
68.057477377562236
 33
0.0
210
0.0
220
0.0
230
-1.0
  0
LINE
  5
F45
  8
0
  6
CONTINUOUS
 10
62.931877172620318
 20
71.673159766584988
 30
0.0
 11
61.010214181346072
 21
71.639429198829262
 31
0.0
  0
LINE
  5
F46
  8
0
  6
CONTINUOUS
 10
63.057509887800137
 20
71.639429198829262
 30
0.0
 11
62.931877172620318
 21
71.673159766584988
 31
0.0
  0
LINE
  5
F47
  8
0
  6
CONTINUOUS
 10
61.010214181346072
 20
71.639429198829262
 30
0.0
 11
61.031245096725208
 21
71.601823792803202
 31
0.0
  0
LINE
  5
F48
  8
0
  6
CONTINUOUS
 10
63.057509887800137
 20
71.639429198829262
 30
0.0
 11
63.197574807510591
 21
71.601823792803202
 31
0.0
  0
LINE
  5
F49
  8
0
  6
CONTINUOUS
 10
57.685724806614537
 20
71.581075098960071
 30
0.0
 11
47.387078172743017
 21
71.400305005736755
 31
0.0
  0
LINE
  5
F4A
  8
0
  6
CONTINUOUS
 10
57.747206902530102
 20
71.400305005736755
 30
0.0
 11
57.685724806614537
 21
71.581075098960071
 31
0.0
  0
LINE
  5
F4B
  8
0
  6
CONTINUOUS
 10
61.031245096725208
 20
71.601823792803202
 30
0.0
 11
61.143944971715612
 21
71.400305005736755
 31
0.0
  0
LINE
  5
F4C
  8
0
  6
CONTINUOUS
 10
63.197574807510591
 20
71.601823792803202
 30
0.0
 11
63.384855967270312
 21
71.400305005736755
 31
0.0
  0
LINE
  5
F4D
  8
0
  6
CONTINUOUS
 10
47.387078172743017
 20
71.400305005736755
 30
0.0
 11
45.061734020760412
 21
71.359488702966672
 31
0.0
  0
LINE
  5
F4E
  8
0
  6
CONTINUOUS
 10
57.747206902530102
 20
71.400305005736755
 30
0.0
 11
57.761089020955119
 21
71.359488702966672
 31
0.0
  0
LINE
  5
F4F
  8
0
  6
CONTINUOUS
 10
57.839106404189849
 20
71.130101441027008
 30
0.0
 11
58.69662250885424
 21
68.608826525585258
 31
0.0
  0
LINE
  5
F50
  8
0
  6
CONTINUOUS
 10
58.69662250885424
 20
68.608826525585258
 30
0.0
 11
46.198794675774749
 21
71.130101441027008
 31
0.0
  0
LINE
  5
F51
  8
0
  6
CONTINUOUS
 10
61.143944971715612
 20
71.400305005736755
 30
0.0
 11
61.295056976745251
 21
71.130101441027008
 31
0.0
  0
LINE
  5
F52
  8
0
  6
CONTINUOUS
 10
63.384855967270312
 20
71.400305005736755
 30
0.0
 11
63.436567551657461
 21
71.130101441027008
 31
0.0
  0
LINE
  5
F53
  8
0
  6
CONTINUOUS
 10
45.061734020760412
 20
71.359488702966672
 30
0.0
 11
46.198794675774749
 21
71.130101441027008
 31
0.0
  0
LINE
  5
F54
  8
0
  6
CONTINUOUS
 10
57.761089020955119
 20
71.359488702966672
 30
0.0
 11
57.839106404189849
 21
71.130101441027008
 31
0.0
  0
LINE
  5
F55
  8
0
  6
CONTINUOUS
 10
61.295056976745251
 20
71.130101441027008
 30
0.0
 11
62.89563928075416
 21
68.268098226459543
 31
0.0
  0
LINE
  5
F56
  8
0
  6
CONTINUOUS
 10
63.436567551657461
 20
71.130101441027008
 30
0.0
 11
63.176104855152609
 21
68.268098226459543
 31
0.0
  0
LINE
  5
F57
  8
0
  6
CONTINUOUS
 10
62.89563928075416
 20
68.268098226459543
 30
0.0
 11
62.903869193956503
 21
68.253382308395416
 31
0.0
  0
LINE
  5
F58
  8
0
  6
CONTINUOUS
 10
63.176104855152609
 20
68.268098226459543
 30
0.0
 11
63.171308926794502
 21
68.253382308395416
 31
0.0
  0
LINE
  5
F59
  8
0
  6
CONTINUOUS
 10
62.903869193956503
 20
68.253382308395416
 30
0.0
 11
62.962303526940403
 21
68.080128921062069
 31
0.0
  0
LINE
  5
F5A
  8
0
  6
CONTINUOUS
 10
63.171308926794502
 20
68.253382308395416
 30
0.0
 11
63.114845522348411
 21
68.080128921062069
 31
0.0
  0
LINE
  5
F5B
  8
0
  6
CONTINUOUS
 10
63.107463367911798
 20
68.057477377562236
 30
0.0
 11
62.954269839172177
 21
67.897463195337195
 31
0.0
  0
LINE
  5
F5C
  8
0
  6
CONTINUOUS
 10
62.954269839172177
 20
67.897463195337195
 30
0.0
 11
62.961307305962308
 21
68.057477377562236
 31
0.0
  0
LINE
  5
F5D
  8
0
  6
CONTINUOUS
 10
62.962303526940403
 20
68.080128921062069
 30
0.0
 11
62.961307305962308
 21
68.057477377562236
 31
0.0
  0
LINE
  5
F5E
  8
0
  6
CONTINUOUS
 10
63.114845522348411
 20
68.080128921062069
 30
0.0
 11
63.107463367911798
 21
68.057477377562236
 31
0.0
  0
ENDBLK
  5
F60
  8
0
  0
ENDSEC
  0
SECTION
  2
ENTITIES
  0
ARC
  5
452
  8
0
 10
120.86399999999951
 20
45.763999999999562
 30
0.0
 40
0.6639999999995611
 50
179.99999999998039
 51
270.00000000003581
  0
ARC
  5
453
  8
0
 10
120.86399999999951
 20
94.236000000000445
 30
0.0
 40
0.6639999999995611
 50
89.99999999996092
 51
180.00000000001791
  0
LINE
  5
454
  8
0
 10
127.1999999999999
 20
45.099999999999987
 30
0.0
 11
120.8639999999999
 21
45.099999999999987
 31
0.0
  0
LINE
  5
455
  8
0
 10
120.8639999999999
 20
94.900000000000006
 30
0.0
 11
127.1999999999999
 21
94.900000000000006
 31
0.0
  0
LINE
  5
456
  8
0
 10
148.995
 20
45.899999999999999
 30
0.0
 11
127.1999999999999
 21
45.899999999999999
 31
0.0
  0
LINE
  5
457
  8
0
 10
127.1999999999999
 20
94.100000000000009
 30
0.0
 11
148.995
 21
94.100000000000009
 31
0.0
  0
ARC
  5
458
  8
0
 10
148.99500000000029
 20
47.104999999999649
 30
0.0
 40
1.204999999999643
 50
269.9999999999838
 51
0.0000000000089564
  0
ARC
  5
459
  8
0
 10
148.99500000000029
 20
92.895000000000366
 30
0.0
 40
1.204999999999643
 50
359.99999999998943
 51
90.000000000016271
  0
LINE
  5
45A
  8
0
 10
156.49999999999989
 20
50.300000000000011
 30
0.0
 11
150.1999999999999
 21
50.300000000000011
 31
0.0
  0
LINE
  5
45B
  8
0
 10
150.1999999999999
 20
59.699999999999982
 30
0.0
 11
156.49999999999989
 21
59.699999999999982
 31
0.0
  0
LINE
  5
45C
  8
0
 10
160.80000000000001
 20
52.110000000000021
 30
0.0
 11
156.49999999999989
 21
52.110000000000021
 31
0.0
  0
LINE
  5
45D
  8
0
 10
156.49999999999989
 20
57.889999999999979
 30
0.0
 11
160.80000000000001
 21
57.889999999999979
 31
0.0
  0
LINE
  5
45F
  8
0
 10
120.1999999999999
 20
45.76400000000001
 30
0.0
 11
120.1999999999999
 21
94.236000000000445
 31
0.0
  0
LINE
  5
461
  8
0
 10
127.1999999999999
 20
45.099999999999987
 30
0.0
 11
127.2
 21
94.900000000000006
 31
0.0
  0
LINE
  5
463
  8
0
 10
150.1999999999999
 20
47.105000000000018
 30
0.0
 11
150.1999999999999
 21
92.895000000000366
 31
0.0
  0
LINE
  5
465
  8
0
 10
156.49999999999989
 20
50.300000000000011
 30
0.0
 11
156.49999999999989
 21
59.699999999999982
 31
0.0
  0
LINE
  5
467
  8
0
 10
160.80000000000001
 20
52.110000000000021
 30
0.0
 11
160.80000000000001
 21
57.889999999999979
 31
0.0
  0
LINE
  5
47F
  8
0
 10
62.931877172620339
 20
71.673159766584988
 30
0.0
 11
61.010214181346079
 21
71.639429198829262
 31
0.0
  0
LINE
  5
480
  8
0
 10
57.685724806614559
 20
71.581075098960071
 30
0.0
 11
45.061734020760412
 21
71.359488702966672
 31
0.0
  0
ARC
  5
481
  8
0
 10
62.940617121146651
 20
71.175236465965483
 30
0.0
 40
0.4980000000000468
 50
354.80000000000967
 51
91.005598139692154
  0
LINE
  5
482
  8
0
 10
63.176104855152637
 20
68.268098226459571
 30
0.0
 11
63.43656755165744
 21
71.130101441027051
 31
0.0
  0
ARC
  5
483
  8
0
 10
62.680154424641941
 20
68.313233251398032
 30
0.0
 40
0.4979999999999201
 50
303.39669340563518
 51
354.80000000000479
  0
LINE
  5
484
  8
0
 10
45.061734020760412
 20
71.359488702966672
 30
0.0
 11
58.696622508854261
 21
68.608826525585258
 31
0.0
  0
LINE
  5
486
  8
0
 10
72.467765398844449
 20
55.835295592234331
 30
0.0
 11
74.164704407765669
 21
57.532234601155551
 31
0.0
  0
LINE
  5
489
  8
0
 10
73.69518550505768
 20
58.001753503863249
 30
0.0
 11
71.998246496136744
 21
56.304814494942349
 31
0.0
  0
LINE
  5
48C
  8
0
 10
45.835295592234331
 20
57.532234601155551
 30
0.0
 11
47.532234601155551
 21
55.835295592234331
 31
0.0
  0
LINE
  5
48F
  8
0
 10
48.001753503863249
 20
56.304814494942349
 30
0.0
 11
46.30481449494232
 21
58.001753503863249
 31
0.0
  0
LINE
  5
492
  8
0
 10
62.903869193956517
 20
68.253382308395416
 30
0.0
 11
52.475372103097683
 21
86.900590966388208
 31
0.0
  0
ARC
  5
493
  8
0
 10
62.469222751631399
 20
68.01030522149874
 30
0.0
 40
0.4980000000000351
 50
294.00000000000148
 51
29.216209693234159
  0
LINE
  5
494
  8
0
 10
60.028953710140122
 20
66.37869857766043
 30
0.0
 11
62.671777599883129
 21
67.555359583592718
 31
0.0
  0
ARC
  5
495
  8
0
 10
59.82639886188835
 20
66.83364421556648
 30
0.0
 40
0.4980000000000634
 50
198.7837903067674
 51
293.99999999999659
  0
LINE
  5
496
  8
0
 10
52.475372103097683
 20
86.900590966388208
 30
0.0
 11
59.354922145064293
 21
66.673289279587493
 31
0.0
  0
CIRCLE
  5
497
  8
0
 10
60.0
 20
70.0
 30
0.0
 40
0.996
  0
CIRCLE
  5
498
  8
0
 10
60.0
 20
70.0
 30
0.0
 40
24.900000000000009
  0
CIRCLE
  5
49B
  8
0
 10
60.0
 20
70.0
 30
0.0
 40
21.000000000000028
  0
CIRCLE
  5
4A4
  8
0
 10
73.081475451951178
 20
56.918524548048872
 30
0.0
 40
1.2449999999994921
  0
CIRCLE
  5
4A5
  8
0
 10
46.918524548048872
 20
56.918524548048872
 30
0.0
 40
1.2449999999994921
  0
LINE
  5
581
  8
2
 10
156.49999999999989
 20
56.889999999999993
 30
0.0
 11
160.80000000000001
 21
56.889999999999993
 31
0.0
  0
LINE
  5
582
  8
2
 10
156.49999999999989
 20
53.110000000000007
 30
0.0
 11
160.80000000000001
 21
53.110000000000007
 31
0.0
  0
LINE
  5
593
  8
1
 10
60.0
 20
97.900000000000006
 30
0.0
 11
60.0
 21
42.099999999999987
 31
0.0
  0
LINE
  5
594
  8
1
 10
153.1999999999999
 20
70.0
 30
0.0
 11
117.1999999999999
 21
70.0
 31
0.0
  0
LINE
  5
595
  8
1
 10
163.80000000000001
 20
55.0
 30
0.0
 11
147.1999999999999
 21
55.0
 31
0.0
  0
LINE
  5
599
  8
1
 10
87.900000000000006
 20
70.0
 30
0.0
 11
32.099999999999987
 21
70.0
 31
0.0
  0
LINE
  5
89D
  8
3
 10
46.793112592287279
 20
62.374999999999943
 30
0.0
 11
41.813466520526731
 21
59.499999999999879
 31
0.0
  0
LINE
  5
89E
  8
3
 10
73.206887407712586
 20
62.375000000000078
 30
0.0
 11
78.186533479473269
 21
59.5
 31
0.0
  0
LINE
  5
89F
  8
3
 10
73.206887407712713
 20
77.625000000000014
 30
0.0
 11
78.186533479473269
 21
80.500000000000114
 31
0.0
  0
LINE
  5
8A0
  8
3
 10
71.332958588530232
 20
80.204241746972585
 30
0.0
 11
75.606041335025395
 21
84.051742733536145
 31
0.0
  0
LINE
  5
8A1
  8
3
 10
75.166458904366095
 20
68.405940935168303
 30
0.0
 11
80.884959802733704
 21
67.804902271379305
 31
0.0
  0
LINE
  5
8A2
  8
3
 10
75.166458904366323
 20
71.594059064831725
 30
0.0
 11
80.884959802733647
 21
72.195097728620738
 31
0.0
  0
LINE
  5
8A3
  8
3
 10
71.332958588530573
 20
59.795758253027202
 30
0.0
 11
73.147695004333443
 21
58.161762244903763
 31
0.0
  0
LINE
  5
8A5
  8
3
 10
63.170653284970847
 20
55.083249088809403
 30
0.0
 11
64.36614550717303
 21
49.458900384590009
 31
0.0
  0
LINE
  5
8A6
  8
3
 10
66.20273380690594
 20
56.068431770950383
 30
0.0
 11
68.541469504591817
 21
50.815545389505381
 31
0.0
  0
LINE
  5
8A7
  8
3
 10
53.797266193094167
 20
56.068431770950468
 30
0.0
 11
51.45853049540824
 21
50.81554538950536
 31
0.0
  0
LINE
  5
8A8
  8
3
 10
56.829346715029139
 20
55.08324908880936
 30
0.0
 11
55.63385449282702
 21
49.458900384590038
 31
0.0
  0
LINE
  5
8AA
  8
3
 10
48.667041411469768
 20
59.795758253027373
 30
0.0
 11
46.852304995666763
 21
58.161762244903763
 31
0.0
  0
LINE
  5
8AB
  8
3
 10
44.83354109563367
 20
71.594059064831697
 30
0.0
 11
39.115040197266183
 21
72.195097728620681
 31
0.0
  0
LINE
  5
8AC
  8
3
 10
44.833541095633727
 20
68.405940935168246
 30
0.0
 11
39.115040197266239
 21
67.804902271379234
 31
0.0
  0
LINE
  5
8AD
  8
3
 10
48.667041411469647
 20
80.204241746972585
 30
0.0
 11
44.393958664974889
 21
84.051742733535832
 31
0.0
  0
LINE
  5
8AE
  8
3
 10
46.793112592286938
 20
77.625000000000171
 30
0.0
 11
41.813466520526617
 21
80.500000000000057
 31
0.0
  0
LINE
  5
8AF
  8
3
 10
56.829346715029139
 20
84.916750911190533
 30
0.0
 11
55.63385449282702
 21
90.541099615409848
 31
0.0
  0
LINE
  5
8B0
  8
3
 10
52.475372103097399
 20
86.900590966388705
 30
0.0
 11
51.458530495408127
 21
89.184454610494626
 31
0.0
  0
LINE
  5
8B1
  8
3
 10
63.17065328497079
 20
84.916750911190491
 30
0.0
 11
64.366145507172973
 21
90.541099615410005
 31
0.0
  0
LINE
  5
8B2
  8
0
 10
60.0
 20
85.25
 30
0.0
 11
60.0
 21
91.0
 31
0.0
  0
LINE
  5
906
  8
0
 10
68.963725097460269
 20
82.337509164218034
 30
0.0
 11
72.343490298141887
 21
86.989356881873803
 31
0.0
  0
LINE
  5
907
  8
0
 10
74.503611873500972
 20
74.71250916421792
 30
0.0
 11
79.972186842198312
 21
76.489356881873874
 31
0.0
  0
LINE
  5
908
  8
0
 10
74.503611873501086
 20
65.287490835782023
 30
0.0
 11
79.972186842198425
 21
63.51064311812604
 31
0.0
  0
LINE
  5
909
  8
0
 10
68.963725097460156
 20
57.66249083578213
 30
0.0
 11
72.343490298141887
 21
53.01064311812609
 31
0.0
  0
LINE
  5
90A
  8
0
 10
60.0
 20
54.75
 30
0.0
 11
60.0
 21
49.0
 31
0.0
  0
LINE
  5
90B
  8
0
 10
51.036274902539731
 20
57.662490835782052
 30
0.0
 11
47.656509701858113
 21
53.01064311812609
 31
0.0
  0
LINE
  5
90C
  8
0
 10
45.496388126498907
 20
65.28749083578208
 30
0.0
 11
40.027813157801802
 21
63.510643118126133
 31
0.0
  0
LINE
  5
90D
  8
0
 10
45.496388126498907
 20
74.712509164217977
 30
0.0
 11
40.027813157801802
 21
76.489356881873903
 31
0.0
  0
LINE
  5
90E
  8
0
 10
51.036274902540072
 20
82.337509164217579
 30
0.0
 11
47.656509701858113
 21
86.989356881873903
 31
0.0
  0
LINE
  5
90F
  8
3
 10
66.202733806905798
 20
83.931568229049844
 30
0.0
 11
68.54146950459176
 21
89.184454610494626
 31
0.0
  0
LINE
  5
917
  8
3
 10
45.689019265428243
 20
57.11433506872303
 30
0.0
 11
44.393958664974768
 21
55.948257266463941
 31
0.0
  0
LINE
  5
918
  8
3
 10
74.310980734571785
 20
57.114335068723193
 30
0.0
 11
75.606041335025225
 21
55.94825726646414
 31
0.0
  0
TEXT
  5
A04
  8
0
 10
58.571428571428569
 20
81.0
 30
0.0
 40
3.0
  1
0
 72
     4
 11
60.0
 21
82.5
 31
0.0
  0
TEXT
  5
A05
  8
0
 10
51.2241129177727
 20
78.612712429686781
 30
0.0
 40
3.0
  1
3
 50
0.0000000000000368
 72
     4
 11
52.652684346344131
 21
80.112712429686781
 31
0.0
  0
TEXT
  5
A06
  8
0
 10
46.611793546310473
 20
72.362712429686894
 30
0.0
 40
3.0
  1
6
 50
0.0000000000000368
 72
     4
 11
48.11179354631048
 21
73.862712429686894
 31
0.0
  0
TEXT
  5
A07
  8
0
 10
46.754650689168017
 20
64.637287570313219
 30
0.0
 40
3.0
  1
9
 50
0.0000000000000368
 72
     4
 11
48.111793546310878
 21
66.137287570313219
 31
0.0
  0
TEXT
  5
A08
  8
0
 10
50.349112917772644
 20
58.387287570313113
 30
0.0
 40
3.0
  1
12
 50
0.0000000000000368
 41
0.75
  7
07500
 72
     4
 11
52.652684346344067
 21
59.887287570313099
 31
0.0
  0
TEXT
  5
A09
  8
0
 10
57.696428571428569
 20
56.0
 30
0.0
 40
3.0
  1
15
 41
0.75
  7
07500
 72
     4
 11
60.0
 21
57.5
 31
0.0
  0
TEXT
  5
A0A
  8
0
 10
65.043744225084552
 20
58.387287570313219
 30
0.0
 40
3.0
  1
18
 50
0.0000000000000368
 41
0.75
  7
07500
 72
     4
 11
67.347315653655983
 21
59.887287570313219
 31
0.0
  0
TEXT
  5
A0B
  8
0
 10
70.066777882260837
 20
64.637287570313163
 30
0.0
 40
3.0
  1
21
 50
0.0000000000000368
 41
0.75
  7
07500
 72
     4
 11
71.888206453689406
 21
66.137287570313163
 31
0.0
  0
TEXT
  5
A0C
  8
0
 10
69.691777882260837
 20
72.362712429686823
 30
0.0
 40
3.0
  1
24
 50
0.0000000000000368
 41
0.75
  7
07500
 72
     4
 11
71.888206453689406
 21
73.862712429686837
 31
0.0
  0
TEXT
  5
A0D
  8
0
 10
65.204458510798787
 20
78.612712429686866
 30
0.0
 40
3.0
  1
27
 50
0.0000000000000368
 41
0.75
  7
07500
 72
     4
 11
67.347315653655926
 21
80.112712429686866
 31
0.0
  0
TEXT
  5
B78
  8
0
 62
     3
 10
0.0
 20
0.0
 30
0.0
 40
10.0
  1
PDA50L-1/30
  7
STANDARD1
  0
INSERT
  5
DFB
  8
0
  6
CONTINUOUS
  2
*U0
 10
0.0
 20
0.0
 30
0.0
1001
GRADIENTCOLOR1ACI
1070
     5
1001
GRADIENTCOLOR2ACI
1070
     2
1001
ACAD
1002
{
1000
R14_HATCH_DATA
1000
DFB
1011
1.0
1021
0.0
1031
0.0
1021
0.0
1031
0.0
1011
0.0
1021
0.0
1031
0.0
1021
1.0
1031
0.0
1011
0.0
1021
0.0
1031
0.0
1021
0.0
1031
1.0
1040
0.0
1010
0.0
1020
0.0
1030
1.0
1000
SOLID
1070
     1
1070
     0
1071
        1
1071
        7
1070
     1
1070
     1
1071
        2
1040
60.995999999999988
1040
70.0
1040
1.0
1040
59.004000000000012
1040
70.0
1040
1.0
1071
        0
1070
     1
1070
     1
1040
0.0471736036546003
1071
        1
1040
60.08153738240356
1040
69.893063771377854
1040
0.0
1002
}
  0
INSERT
  5
E25
  8
0
  6
CONTINUOUS
  2
*U1
 10
0.0
 20
0.0
 30
0.0
1001
GRADIENTCOLOR1ACI
1070
     5
1001
GRADIENTCOLOR2ACI
1070
     2
1001
ACAD
1002
{
1000
R14_HATCH_DATA
1000
E25
1011
1.0
1021
0.0
1031
0.0
1021
0.0
1031
0.0
1011
0.0
1021
0.0
1031
0.0
1021
1.0
1031
0.0
1011
0.0
1021
0.0
1031
0.0
1021
0.0
1031
1.0
1040
0.0
1010
0.0
1020
0.0
1030
1.0
1000
SOLID
1070
     1
1070
     0
1071
        2
1071
        7
1070
     0
1070
     1
1071
        3
1040
57.685724806614537
1040
71.581075098960071
1040
45.061734020760412
1040
71.359488702966672
1040
58.69662250885424
1040
68.608826525585258
1071
        0
1071
        7
1070
     1
1070
     1
1071
        6
1040
63.436567551657461
1040
71.130101441027008
1040
0.4463040353222582
1040
62.931877172620318
1040
71.673159766584988
1040
0.0
1040
61.010214181346072
1040
71.639429198829262
1040
0.0
1040
62.903869193956503
1040
68.253382308395416
1040
-0.1867503551045796
1040
62.954269839172177
1040
67.897463195337195
1040
0.2281274957814537
1040
63.176104855152609
1040
68.268098226459543
1040
0.0
1071
        0
1070
     1
1070
     1
1040
0.0408650235771983
1071
        2
1040
56.019696422719328
1040
70.204354979562879
1040
0.0
1040
62.886511020993851
1040
70.040894798341753
1040
0.0
1002
}
  0
ENDSEC
  0
EOF
