  0
SECTION
  2
HEADER
  9
$ACADVER
  1
AC1009
  9
$INSBASE
 10
0.0
 20
0.0
 30
0.0
  9
$EXTMIN
 10
0.0
 20
-2.960436562073669
 30
0.0
  9
$EXTMAX
 10
210.44999999999999
 20
123.5
 30
0.0
  9
$LIMMIN
 10
0.0
 20
0.0
  9
$LIMMAX
 10
375.0
 20
270.0
  9
$ORTHOMODE
 70
     1
  9
$REGENMODE
 70
     1
  9
$FILLMODE
 70
     1
  9
$QTEXTMODE
 70
     0
  9
$MIRRTEXT
 70
     0
  9
$DRAGMODE
 70
     2
  9
$LTSCALE
 40
10.0
  9
$OSMODE
 70
    37
  9
$ATTMODE
 70
     1
  9
$TEXTSIZE
 40
2.0
  9
$TRACEWID
 40
0.05
  9
$TEXTSTYLE
  7
K50
  9
$CLAYER
  8
0
  9
$CELTYPE
  6
BYLAYER
  9
$CECOLOR
 62
   256
  9
$DIMSCALE
 40
1.0
  9
$DIMASZ
 40
3.0
  9
$DIMEXO
 40
2.0
  9
$DIMDLI
 40
0.38
  9
$DIMRND
 40
0.0
  9
$DIMDLE
 40
0.0
  9
$DIMEXE
 40
2.0
  9
$DIMTP
 40
0.0
  9
$DIMTM
 40
0.0
  9
$DIMTXT
 40
3.2000000000000002
  9
$DIMCEN
 40
0.0
  9
$DIMTSZ
 40
0.0
  9
$DIMTOL
 70
     0
  9
$DIMLIM
 70
     0
  9
$DIMTIH
 70
     0
  9
$DIMTOH
 70
     0
  9
$DIMSE1
 70
     0
  9
$DIMSE2
 70
     0
  9
$DIMTAD
 70
     1
  9
$DIMZIN
 70
     8
  9
$DIMBLK
  1

  9
$DIMASO
 70
     0
  9
$DIMSHO
 70
     0
  9
$DIMPOST
  1

  9
$DIMAPOST
  1

  9
$DIMALT
 70
     0
  9
$DIMALTD
 70
     2
  9
$DIMALTF
 40
25.399999999999999
  9
$DIMLFAC
 40
1.0
  9
$DIMTOFL
 70
     1
  9
$DIMTVP
 40
1.6000000000000001
  9
$DIMTIX
 70
     0
  9
$DIMSOXD
 70
     0
  9
$DIMSAH
 70
     0
  9
$DIMBLK1
  1

  9
$DIMBLK2
  1

  9
$DIMSTYLE
  2
STANDARD
  9
$DIMCLRD
 70
   256
  9
$DIMCLRE
 70
   256
  9
$DIMCLRT
 70
   256
  9
$DIMTFAC
 40
1.0
  9
$DIMGAP
 40
0.5
  9
$LUNITS
 70
     2
  9
$LUPREC
 70
     1
  9
$SKETCHINC
 40
0.1
  9
$FILLETRAD
 40
0.0
  9
$AUNITS
 70
     0
  9
$AUPREC
 70
     1
  9
$MENU
  1
E:\r13\win\SUPPORT\ACAD
  9
$ELEVATION
 40
0.0
  9
$PELEVATION
 40
0.0
  9
$THICKNESS
 40
0.0
  9
$LIMCHECK
 70
     0
  9
$BLIPMODE
 70
     0
  9
$CHAMFERA
 40
0.0
  9
$CHAMFERB
 40
0.0
  9
$SKPOLY
 70
     0
  9
$TDCREATE
 40
2449839.7912268522
  9
$TDUPDATE
 40
2457897.4090870488
  9
$TDINDWG
 40
0.0890260069
  9
$TDUSRTIMER
 40
0.0890260069
  9
$USRTIMER
 70
     1
  9
$ANGBASE
 50
0.0
  9
$ANGDIR
 70
     0
  9
$PDMODE
 70
     0
  9
$PDSIZE
 40
0.0
  9
$PLINEWID
 40
0.0
  9
$COORDS
 70
     1
  9
$SPLFRAME
 70
     0
  9
$SPLINETYPE
 70
     6
  9
$SPLINESEGS
 70
     8
  9
$ATTDIA
 70
     0
  9
$ATTREQ
 70
     1
  9
$HANDLING
 70
     1
  9
$HANDSEED
  5
BA5
  9
$SURFTAB1
 70
     6
  9
$SURFTAB2
 70
     6
  9
$SURFTYPE
 70
     6
  9
$SURFU
 70
     6
  9
$SURFV
 70
     6
  9
$UCSNAME
  2

  9
$UCSORG
 10
0.0
 20
0.0
 30
0.0
  9
$UCSXDIR
 10
1.0
 20
0.0
 30
0.0
  9
$UCSYDIR
 10
0.0
 20
1.0
 30
0.0
  9
$PUCSNAME
  2

  9
$PUCSORG
 10
0.0
 20
0.0
 30
0.0
  9
$PUCSXDIR
 10
1.0
 20
0.0
 30
0.0
  9
$PUCSYDIR
 10
0.0
 20
1.0
 30
0.0
  9
$USERI1
 70
     0
  9
$USERI2
 70
     1
  9
$USERI3
 70
     0
  9
$USERI4
 70
     0
  9
$USERI5
 70
     0
  9
$USERR1
 40
0.0
  9
$USERR2
 40
0.0
  9
$USERR3
 40
0.0
  9
$USERR4
 40
0.0
  9
$USERR5
 40
0.0
  9
$WORLDVIEW
 70
     1
  9
$SHADEDGE
 70
     3
  9
$SHADEDIF
 70
    70
  9
$TILEMODE
 70
     1
  9
$MAXACTVP
 70
    16
  9
$PLIMCHECK
 70
     0
  9
$PEXTMIN
 10
1.0000000000000000E+020
 20
1.0000000000000000E+020
 30
1.0000000000000000E+020
  9
$PEXTMAX
 10
-1.0000000000000000E+020
 20
-1.0000000000000000E+020
 30
-1.0000000000000000E+020
  9
$PLIMMIN
 10
0.0
 20
0.0
  9
$PLIMMAX
 10
12.0
 20
9.0
  9
$UNITMODE
 70
     0
  9
$VISRETAIN
 70
     0
  9
$PLINEGEN
 70
     0
  9
$PSLTSCALE
 70
     0
  0
ENDSEC
  0
SECTION
  2
TABLES
  0
TABLE
  2
VPORT
 70
     1
  0
VPORT
  2
*ACTIVE
 70
     0
 10
0.0
 20
0.0
 11
1.0
 21
1.0
 12
173.43340805174111
 22
95.487179487179503
 13
0.0
 23
0.0
 14
10.0
 24
10.0
 15
10.0
 25
10.0
 16
0.0
 26
0.0
 36
1.0
 17
0.0
 27
0.0
 37
0.0
 40
191.0358282662967
 41
1.816239316239316
 42
50.0
 43
0.0
 44
0.0
 50
0.0
 51
0.0
 71
     0
 72
   500
 73
     1
 74
     0
 75
     0
 76
     0
 77
     0
 78
     2
  0
ENDTAB
  0
TABLE
  2
LTYPE
 70
     3
  0
LTYPE
  2
CONTINUOUS
 70
     0
  3
Solid Line
 72
    65
 73
     0
 40
0.0
  0
LTYPE
  2
CENTER
 70
     0
  3
____ _ ____ _ ____ _ ____ _ ____ _ ____ _ ____
 72
    65
 73
     4
 40
2.0
 49
1.25
 49
-0.25
 49
0.25
 49
-0.25
  0
LTYPE
  2
PHANTOM2
 70
     0
  3
___ _ _ ___ _ _ ___ _ _ ___ _ _
 72
    65
 73
     6
 40
1.25
 49
0.625
 49
-0.125
 49
0.125
 49
-0.125
 49
0.125
 49
-0.125
  0
ENDTAB
  0
TABLE
  2
LAYER
 70
     4
  0
LAYER
  2
0
 70
     0
 62
     7
  6
CONTINUOUS
  0
LAYER
  2
1
 70
     0
 62
     1
  6
CENTER
  0
LAYER
  2
3
 70
     0
 62
     3
  6
CONTINUOUS
  0
LAYER
  2
DEFPOINTS
 70
     0
 62
     7
  6
CONTINUOUS
  0
ENDTAB
  0
TABLE
  2
STYLE
 70
     5
  0
STYLE
  2
STANDARD
 70
     0
 40
0.0
 41
1.0
 50
0.0
 71
     0
 42
4.000000000000048
  3
romans.shx
  4

  0
STYLE
  2
06500
 70
     0
 40
0.0
 41
1.0
 50
0.0
 71
     0
 42
1.0
  3
romans.shx
  4

  0
STYLE
  2
08000
 70
     0
 40
0.0
 41
1.0
 50
0.0
 71
     0
 42
2.0
  3
romans.shx
  4

  0
STYLE
  2
K50
 70
     0
 40
0.0
 41
1.0
 50
0.0
 71
     0
 42
2.0
  3
romans.shx
  4

  0
STYLE
  2
STANDARD1
 70
     0
 40
0.0
 41
1.0
 50
0.0
 71
     0
 42
3.0
  3
txt
  4

  0
ENDTAB
  0
TABLE
  2
VIEW
 70
     1
  0
VIEW
  2
ALL
 70
     0
 40
270.0
 10
220.99159663865549
 20
135.0
 41
0.0
 11
0.0
 21
0.0
 31
1.0
 12
0.0
 22
0.0
 32
0.0
 42
0.0
 43
0.0
 44
0.0
 50
0.0
 71
     0
  0
ENDTAB
  0
TABLE
  2
UCS
 70
     0
  0
ENDTAB
  0
TABLE
  2
APPID
 70
    14
  0
APPID
  2
ACAD
 70
     0
  0
APPID
  2
ACAD_MLEADERVER
 70
     0
  0
APPID
  2
ACAD_DSTYLE_DIMJAG
 70
     0
  0
APPID
  2
ACAD_DSTYLE_DIMTALN
 70
     0
  0
APPID
  2
ACAD_EXEMPT_FROM_CAD_STANDARDS
 70
     0
  0
APPID
  2
ACAD_NAV_VCDISPLAY
 70
     0
  0
APPID
  2
GENIUS_GENODEF_13
 70
     0
  0
APPID
  2
GENIUS_GENOBJ-N-FIL_13
 70
     0
  0
APPID
  2
GENIUS_GENOREF_13
 70
     0
  0
APPID
  2
ACAD_PSEXT
 70
     0
  0
APPID
  2
ACAD_DSTYLE_DIMRADIAL_EXTENSION
 70
     0
  0
APPID
  2
GRADIENTCOLOR1ACI
 70
     0
  0
APPID
  2
GRADIENTCOLOR2ACI
 70
     0
  0
APPID
  2
ACADANNOMONITORALERTICONDI
 70
     0
  0
ENDTAB
  0
TABLE
  2
DIMSTYLE
 70
     1
  0
DIMSTYLE
  2
STANDARD
 70
     0
  3

  4

  5

  6

  7

 40
1.0
 41
0.18
 42
0.0625
 43
0.38
 44
0.18
 45
0.0
 46
0.0
 47
0.0
 48
0.0
140
0.18
141
0.09
142
0.0
143
25.399999999999999
144
1.0
145
0.0
146
1.0
147
0.09
 71
     0
 72
     0
 73
     1
 74
     1
 75
     0
 76
     0
 77
     0
 78
     0
170
     0
171
     2
172
     0
173
     0
174
     0
175
     0
176
     0
177
     0
178
     0
  0
ENDTAB
  0
ENDSEC
  0
SECTION
  2
BLOCKS
  0
BLOCK
  8
0
  2
$MODEL_SPACE
 70
     0
 10
0.0
 20
0.0
 30
0.0
  3
$MODEL_SPACE
  1

  0
ENDBLK
  5
171
  8
0
  0
BLOCK
 67
     1
  8
0
  2
$PAPER_SPACE
 70
     0
 10
0.0
 20
0.0
 30
0.0
  3
$PAPER_SPACE
  1

  0
ENDBLK
  5
16F
 67
     1
  8
0
  0
BLOCK
  8
0
  2
*U0
 70
     1
 10
0.0
 20
0.0
 30
0.0
  3
*U0
  1

  0
SOLID
  5
B8C
  8
0
  6
CONTINUOUS
 10
104.2976467942383
 20
94.464786244139816
 30
0.0
 11
85.039284925143505
 21
87.050000000000011
 31
0.0
 12
92.854740994104617
 22
87.050000000000011
 32
0.0
 13
92.854740994104617
 23
87.050000000000011
 33
0.0
  0
SOLID
  5
B8D
  8
0
  6
CONTINUOUS
 10
-83.986698338022705
 20
86.644736842105246
 30
0.0
 11
-84.25
 21
86.644736842105246
 31
0.0
 12
-83.903903725114333
 22
86.612859553628965
 32
0.0
 13
-83.903903725114333
 23
86.612859553628965
 33
0.0
210
0.0
220
0.0
230
-1.0
  0
SOLID
  5
B8E
  8
0
  6
CONTINUOUS
 10
85.039284925143505
 20
87.050000000000011
 30
0.0
 11
83.986698338022705
 21
86.644736842105246
 31
0.0
 12
84.25
 22
86.644736842105246
 32
0.0
 13
84.25
 23
86.644736842105246
 33
0.0
  0
SOLID
  5
B8F
  8
0
  6
CONTINUOUS
 10
-85.039284925143505
 20
87.050000000000011
 30
0.0
 11
-88.650000000000034
 21
87.050000000000011
 31
0.0
 12
-84.25
 22
86.644736842105246
 32
0.0
 13
-84.25
 23
86.644736842105246
 33
0.0
210
0.0
220
0.0
230
-1.0
  0
SOLID
  5
B90
  8
0
  6
CONTINUOUS
 10
-88.650000000000034
 20
86.612859553628965
 30
0.0
 11
-92.180121823092705
 21
86.612859553628965
 31
0.0
 12
-88.650000000000034
 22
84.325407468364091
 32
0.0
 13
-88.650000000000034
 23
84.325407468364091
 33
0.0
210
0.0
220
0.0
230
-1.0
  0
SOLID
  5
B91
  8
0
  6
CONTINUOUS
 10
88.650000000000034
 20
87.050000000000011
 30
0.0
 11
88.650000000000034
 21
86.612859553628965
 31
0.0
 12
92.180121823092705
 22
86.612859553628965
 32
0.0
 13
92.180121823092705
 23
86.612859553628965
 33
0.0
210
0.0
220
0.0
230
1.0
  0
SOLID
  5
B92
  8
0
  6
CONTINUOUS
 10
-88.650000000000034
 20
87.050000000000011
 30
0.0
 11
-92.854740994104617
 21
87.050000000000011
 31
0.0
 12
-92.180121823092705
 22
86.612859553628965
 32
0.0
 13
-92.180121823092705
 23
86.612859553628965
 33
0.0
210
0.0
220
0.0
230
-1.0
  0
SOLID
  5
B93
  8
0
  6
CONTINUOUS
 10
80.348863688340714
 20
82.214578344494925
 30
0.0
 11
80.556101944749983
 21
81.807850365323503
 31
0.0
 12
84.764767462201917
 22
81.807850365323503
 32
0.0
 13
84.764767462201917
 23
81.807850365323503
 33
0.0
210
0.0
220
0.0
230
1.0
  0
SOLID
  5
B94
  8
0
  6
CONTINUOUS
 10
-80.556101944749983
 20
81.807850365323503
 30
0.0
 11
-84.764767462201917
 21
81.807850365323503
 31
0.0
 12
-81.600744692841886
 22
79.757623533418609
 32
0.0
 13
-81.600744692841886
 23
79.757623533418609
 33
0.0
210
0.0
220
0.0
230
-1.0
  0
LINE
  5
B95
  8
0
  6
CONTINUOUS
 10
104.2976467942383
 20
94.464786244139816
 30
0.0
 11
85.039284925143505
 21
87.050000000000011
 31
0.0
  0
LINE
  5
B96
  8
0
  6
CONTINUOUS
 10
92.854740994104617
 20
87.050000000000011
 30
0.0
 11
104.2976467942383
 21
94.464786244139816
 31
0.0
  0
LINE
  5
B97
  8
0
  6
CONTINUOUS
 10
84.25
 20
86.644736842105246
 30
0.0
 11
83.903903725114333
 21
86.612859553628965
 31
0.0
  0
LINE
  5
B98
  8
0
  6
CONTINUOUS
 10
83.903903725114333
 20
86.612859553628965
 30
0.0
 11
83.986698338022705
 21
86.644736842105246
 31
0.0
  0
LINE
  5
B99
  8
0
  6
CONTINUOUS
 10
85.039284925143505
 20
87.050000000000011
 30
0.0
 11
83.986698338022705
 21
86.644736842105246
 31
0.0
  0
LINE
  5
B9A
  8
0
  6
CONTINUOUS
 10
88.650000000000034
 20
87.050000000000011
 30
0.0
 11
84.25
 21
86.644736842105246
 31
0.0
  0
LINE
  5
B9B
  8
0
  6
CONTINUOUS
 10
92.180121823092705
 20
86.612859553628965
 30
0.0
 11
88.650000000000034
 21
84.325407468364091
 31
0.0
  0
LINE
  5
B9C
  8
0
  6
CONTINUOUS
 10
88.650000000000034
 20
84.325407468364091
 30
0.0
 11
88.650000000000034
 21
86.612859553628965
 31
0.0
  0
LINE
  5
B9D
  8
0
  6
CONTINUOUS
 10
88.650000000000034
 20
87.050000000000011
 30
0.0
 11
88.650000000000034
 21
86.612859553628965
 31
0.0
  0
LINE
  5
B9E
  8
0
  6
CONTINUOUS
 10
92.854740994104617
 20
87.050000000000011
 30
0.0
 11
92.180121823092705
 21
86.612859553628965
 31
0.0
  0
LINE
  5
B9F
  8
0
  6
CONTINUOUS
 10
80.348863688340714
 20
82.214578344494925
 30
0.0
 11
80.556101944749983
 21
81.807850365323503
 31
0.0
  0
LINE
  5
BA0
  8
0
  6
CONTINUOUS
 10
84.764767462201917
 20
81.807850365323503
 30
0.0
 11
80.348863688340714
 21
82.214578344494925
 31
0.0
  0
LINE
  5
BA1
  8
0
  6
CONTINUOUS
 10
84.764767462201917
 20
81.807850365323503
 30
0.0
 11
81.600744692841886
 21
79.757623533418609
 31
0.0
  0
LINE
  5
BA2
  8
0
  6
CONTINUOUS
 10
81.600744692841886
 20
79.757623533418609
 30
0.0
 11
80.556101944749983
 21
81.807850365323503
 31
0.0
  0
ENDBLK
  5
BA4
  8
0
  0
ENDSEC
  0
SECTION
  2
ENTITIES
  0
LINE
  5
41
  8
0
 10
84.764767462201917
 20
81.807850365323503
 30
0.0
 11
81.600744692841886
 21
79.757623533418609
 31
0.0
  0
LINE
  5
43
  8
0
 10
83.903903725114191
 20
86.612859553628894
 30
0.0
 11
104.2976467942383
 21
94.464786244139816
 31
0.0
  0
LINE
  5
44
  8
0
 10
86.349999999999966
 20
86.838157894736923
 30
0.0
 11
86.349999999999966
 21
81.661842105263133
 31
0.0
  0
LINE
  5
45
  8
0
 10
86.150000000000034
 20
86.819736842105314
 30
0.0
 11
86.150000000000006
 21
81.680263157894728
 31
0.0
  0
LINE
  5
46
  8
0
 10
82.350000000000023
 20
86.469736842105306
 30
0.0
 11
82.349999999999966
 21
82.030263157894694
 31
0.0
  0
LINE
  5
47
  8
0
 10
82.149999999999977
 20
86.451315789473753
 30
0.0
 11
82.149999999999977
 21
82.048684210526275
 31
0.0
  0
LINE
  5
48
  8
0
 10
81.600744692841886
 20
79.757623533418609
 30
0.0
 11
80.348863688340714
 21
82.214578344494925
 31
0.0
  0
LINE
  5
49
  8
0
 10
104.2976467942383
 20
94.464786244139816
 30
0.0
 11
88.650000000000077
 21
84.325407468364119
 31
0.0
  0
LINE
  5
4B
  8
0
 10
58.249999999999972
 20
84.25
 30
0.0
 11
88.650000000000006
 21
87.050000000000011
 31
0.0
  0
LINE
  5
4C
  8
0
 10
88.650000000000034
 20
81.449999999999989
 30
0.0
 11
58.249999999999972
 21
84.25
 31
0.0
  0
LINE
  5
4D
  8
0
 10
88.650000000000034
 20
87.050000000000011
 30
0.0
 11
88.650000000000034
 21
81.449999999999989
 31
0.0
  0
CIRCLE
  5
4E
  8
0
 10
84.25
 20
84.25
 30
0.0
 40
30.0
  0
CIRCLE
  5
4F
  8
0
 10
84.25
 20
84.25
 30
0.0
 40
34.25
  0
POLYLINE
  5
54
  8
0
 66
     1
 10
0.0
 20
0.0
 30
0.0
 70
     1
 40
1.0
 41
1.0
  0
VERTEX
  5
55
  8
0
 10
84.654508497187493
 20
83.956107373853726
 30
0.0
 42
1.0
  0
VERTEX
  5
56
  8
0
 10
83.845491502812536
 20
84.543892626146203
 30
0.0
 42
1.0
  0
SEQEND
  5
57
  8
0
  0
CIRCLE
  5
58
  8
0
 10
84.25
 20
84.25
 30
0.0
 40
1.0
  0
LINE
  5
59
  8
0
 10
106.0
 20
73.75
 30
0.0
 11
106.0
 21
70.770980054226328
 31
0.0
  0
LINE
  5
5A
  8
0
 10
105.5
 20
73.75
 30
0.0
 11
105.5
 21
70.770980054225106
 31
0.0
  0
LINE
  5
5B
  8
0
 10
62.5
 20
73.75
 30
0.0
 11
62.5
 21
70.770980054225106
 31
0.0
  0
LINE
  5
5C
  8
0
 10
63.0
 20
73.75
 30
0.0
 11
63.0
 21
70.7709800542263
 31
0.0
  0
CIRCLE
  5
5D
  8
0
 10
62.75
 20
72.25
 30
0.0
 40
1.5
  0
CIRCLE
  5
5E
  8
0
 10
105.75
 20
72.25
 30
0.0
 40
1.5
  0
TEXT
  5
5F
  8
0
 10
81.162499999999966
 20
71.75
 30
0.0
 40
1.5
  1
CLAYTON
 41
0.65
  7
06500
 72
     1
 11
84.249999999999972
 21
71.75
 31
0.0
  0
TEXT
  5
60
  8
0
 10
82.611904761904739
 20
91.800000000000196
 30
0.0
 40
2.0
  1
10
 41
0.8
  7
08000
 72
     1
 11
84.249999999999972
 21
91.800000000000196
 31
0.0
  0
TEXT
  5
61
  8
0
 10
83.440476190476161
 20
94.000000000000185
 30
0.0
 40
2.0
  1
1
 72
     1
 11
84.249999999999972
 21
94.000000000000185
 31
0.0
  0
LINE
  5
62
  8
0
 10
85.750000000000014
 20
94.000000000000185
 30
0.0
 11
82.75
 21
94.000000000000185
 31
0.0
  0
LINE
  5
63
  8
0
 10
82.198717948718894
 20
77.185897435898156
 30
0.0
 11
82.937179487180799
 21
77.185897435898156
 31
0.0
  0
LINE
  5
64
  8
0
 10
88.250000000004135
 20
74.314102564101802
 30
0.0
 11
87.429487179490849
 21
74.314102564101802
 31
0.0
  0
LINE
  5
65
  8
0
 10
87.121794871798357
 20
76.570512820513216
 30
0.0
 11
86.62948717949044
 21
76.570512820513216
 31
0.0
  0
ARC
  5
66
  8
0
 10
81.378205128205664
 20
75.442307692307494
 30
0.0
 40
1.1282051282057219
 50
90.0
 51
270.0
  0
LINE
  5
67
  8
0
 10
82.116666666667555
 20
75.832051282051282
 30
0.0
 11
82.116666666667555
 21
76.570512820513216
 31
0.0
  0
ARC
  5
68
  8
0
 10
81.378205128205664
 20
75.442307692307494
 30
0.0
 40
0.389743589743795
 50
90.0
 51
140.83328928387951
  0
LINE
  5
69
  8
0
 10
82.034615384616274
 20
75.196153846153493
 30
0.0
 11
82.034615384616274
 21
75.688461538461468
 31
0.0
  0
LINE
  5
6A
  8
0
 10
81.076032413074003
 20
75.688461538461468
 30
0.0
 11
82.034615384616274
 21
75.688461538461468
 31
0.0
  0
LINE
  5
6B
  8
0
 10
81.076032413074003
 20
75.196153846153493
 30
0.0
 11
82.034615384616274
 21
75.196153846153493
 31
0.0
  0
LINE
  5
6C
  8
0
 10
81.378205128205664
 20
75.832051282051282
 30
0.0
 11
82.116666666667555
 21
75.832051282051282
 31
0.0
  0
LINE
  5
6D
  8
0
 10
81.378205128205664
 20
75.052564102563707
 30
0.0
 11
82.198717948718894
 21
75.052564102563707
 31
0.0
  0
ARC
  5
6E
  8
0
 10
81.378205128205664
 20
75.442307692307494
 30
0.0
 40
0.389743589743795
 50
219.1667107161197
 51
270.0
  0
LINE
  5
6F
  8
0
 10
81.829487179487927
 20
74.314102564101802
 30
0.0
 11
81.378205128205664
 21
74.314102564101802
 31
0.0
  0
LINE
  5
70
  8
0
 10
82.198717948718894
 20
75.442307692307494
 30
0.0
 11
82.198717948718894
 21
77.185897435898156
 31
0.0
  0
LINE
  5
71
  8
0
 10
82.937179487180799
 20
75.442307692307494
 30
0.0
 11
82.937179487180799
 21
77.185897435898156
 31
0.0
  0
ARC
  5
72
  8
0
 10
84.24848225536752
 20
75.363413198801425
 30
0.0
 40
2.0512820512831311
 50
177.79579960996631
 51
210.76639186197551
  0
ARC
  5
73
  8
0
 10
84.370795403781614
 20
75.36139508458848
 30
0.0
 40
1.435897435898192
 50
176.76968023270649
 51
226.8331387399964
  0
LINE
  5
74
  8
0
 10
82.116666666667555
 20
76.570512820513216
 30
0.0
 11
81.378205128205664
 21
76.570512820513216
 31
0.0
  0
LINE
  5
75
  8
0
 10
84.885897435899807
 20
76.570512820513216
 30
0.0
 11
84.147435897437845
 21
76.570512820513216
 31
0.0
  0
LINE
  5
76
  8
0
 10
84.516666666668783
 20
74.314102564101802
 30
0.0
 11
84.147435897437845
 21
74.314102564101802
 31
0.0
  0
ARC
  5
77
  8
0
 10
84.147435897437845
 20
75.442307692307494
 30
0.0
 40
0.389743589743795
 50
219.1667107161197
 51
270.0
  0
LINE
  5
78
  8
0
 10
84.147435897437845
 20
75.052564102563707
 30
0.0
 11
85.234615384617911
 21
75.052564102563707
 31
0.0
  0
LINE
  5
79
  8
0
 10
84.147435897437845
 20
75.832051282051282
 30
0.0
 11
84.885897435899807
 21
75.832051282051282
 31
0.0
  0
LINE
  5
7A
  8
0
 10
83.845263182306255
 20
75.196153846153493
 30
0.0
 11
84.803846153848468
 21
75.196153846153493
 31
0.0
  0
LINE
  5
7B
  8
0
 10
83.845263182306255
 20
75.688461538461468
 30
0.0
 11
84.803846153848468
 21
75.688461538461468
 31
0.0
  0
LINE
  5
7C
  8
0
 10
84.803846153848468
 20
75.196153846153493
 30
0.0
 11
84.803846153848468
 21
75.688461538461468
 31
0.0
  0
ARC
  5
7D
  8
0
 10
84.147435897437845
 20
75.442307692307494
 30
0.0
 40
0.389743589743795
 50
90.0
 51
140.83328928387951
  0
LINE
  5
7E
  8
0
 10
84.885897435899807
 20
75.832051282051282
 30
0.0
 11
84.885897435899807
 21
76.570512820513216
 31
0.0
  0
ARC
  5
7F
  8
0
 10
84.147435897437845
 20
75.442307692307494
 30
0.0
 40
1.1282051282057219
 50
90.0
 51
270.0
  0
LINE
  5
80
  8
0
 10
86.137179487182507
 20
75.832051282051282
 30
0.0
 11
86.137179487182507
 21
76.570512820513216
 31
0.0
  0
LINE
  5
81
  8
0
 10
85.706410256413022
 20
75.832051282051282
 30
0.0
 11
86.137179487182507
 21
75.832051282051282
 31
0.0
  0
ARC
  5
82
  8
0
 10
85.706410256413022
 20
75.832051282051282
 30
0.0
 40
0.7384615384619276
 50
90.0
 51
234.9003678046067
  0
ARC
  5
83
  8
0
 10
85.234615384617911
 20
75.052564102563707
 30
0.0
 40
0.7384615384619276
 50
270.0
 51
54.900367804606283
  0
LINE
  5
84
  8
0
 10
85.624358974361741
 20
75.723869463464723
 30
0.0
 11
85.624358974361741
 21
75.749999999999943
 31
0.0
  0
ARC
  5
85
  8
0
 10
85.706410256413022
 20
75.749999999999943
 30
0.0
 40
0.0820512820513253
 50
90.0
 51
179.9999999999992
  0
ARC
  5
86
  8
0
 10
85.706410256413022
 20
75.723869463464723
 30
0.0
 40
0.0820512820513253
 50
180.0
 51
234.90036780460579
  0
ARC
  5
87
  8
0
 10
85.234615384617911
 20
75.134615384615017
 30
0.0
 40
0.0820512820513253
 50
270.0
 51
0.0
  0
ARC
  5
88
  8
0
 10
85.234615384617911
 20
75.160745921150294
 30
0.0
 40
0.0820512820513253
 50
0.0000000000008142
 51
54.900367804606731
  0
LINE
  5
89
  8
0
 10
82.485897435898508
 20
74.314102564101802
 30
0.0
 11
83.388461538463076
 21
74.314102564101802
 31
0.0
  0
LINE
  5
8A
  8
0
 10
84.885897435899736
 20
75.052564102563707
 30
0.0
 11
84.885897435899736
 21
74.314102564101802
 31
0.0
  0
ARC
  5
8B
  8
0
 10
85.623787199997693
 20
74.693732687180145
 30
0.0
 40
0.8205128205132528
 50
154.06662005680491
 51
177.8608930073419
  0
ARC
  5
8C
  8
0
 10
82.936607712816794
 20
74.693732687180145
 30
0.0
 40
0.8205128205132528
 50
154.06662005680491
 51
177.8608930073419
  0
LINE
  5
8D
  8
0
 10
86.137179487182507
 20
75.832051282051282
 30
0.0
 11
87.080769230772688
 21
75.832051282051282
 31
0.0
  0
LINE
  5
8E
  8
0
 10
88.126923076927113
 20
75.647435897435798
 30
0.0
 11
88.126923076927113
 21
74.642307692307085
 31
0.0
  0
ARC
  5
8F
  8
0
 10
87.133382440618917
 20
75.574355466675684
 30
0.0
 40
0.996224746408062
 50
4.2068467171522617
 51
90.666449776467857
  0
ARC
  5
90
  8
0
 10
85.399289723084593
 20
76.19088269743483
 30
0.0
 40
0.8205128205132528
 50
334.06662005680488
 51
357.86089300734187
  0
ARC
  5
91
  8
0
 10
86.62948717949044
 20
76.160256410256565
 30
0.0
 40
0.4102564102566264
 50
90.0
 51
180.0
  0
LINE
  5
92
  8
0
 10
86.137179487182507
 20
76.570512820513216
 30
0.0
 11
85.706410064739941
 21
76.570512820513216
 31
0.0
  0
ARC
  5
93
  8
0
 10
88.535779955697507
 20
74.608449534666363
 30
0.0
 40
0.4102564102566264
 50
175.2660374531132
 51
225.8460529860543
  0
ARC
  5
94
  8
0
 10
86.896153846157233
 20
75.155128205127852
 30
0.0
 40
0.8410256410260839
 50
140.64330107273861
 51
303.5774873791861
  0
LINE
  5
95
  8
0
 10
86.245861846807287
 20
75.688461538461468
 30
0.0
 11
87.392537110846177
 21
75.688461538461468
 31
0.0
  0
LINE
  5
96
  8
0
 10
86.882950753624073
 20
75.196153846153493
 30
0.0
 11
87.42340088387013
 21
75.196153846153493
 31
0.0
  0
LINE
  5
97
  8
0
 10
85.234615384617911
 20
74.314102564101802
 30
0.0
 11
84.885897435899736
 21
74.314102564101802
 31
0.0
  0
LINE
  5
98
  8
0
 10
85.316666666669263
 20
75.160745921150294
 30
0.0
 11
85.316666666669263
 21
75.134615384615017
 31
0.0
  0
ARC
  5
99
  8
0
 10
87.757656748069877
 20
74.560303815957468
 30
0.0
 40
0.4102564102566264
 50
194.95437033353579
 51
216.87817385345451
  0
ARC
  5
9A
  8
0
 10
87.080769230772745
 20
75.421794871794646
 30
0.0
 40
0.4102564102566264
 50
235.4396782200086
 51
326.63298703076367
  0
ARC
  5
9B
  8
0
 10
87.080769230772745
 20
75.421794871794646
 30
0.0
 40
0.4102564102566264
 50
40.54160187349764
 51
90.0
  0
ARC
  5
9C
  8
0
 10
86.882950753624073
 20
75.134615384615017
 30
0.0
 40
0.061538461538494
 50
90.0
 51
235.439678220009
  0
LINE
  5
9D
  8
0
 10
82.116666666667555
 20
74.724358974358381
 30
0.0
 11
82.116666666667555
 21
74.60128205128143
 31
0.0
  0
ARC
  5
9E
  8
0
 10
81.829487179487927
 20
74.60128205128143
 30
0.0
 40
0.2871794871796385
 50
270.0
 51
0.0
  0
LINE
  5
9F
  8
0
 10
84.803846153848468
 20
74.724358974358324
 30
0.0
 11
84.803846153848468
 21
74.60128205128143
 31
0.0
  0
ARC
  5
A0
  8
0
 10
84.516666666668783
 20
74.60128205128143
 30
0.0
 40
0.2871794871796385
 50
269.9999999999996
 51
0.0
  0
TEXT
  5
A1
  8
0
 10
82.345238095238102
 20
63.5
 30
0.0
 40
4.0
  1
5
 72
     4
 11
84.25
 21
65.5
 31
0.0
  0
TEXT
  5
A2
  8
0
 10
71.419502709992443
 20
97.419068644530071
 30
0.0
 40
4.0
  1
9
 72
     4
 11
73.229026519516253
 21
99.419068644530057
 31
0.0
  0
TEXT
  5
A3
  8
0
 10
64.512928414704035
 20
88.044068644530228
 30
0.0
 40
4.0
  1
8
 72
     4
 11
66.417690319465933
 21
90.044068644530213
 31
0.0
  0
TEXT
  5
A4
  8
0
 10
64.512928414703865
 20
76.455931355469716
 30
0.0
 40
4.0
  1
7
 72
     4
 11
66.417690319465763
 21
78.455931355469716
 31
0.0
  0
TEXT
  5
A5
  8
0
 10
71.06175381033475
 20
67.889948349844701
 30
0.0
 40
4.0
  1
6
 72
     4
 11
73.06175381033475
 21
69.889948349844701
 31
0.0
  0
TEXT
  5
A6
  8
0
 10
93.270973480483633
 20
67.080931355470014
 30
0.0
 40
4.0
  1
4
 72
     4
 11
95.270973480483619
 21
69.080931355470014
 31
0.0
  0
TEXT
  5
A7
  8
0
 10
100.1775477757722
 20
76.455931355469716
 30
0.0
 40
4.0
  1
3
 72
     4
 11
102.0823096805341
 21
78.455931355469716
 31
0.0
  0
TEXT
  5
A8
  8
0
 10
100.1775477757724
 20
88.044068644530284
 30
0.0
 40
4.0
  1
2
 72
     4
 11
102.08230968053429
 21
90.044068644530284
 31
0.0
  0
TEXT
  5
A9
  8
0
 10
93.651925861436212
 20
97.419068644530284
 30
0.0
 40
4.0
  1
1
 72
     4
 11
95.270973480483846
 21
99.419068644530284
 31
0.0
  0
TEXT
  5
AA
  8
0
 10
82.345238095238102
 20
101.0
 30
0.0
 40
4.0
  1
0
 72
     4
 11
84.25
 21
103.0
 31
0.0
  0
LINE
  5
AB
  8
3
 10
102.4597012959816
 20
97.480122413804949
 30
0.0
 11
108.5205098312484
 21
101.88355756877409
 31
0.0
  0
LINE
  5
AC
  8
0
 10
97.475168176580695
 20
102.4528823734363
 30
0.0
 11
101.88355756877419
 21
108.5205098312484
 31
0.0
  0
LINE
  5
AD
  8
3
 10
106.75
 20
84.25
 30
0.0
 11
114.25
 21
84.25
 31
0.0
  0
LINE
  5
AE
  8
0
 10
105.6487716166409
 20
91.202882373436296
 30
0.0
 11
112.7816954888546
 21
93.520509831248432
 31
0.0
  0
LINE
  5
AF
  8
3
 10
102.4528823734364
 20
71.024831823419234
 30
0.0
 11
108.5205098312485
 21
66.616442431225721
 31
0.0
  0
LINE
  5
B0
  8
0
 10
105.6487716166408
 20
77.297117626563704
 30
0.0
 11
112.7816954888546
 21
74.979490168751568
 31
0.0
  0
LINE
  5
B1
  8
3
 10
91.202882373436296
 20
62.85122838335905
 30
0.0
 11
93.520509831248404
 21
55.718304511145391
 31
0.0
  0
LINE
  5
B2
  8
0
 10
97.475168176580695
 20
66.047117626563619
 30
0.0
 11
101.88355756877409
 21
59.979490168751617
 31
0.0
  0
LINE
  5
B3
  8
3
 10
77.297117626563633
 20
62.851228383359
 30
0.0
 11
74.979490168751568
 21
55.718304511145391
 31
0.0
  0
LINE
  5
B4
  8
0
 10
84.25
 20
61.75
 30
0.0
 11
84.25
 21
54.25
 31
0.0
  0
LINE
  5
B5
  8
3
 10
66.047117626563761
 20
71.02483182341939
 30
0.0
 11
59.979490168751653
 21
66.616442431225892
 31
0.0
  0
LINE
  5
B6
  8
0
 10
71.024831823419362
 20
66.047117626563733
 30
0.0
 11
66.616442431225835
 21
59.979490168751617
 31
0.0
  0
LINE
  5
B7
  8
3
 10
58.250000000000099
 20
84.25
 30
0.0
 11
54.25
 21
84.25
 31
0.0
  0
LINE
  5
B8
  8
0
 10
62.85122838335905
 20
77.297117626563704
 30
0.0
 11
55.718304511145327
 21
74.979490168751525
 31
0.0
  0
LINE
  5
B9
  8
3
 10
66.047117626563534
 20
97.475168176580723
 30
0.0
 11
59.979490168751603
 21
101.88355756877409
 31
0.0
  0
LINE
  5
BA
  8
0
 10
62.851228383358972
 20
91.202882373436339
 30
0.0
 11
55.718304511145398
 21
93.520509831248432
 31
0.0
  0
LINE
  5
BB
  8
3
 10
77.297117626563704
 20
105.6487716166409
 30
0.0
 11
74.979490168751525
 21
112.78169548885469
 31
0.0
  0
LINE
  5
BC
  8
0
 10
71.024831823419404
 20
102.4528823734362
 30
0.0
 11
66.616442431225764
 21
108.5205098312485
 31
0.0
  0
LINE
  5
BD
  8
0
 10
84.25
 20
106.75
 30
0.0
 11
84.25
 21
114.25
 31
0.0
  0
LINE
  5
BE
  8
3
 10
91.202882373436296
 20
105.6487716166409
 30
0.0
 11
93.520509831248404
 21
112.7816954888545
 31
0.0
  0
LINE
  5
CF
  8
1
 10
84.25
 20
123.5
 30
0.0
 11
84.25
 21
45.0
 31
0.0
  0
LINE
  5
D0
  8
1
 10
123.5
 20
84.25
 30
0.0
 11
45.0
 21
84.25
 31
0.0
  0
LINE
  5
DA
  8
0
 10
173.44999999999999
 20
51.000000000000028
 30
0.0
 11
173.44999999999999
 21
117.5
 31
0.0
  0
LINE
  5
DB
  8
0
 10
174.44999999999999
 20
118.5
 30
0.0
 11
180.4499999999999
 21
118.5
 31
0.0
  0
LINE
  5
DC
  8
0
 10
205.44999999999999
 20
115.75
 30
0.0
 11
205.44999999999999
 21
52.75
 31
0.0
  0
LINE
  5
DD
  8
0
 10
180.4499999999999
 20
50.0
 30
0.0
 11
174.44999999999999
 21
50.000000000000028
 31
0.0
  0
LINE
  5
DE
  8
1
 10
168.44999999999999
 20
84.25
 30
0.0
 11
210.44999999999999
 21
84.249999999999986
 31
0.0
  0
LINE
  5
DF
  8
0
 10
180.44999999999999
 20
50.0
 30
0.0
 11
180.44999999999999
 21
118.5
 31
0.0
  0
LINE
  5
E0
  8
0
 10
180.4499999999999
 20
117.75
 30
0.0
 11
203.44999999999999
 21
117.75
 31
0.0
  0
LINE
  5
E1
  8
0
 10
180.4499999999999
 20
50.75
 30
0.0
 11
203.44999999999999
 21
50.75
 31
0.0
  0
ARC
  5
F0
  8
0
 10
174.44999999999999
 20
117.5
 30
0.0
 40
1.0
 50
90.0
 51
180.0
  0
ARC
  5
F1
  8
0
 10
174.44999999999999
 20
51.000000000000028
 30
0.0
 40
1.0
 50
180.0
 51
270.0
  0
ARC
  5
F2
  8
0
 10
203.44999999999999
 20
115.75
 30
0.0
 40
2.0
 50
0.0
 51
90.0
  0
ARC
  5
F3
  8
0
 10
203.44999999999999
 20
52.75
 30
0.0
 40
2.0
 50
270.0
 51
0.0
  0
TEXT
  5
242
  8
0
 62
     3
 10
0.0
 20
0.0
 30
0.0
 40
10.0
  1
PD70R-1/10
  7
STANDARD1
  0
INSERT
  5
8C9
  8
0
  6
CONTINUOUS
  2
*U0
 10
0.0
 20
0.0
 30
0.0
1001
GRADIENTCOLOR1ACI
1070
     5
1001
GRADIENTCOLOR2ACI
1070
     2
1001
ACAD
1002
{
1000
R14_HATCH_DATA
1000
8C9
1011
1.0
1021
0.0
1031
0.0
1021
0.0
1031
0.0
1011
0.0
1021
0.0
1031
0.0
1021
1.0
1031
0.0
1011
0.0
1021
0.0
1031
0.0
1021
0.0
1031
1.0
1040
0.0
1010
0.0
1020
0.0
1030
1.0
1000
SOLID
1070
     1
1070
     0
1071
        2
1071
        1
1071
        5
1070
     1
1040
104.2976467942383
1040
94.464786244139816
1040
83.903903725114333
1040
86.612859553628965
1070
     1
1040
83.903903725114333
1040
86.612859553628965
1040
84.25
1040
86.644736842105246
1070
     1
1040
84.25
1040
86.644736842105246
1040
88.650000000000034
1040
87.050000000000011
1070
     1
1040
88.650000000000034
1040
87.050000000000011
1040
88.650000000000034
1040
84.325407468364091
1070
     1
1040
88.650000000000034
1040
84.325407468364091
1040
104.2976467942383
1040
94.464786244139816
1071
        0
1071
        1
1071
        3
1070
     1
1040
84.764767462201917
1040
81.807850365323503
1040
80.348863688340714
1040
82.214578344494925
1070
     1
1040
80.348863688340714
1040
82.214578344494925
1040
81.600744692841886
1040
79.757623533418609
1070
     1
1040
81.600744692841886
1040
79.757623533418609
1040
84.764767462201917
1040
81.807850365323503
1071
        0
1070
     1
1070
     1
1071
        2
1040
90.809271707334347
1040
87.689939084902775
1040
0.0
1040
82.496556974689838
1040
81.26649862649856
1040
0.0
1002
}
  0
ENDSEC
  0
EOF
