  0
SECTION
  2
HEADER
  9
$ACADVER
  1
AC1009
  9
$INSBASE
 10
0.0
 20
0.0
 30
0.0
  9
$EXTMIN
 10
0.0
 20
-2.960436562073669
 30
0.0
  9
$EXTMAX
 10
210.4500000000001
 20
123.5
 30
0.0
  9
$LIMMIN
 10
0.0
 20
0.0
  9
$LIMMAX
 10
375.0
 20
270.0
  9
$ORTHOMODE
 70
     1
  9
$REGENMODE
 70
     1
  9
$FILLMODE
 70
     1
  9
$QTEXTMODE
 70
     0
  9
$MIRRTEXT
 70
     0
  9
$DRAGMODE
 70
     2
  9
$LTSCALE
 40
10.0
  9
$OSMODE
 70
    37
  9
$ATTMODE
 70
     1
  9
$TEXTSIZE
 40
2.0
  9
$TRACEWID
 40
0.05
  9
$TEXTSTYLE
  7
K50
  9
$CLAYER
  8
0
  9
$CELTYPE
  6
BYLAYER
  9
$CECOLOR
 62
   256
  9
$DIMSCALE
 40
1.0
  9
$DIMASZ
 40
3.0
  9
$DIMEXO
 40
2.0
  9
$DIMDLI
 40
0.38
  9
$DIMRND
 40
0.0
  9
$DIMDLE
 40
0.0
  9
$DIMEXE
 40
2.0
  9
$DIMTP
 40
0.0
  9
$DIMTM
 40
0.0
  9
$DIMTXT
 40
3.2000000000000002
  9
$DIMCEN
 40
0.0
  9
$DIMTSZ
 40
0.0
  9
$DIMTOL
 70
     0
  9
$DIMLIM
 70
     0
  9
$DIMTIH
 70
     0
  9
$DIMTOH
 70
     0
  9
$DIMSE1
 70
     0
  9
$DIMSE2
 70
     0
  9
$DIMTAD
 70
     1
  9
$DIMZIN
 70
     8
  9
$DIMBLK
  1

  9
$DIMASO
 70
     0
  9
$DIMSHO
 70
     0
  9
$DIMPOST
  1

  9
$DIMAPOST
  1

  9
$DIMALT
 70
     0
  9
$DIMALTD
 70
     2
  9
$DIMALTF
 40
25.399999999999999
  9
$DIMLFAC
 40
1.0
  9
$DIMTOFL
 70
     1
  9
$DIMTVP
 40
1.6000000000000001
  9
$DIMTIX
 70
     0
  9
$DIMSOXD
 70
     0
  9
$DIMSAH
 70
     0
  9
$DIMBLK1
  1

  9
$DIMBLK2
  1

  9
$DIMSTYLE
  2
STANDARD
  9
$DIMCLRD
 70
   256
  9
$DIMCLRE
 70
   256
  9
$DIMCLRT
 70
   256
  9
$DIMTFAC
 40
1.0
  9
$DIMGAP
 40
0.5
  9
$LUNITS
 70
     2
  9
$LUPREC
 70
     1
  9
$SKETCHINC
 40
0.1
  9
$FILLETRAD
 40
0.0
  9
$AUNITS
 70
     0
  9
$AUPREC
 70
     1
  9
$MENU
  1
E:\r13\win\SUPPORT\ACAD
  9
$ELEVATION
 40
0.0
  9
$PELEVATION
 40
0.0
  9
$THICKNESS
 40
0.0
  9
$LIMCHECK
 70
     0
  9
$BLIPMODE
 70
     0
  9
$CHAMFERA
 40
0.0
  9
$CHAMFERB
 40
0.0
  9
$SKPOLY
 70
     0
  9
$TDCREATE
 40
2449839.7913078712
  9
$TDUPDATE
 40
2457897.409076713
  9
$TDINDWG
 40
0.0453066435
  9
$TDUSRTIMER
 40
0.0453066435
  9
$USRTIMER
 70
     1
  9
$ANGBASE
 50
0.0
  9
$ANGDIR
 70
     0
  9
$PDMODE
 70
     0
  9
$PDSIZE
 40
0.0
  9
$PLINEWID
 40
0.0
  9
$COORDS
 70
     1
  9
$SPLFRAME
 70
     0
  9
$SPLINETYPE
 70
     6
  9
$SPLINESEGS
 70
     8
  9
$ATTDIA
 70
     0
  9
$ATTREQ
 70
     1
  9
$HANDLING
 70
     1
  9
$HANDSEED
  5
656
  9
$SURFTAB1
 70
     6
  9
$SURFTAB2
 70
     6
  9
$SURFTYPE
 70
     6
  9
$SURFU
 70
     6
  9
$SURFV
 70
     6
  9
$UCSNAME
  2

  9
$UCSORG
 10
0.0
 20
0.0
 30
0.0
  9
$UCSXDIR
 10
1.0
 20
0.0
 30
0.0
  9
$UCSYDIR
 10
0.0
 20
1.0
 30
0.0
  9
$PUCSNAME
  2

  9
$PUCSORG
 10
0.0
 20
0.0
 30
0.0
  9
$PUCSXDIR
 10
1.0
 20
0.0
 30
0.0
  9
$PUCSYDIR
 10
0.0
 20
1.0
 30
0.0
  9
$USERI1
 70
     0
  9
$USERI2
 70
     1
  9
$USERI3
 70
     0
  9
$USERI4
 70
     0
  9
$USERI5
 70
     0
  9
$USERR1
 40
0.0
  9
$USERR2
 40
0.0
  9
$USERR3
 40
0.0
  9
$USERR4
 40
0.0
  9
$USERR5
 40
0.0
  9
$WORLDVIEW
 70
     1
  9
$SHADEDGE
 70
     3
  9
$SHADEDIF
 70
    70
  9
$TILEMODE
 70
     1
  9
$MAXACTVP
 70
    16
  9
$PLIMCHECK
 70
     0
  9
$PEXTMIN
 10
1.0000000000000000E+020
 20
1.0000000000000000E+020
 30
1.0000000000000000E+020
  9
$PEXTMAX
 10
-1.0000000000000000E+020
 20
-1.0000000000000000E+020
 30
-1.0000000000000000E+020
  9
$PLIMMIN
 10
0.0
 20
0.0
  9
$PLIMMAX
 10
12.0
 20
9.0
  9
$UNITMODE
 70
     0
  9
$VISRETAIN
 70
     0
  9
$PLINEGEN
 70
     0
  9
$PSLTSCALE
 70
     0
  0
ENDSEC
  0
SECTION
  2
TABLES
  0
TABLE
  2
VPORT
 70
     1
  0
VPORT
  2
*ACTIVE
 70
     0
 10
0.0
 20
0.0
 11
1.0
 21
1.0
 12
172.54273504273499
 22
95.0
 13
0.0
 23
0.0
 14
10.0
 24
10.0
 15
10.0
 25
10.0
 16
0.0
 26
0.0
 36
1.0
 17
0.0
 27
0.0
 37
0.0
 40
190.0
 41
1.816239316239316
 42
50.0
 43
0.0
 44
0.0
 50
0.0
 51
0.0
 71
     0
 72
   500
 73
     1
 74
     0
 75
     0
 76
     0
 77
     0
 78
     2
  0
ENDTAB
  0
TABLE
  2
LTYPE
 70
     3
  0
LTYPE
  2
CONTINUOUS
 70
     0
  3
Solid Line
 72
    65
 73
     0
 40
0.0
  0
LTYPE
  2
CENTER
 70
     0
  3
____ _ ____ _ ____ _ ____ _ ____ _ ____ _ ____
 72
    65
 73
     4
 40
2.0
 49
1.25
 49
-0.25
 49
0.25
 49
-0.25
  0
LTYPE
  2
PHANTOM2
 70
     0
  3
___ _ _ ___ _ _ ___ _ _ ___ _ _
 72
    65
 73
     6
 40
1.25
 49
0.625
 49
-0.125
 49
0.125
 49
-0.125
 49
0.125
 49
-0.125
  0
ENDTAB
  0
TABLE
  2
LAYER
 70
     4
  0
LAYER
  2
0
 70
     0
 62
     7
  6
CONTINUOUS
  0
LAYER
  2
1
 70
     0
 62
     1
  6
CENTER
  0
LAYER
  2
3
 70
     0
 62
     3
  6
CONTINUOUS
  0
LAYER
  2
DEFPOINTS
 70
     0
 62
     7
  6
CONTINUOUS
  0
ENDTAB
  0
TABLE
  2
STYLE
 70
     6
  0
STYLE
  2
STANDARD
 70
     0
 40
0.0
 41
1.0
 50
0.0
 71
     0
 42
4.000000000000048
  3
romans.shx
  4

  0
STYLE
  2
06500
 70
     0
 40
0.0
 41
1.0
 50
0.0
 71
     0
 42
1.0
  3
romans.shx
  4

  0
STYLE
  2
08000
 70
     0
 40
0.0
 41
1.0
 50
0.0
 71
     0
 42
2.0
  3
romans.shx
  4

  0
STYLE
  2
07500
 70
     0
 40
0.0
 41
1.0
 50
0.0
 71
     0
 42
3.0000000000000502
  3
romans.shx
  4

  0
STYLE
  2
K50
 70
     0
 40
0.0
 41
1.0
 50
0.0
 71
     0
 42
2.0
  3
romans.shx
  4

  0
STYLE
  2
STANDARD1
 70
     0
 40
0.0
 41
1.0
 50
0.0
 71
     0
 42
3.0
  3
txt
  4

  0
ENDTAB
  0
TABLE
  2
VIEW
 70
     1
  0
VIEW
  2
ALL
 70
     0
 40
270.0
 10
220.99159663865549
 20
135.0
 41
0.0
 11
0.0
 21
0.0
 31
1.0
 12
0.0
 22
0.0
 32
0.0
 42
0.0
 43
0.0
 44
0.0
 50
0.0
 71
     0
  0
ENDTAB
  0
TABLE
  2
UCS
 70
     0
  0
ENDTAB
  0
TABLE
  2
APPID
 70
    14
  0
APPID
  2
ACAD
 70
     0
  0
APPID
  2
ACAD_MLEADERVER
 70
     0
  0
APPID
  2
ACAD_DSTYLE_DIMJAG
 70
     0
  0
APPID
  2
ACAD_DSTYLE_DIMTALN
 70
     0
  0
APPID
  2
ACAD_EXEMPT_FROM_CAD_STANDARDS
 70
     0
  0
APPID
  2
ACAD_NAV_VCDISPLAY
 70
     0
  0
APPID
  2
GENIUS_GENODEF_13
 70
     0
  0
APPID
  2
GENIUS_GENOBJ-N-FIL_13
 70
     0
  0
APPID
  2
GENIUS_GENOREF_13
 70
     0
  0
APPID
  2
ACAD_PSEXT
 70
     0
  0
APPID
  2
ACAD_DSTYLE_DIMRADIAL_EXTENSION
 70
     0
  0
APPID
  2
GRADIENTCOLOR1ACI
 70
     0
  0
APPID
  2
GRADIENTCOLOR2ACI
 70
     0
  0
APPID
  2
ACADANNOMONITORALERTICONDI
 70
     0
  0
ENDTAB
  0
TABLE
  2
DIMSTYLE
 70
     1
  0
DIMSTYLE
  2
STANDARD
 70
     0
  3

  4

  5

  6

  7

 40
1.0
 41
0.18
 42
0.0625
 43
0.38
 44
0.18
 45
0.0
 46
0.0
 47
0.0
 48
0.0
140
0.18
141
0.09
142
0.0
143
25.399999999999999
144
1.0
145
0.0
146
1.0
147
0.09
 71
     0
 72
     0
 73
     1
 74
     1
 75
     0
 76
     0
 77
     0
 78
     0
170
     0
171
     2
172
     0
173
     0
174
     0
175
     0
176
     0
177
     0
178
     0
  0
ENDTAB
  0
ENDSEC
  0
SECTION
  2
BLOCKS
  0
BLOCK
  8
0
  2
$MODEL_SPACE
 70
     0
 10
0.0
 20
0.0
 30
0.0
  3
$MODEL_SPACE
  1

  0
ENDBLK
  5
171
  8
0
  0
BLOCK
 67
     1
  8
0
  2
$PAPER_SPACE
 70
     0
 10
0.0
 20
0.0
 30
0.0
  3
$PAPER_SPACE
  1

  0
ENDBLK
  5
16F
 67
     1
  8
0
  0
ENDSEC
  0
SECTION
  2
ENTITIES
  0
LINE
  5
60
  8
1
 10
84.25
 20
123.5
 30
0.0
 11
84.25
 21
45.0
 31
0.0
  0
LINE
  5
61
  8
1
 10
123.5
 20
84.25
 30
0.0
 11
45.0
 21
84.25
 31
0.0
  0
ARC
  5
62
  8
0
 10
84.516666666668812
 20
74.60128205128143
 30
0.0
 40
0.2871794871796385
 50
270.0
 51
0.0
  0
LINE
  5
63
  8
0
 10
84.80384615384844
 20
74.724358974358324
 30
0.0
 11
84.80384615384844
 21
74.60128205128143
 31
0.0
  0
ARC
  5
64
  8
0
 10
81.829487179487955
 20
74.60128205128143
 30
0.0
 40
0.2871794871796385
 50
270.0
 51
0.0
  0
LINE
  5
65
  8
0
 10
82.116666666667584
 20
74.724358974358381
 30
0.0
 11
82.116666666667584
 21
74.60128205128143
 31
0.0
  0
ARC
  5
66
  8
0
 10
86.882950753624073
 20
75.134615384615017
 30
0.0
 40
0.061538461538494
 50
90.0
 51
235.4396782200094
  0
ARC
  5
67
  8
0
 10
87.080769230772717
 20
75.421794871794646
 30
0.0
 40
0.4102564102566264
 50
40.541601873498578
 51
90.0
  0
ARC
  5
68
  8
0
 10
87.080769230772717
 20
75.421794871794646
 30
0.0
 40
0.4102564102566264
 50
235.4396782200094
 51
326.6329870307635
  0
ARC
  5
69
  8
0
 10
87.757656748069849
 20
74.560303815957468
 30
0.0
 40
0.4102564102566264
 50
194.95437033353591
 51
216.8781738534538
  0
LINE
  5
6A
  8
0
 10
85.316666666669263
 20
75.160745921150294
 30
0.0
 11
85.316666666669263
 21
75.134615384615017
 31
0.0
  0
LINE
  5
6B
  8
0
 10
85.234615384617882
 20
74.314102564101802
 30
0.0
 11
84.885897435899778
 21
74.314102564101802
 31
0.0
  0
LINE
  5
6C
  8
0
 10
86.882950753624073
 20
75.196153846153493
 30
0.0
 11
87.423400883870144
 21
75.196153846153493
 31
0.0
  0
LINE
  5
6D
  8
0
 10
86.245861846807315
 20
75.688461538461468
 30
0.0
 11
87.392537110846206
 21
75.688461538461468
 31
0.0
  0
ARC
  5
6E
  8
0
 10
86.896153846157233
 20
75.15512820512788
 30
0.0
 40
0.8410256410260839
 50
140.64330107273929
 51
303.57748737918729
  0
ARC
  5
6F
  8
0
 10
88.535779955697535
 20
74.608449534666363
 30
0.0
 40
0.4102564102566264
 50
175.2660374531124
 51
225.84605298605419
  0
LINE
  5
70
  8
0
 10
86.137179487182493
 20
76.570512820513216
 30
0.0
 11
85.706410064739941
 21
76.570512820513216
 31
0.0
  0
ARC
  5
71
  8
0
 10
86.629487179490397
 20
76.160256410256565
 30
0.0
 40
0.4102564102566264
 50
90.0
 51
180.0
  0
ARC
  5
72
  8
0
 10
85.399289723084621
 20
76.190882697434844
 30
0.0
 40
0.8205128205132528
 50
334.06662005680579
 51
357.86089300734108
  0
ARC
  5
73
  8
0
 10
87.133382440618902
 20
75.574355466675684
 30
0.0
 40
0.996224746408062
 50
4.2068467171522643
 51
90.666449776468227
  0
LINE
  5
74
  8
0
 10
88.126923076927142
 20
75.647435897435798
 30
0.0
 11
88.126923076927142
 21
74.642307692307085
 31
0.0
  0
LINE
  5
75
  8
0
 10
86.137179487182493
 20
75.832051282051282
 30
0.0
 11
87.080769230772717
 21
75.832051282051282
 31
0.0
  0
ARC
  5
76
  8
0
 10
82.936607712816794
 20
74.693732687180145
 30
0.0
 40
0.8205128205132528
 50
154.0666200568057
 51
177.86089300734099
  0
ARC
  5
77
  8
0
 10
85.623787199997693
 20
74.693732687180145
 30
0.0
 40
0.8205128205132528
 50
154.0666200568057
 51
177.86089300734099
  0
LINE
  5
78
  8
0
 10
84.885897435899778
 20
75.052564102563679
 30
0.0
 11
84.885897435899778
 21
74.314102564101802
 31
0.0
  0
LINE
  5
79
  8
0
 10
82.485897435898551
 20
74.314102564101802
 30
0.0
 11
83.388461538463034
 21
74.314102564101802
 31
0.0
  0
ARC
  5
7A
  8
0
 10
85.234615384617882
 20
75.160745921150294
 30
0.0
 40
0.0820512820513253
 50
0.0
 51
54.900367804606518
  0
ARC
  5
7B
  8
0
 10
85.234615384617882
 20
75.134615384615017
 30
0.0
 40
0.0820512820513253
 50
270.0
 51
0.0
  0
ARC
  5
7C
  8
0
 10
85.706410256413065
 20
75.723869463464723
 30
0.0
 40
0.0820512820513253
 50
180.0
 51
234.9003678046065
  0
ARC
  5
7D
  8
0
 10
85.706410256413065
 20
75.749999999999943
 30
0.0
 40
0.0820512820513253
 50
90.0
 51
180.0
  0
LINE
  5
7E
  8
0
 10
85.624358974361726
 20
75.723869463464723
 30
0.0
 11
85.624358974361726
 21
75.749999999999943
 31
0.0
  0
ARC
  5
7F
  8
0
 10
85.234615384617882
 20
75.052564102563679
 30
0.0
 40
0.7384615384619276
 50
270.0
 51
54.900367804606518
  0
ARC
  5
80
  8
0
 10
85.706410256413065
 20
75.832051282051282
 30
0.0
 40
0.7384615384619276
 50
90.0
 51
234.9003678046065
  0
LINE
  5
81
  8
0
 10
85.706410256413065
 20
75.832051282051282
 30
0.0
 11
86.137179487182493
 21
75.832051282051282
 31
0.0
  0
LINE
  5
82
  8
0
 10
86.137179487182493
 20
75.832051282051282
 30
0.0
 11
86.137179487182493
 21
76.570512820513216
 31
0.0
  0
ARC
  5
83
  8
0
 10
84.147435897437845
 20
75.442307692307494
 30
0.0
 40
1.1282051282057219
 50
90.0
 51
270.0
  0
LINE
  5
84
  8
0
 10
84.885897435899778
 20
75.832051282051282
 30
0.0
 11
84.885897435899778
 21
76.570512820513216
 31
0.0
  0
ARC
  5
85
  8
0
 10
84.147435897437845
 20
75.442307692307494
 30
0.0
 40
0.389743589743795
 50
90.0
 51
140.83328928388059
  0
LINE
  5
86
  8
0
 10
84.80384615384844
 20
75.196153846153493
 30
0.0
 11
84.80384615384844
 21
75.688461538461468
 31
0.0
  0
LINE
  5
87
  8
0
 10
83.845263182306212
 20
75.688461538461468
 30
0.0
 11
84.80384615384844
 21
75.688461538461468
 31
0.0
  0
LINE
  5
88
  8
0
 10
83.845263182306212
 20
75.196153846153493
 30
0.0
 11
84.80384615384844
 21
75.196153846153493
 31
0.0
  0
LINE
  5
89
  8
0
 10
84.147435897437845
 20
75.832051282051282
 30
0.0
 11
84.885897435899778
 21
75.832051282051282
 31
0.0
  0
LINE
  5
8A
  8
0
 10
84.147435897437845
 20
75.052564102563679
 30
0.0
 11
85.234615384617882
 21
75.052564102563679
 31
0.0
  0
ARC
  5
8B
  8
0
 10
84.147435897437845
 20
75.442307692307494
 30
0.0
 40
0.389743589743795
 50
219.1667107161193
 51
270.0
  0
LINE
  5
8C
  8
0
 10
84.516666666668812
 20
74.314102564101802
 30
0.0
 11
84.147435897437845
 21
74.314102564101802
 31
0.0
  0
LINE
  5
8D
  8
0
 10
84.885897435899778
 20
76.570512820513216
 30
0.0
 11
84.147435897437845
 21
76.570512820513216
 31
0.0
  0
LINE
  5
8E
  8
0
 10
82.116666666667584
 20
76.570512820513216
 30
0.0
 11
81.378205128205664
 21
76.570512820513216
 31
0.0
  0
ARC
  5
8F
  8
0
 10
84.370795403781585
 20
75.36139508458848
 30
0.0
 40
1.435897435898192
 50
176.76968023270729
 51
226.83313873999651
  0
ARC
  5
90
  8
0
 10
84.248482255367534
 20
75.363413198801425
 30
0.0
 40
2.0512820512831311
 50
177.79579960996631
 51
210.76639186197639
  0
LINE
  5
91
  8
0
 10
82.937179487180799
 20
75.442307692307494
 30
0.0
 11
82.937179487180799
 21
77.185897435898141
 31
0.0
  0
LINE
  5
92
  8
0
 10
82.198717948718922
 20
75.442307692307494
 30
0.0
 11
82.198717948718922
 21
77.185897435898141
 31
0.0
  0
LINE
  5
93
  8
0
 10
81.829487179487955
 20
74.314102564101802
 30
0.0
 11
81.378205128205664
 21
74.314102564101802
 31
0.0
  0
ARC
  5
94
  8
0
 10
81.378205128205664
 20
75.442307692307494
 30
0.0
 40
0.389743589743795
 50
219.1667107161193
 51
270.0
  0
LINE
  5
95
  8
0
 10
81.378205128205664
 20
75.052564102563679
 30
0.0
 11
82.198717948718922
 21
75.052564102563679
 31
0.0
  0
LINE
  5
96
  8
0
 10
81.378205128205664
 20
75.832051282051282
 30
0.0
 11
82.116666666667584
 21
75.832051282051282
 31
0.0
  0
LINE
  5
97
  8
0
 10
81.076032413074003
 20
75.196153846153493
 30
0.0
 11
82.034615384616245
 21
75.196153846153493
 31
0.0
  0
LINE
  5
98
  8
0
 10
81.076032413074003
 20
75.688461538461468
 30
0.0
 11
82.034615384616245
 21
75.688461538461468
 31
0.0
  0
LINE
  5
99
  8
0
 10
82.034615384616245
 20
75.196153846153493
 30
0.0
 11
82.034615384616245
 21
75.688461538461468
 31
0.0
  0
ARC
  5
9A
  8
0
 10
81.378205128205664
 20
75.442307692307494
 30
0.0
 40
0.389743589743795
 50
90.0
 51
140.83328928388059
  0
LINE
  5
9B
  8
0
 10
82.116666666667584
 20
75.832051282051282
 30
0.0
 11
82.116666666667584
 21
76.570512820513216
 31
0.0
  0
ARC
  5
9C
  8
0
 10
81.378205128205664
 20
75.442307692307494
 30
0.0
 40
1.1282051282057219
 50
90.0
 51
270.0
  0
LINE
  5
9D
  8
0
 10
87.121794871798329
 20
76.570512820513216
 30
0.0
 11
86.629487179490397
 21
76.570512820513216
 31
0.0
  0
LINE
  5
9E
  8
0
 10
88.250000000004093
 20
74.314102564101802
 30
0.0
 11
87.429487179490806
 21
74.314102564101802
 31
0.0
  0
LINE
  5
9F
  8
0
 10
82.198717948718922
 20
77.185897435898141
 30
0.0
 11
82.937179487180799
 21
77.185897435898141
 31
0.0
  0
TEXT
  5
A0
  8
0
 10
81.162499999999994
 20
71.75
 30
0.0
 40
1.5
  1
CLAYTON
 41
0.65
  7
06500
 72
     1
 11
84.25
 21
71.75
 31
0.0
  0
LINE
  5
A1
  8
0
 10
89.455473481668719
 20
83.928992474162953
 30
0.0
 11
63.215558146251389
 21
99.532416559604314
 31
0.0
  0
LINE
  5
A2
  8
0
 10
63.215558146251389
 20
99.532416559604314
 30
0.0
 11
86.163876068830845
 21
79.398497305663227
 31
0.0
  0
CIRCLE
  5
A3
  8
0
 10
84.25
 20
84.25
 30
0.0
 40
1.0
  0
POLYLINE
  5
A4
  8
0
 66
     1
 10
0.0
 20
0.0
 30
0.0
 70
     1
 40
1.0
 41
1.0
  0
VERTEX
  5
A5
  8
0
 10
84.749999999999986
 20
84.25
 30
0.0
 42
-1.0
  0
VERTEX
  5
A6
  8
0
 10
83.75
 20
84.25
 30
0.0
 42
-1.0
  0
SEQEND
  5
A7
  8
0
  0
LINE
  5
A8
  8
0
 10
86.163876068830845
 20
79.398497305663227
 30
0.0
 11
89.455473481668719
 21
83.928992474162953
 31
0.0
  0
LINE
  5
A9
  8
0
 10
88.513217387845657
 20
87.254160033015921
 30
0.0
 11
84.810141231765897
 21
86.691314234217444
 31
0.0
  0
LINE
  5
AA
  8
0
 10
61.77497781335569
 20
83.190104859033056
 30
0.0
 11
83.227481067884284
 21
81.974770653722587
 31
0.0
  0
LINE
  5
AB
  8
0
 10
88.777013511819632
 20
81.660376733228929
 30
0.0
 11
88.717902925211547
 21
82.913813695183421
 31
0.0
  0
LINE
  5
AC
  8
0
 10
81.257163355121406
 20
83.703447146144015
 30
0.0
 11
83.84496526850387
 21
87.265250913484351
 31
0.0
  0
LINE
  5
AD
  8
0
 10
81.40813913092785
 20
83.570987151052364
 30
0.0
 11
84.017596290447386
 21
87.162596807659042
 31
0.0
  0
LINE
  5
AE
  8
0
 10
84.276678871250283
 20
81.054247244309636
 30
0.0
 11
87.297585707374537
 21
85.212168796978858
 31
0.0
  0
LINE
  5
AF
  8
0
 10
84.42765464705667
 20
80.921787249217971
 30
0.0
 11
87.470216729318054
 21
85.109514691153606
 31
0.0
  0
LINE
  5
B0
  8
0
 10
78.879131289514817
 20
85.78983560187902
 30
0.0
 11
61.77497781335569
 21
83.190104859033056
 31
0.0
  0
LINE
  5
B1
  8
0
 10
88.647366793477659
 20
84.409528756424038
 30
0.0
 11
88.513217387845771
 21
87.254160033015921
 31
0.0
  0
LINE
  5
B2
  8
0
 10
87.845566333868874
 20
81.713145382293874
 30
0.0
 11
88.777013511819632
 21
81.660376733228929
 31
0.0
  0
SOLID
  5
B3
  8
0
 10
88.513217387845771
 20
87.254160033015921
 30
0.0
 11
88.647366793477659
 21
84.409528756424038
 31
0.0
 12
84.810141231765897
 22
86.691314234217444
 32
0.0
 13
84.810141231765897
 23
86.691314234217444
 33
0.0
  0
SOLID
  5
B4
  8
0
 10
88.717902925211547
 20
82.913813695183421
 30
0.0
 11
88.777013511819632
 21
81.660376733228929
 31
0.0
 12
87.845566333868874
 22
81.713145382293874
 32
0.0
 13
87.845566333868874
 23
81.713145382293874
 33
0.0
  0
SOLID
  5
B5
  8
0
 10
78.879131289514817
 20
85.78983560187902
 30
0.0
 11
83.227481067884241
 21
81.974770653722587
 31
0.0
 12
61.77497781335569
 22
83.190104859033099
 32
0.0
 13
61.77497781335569
 23
83.190104859033099
 33
0.0
  0
LINE
  5
B6
  8
3
 10
66.047117626563761
 20
71.02483182341939
 30
0.0
 11
59.979490168751681
 21
66.616442431225892
 31
0.0
  0
LINE
  5
B7
  8
0
 10
62.85122838335905
 20
77.297117626563704
 30
0.0
 11
55.718304511145327
 21
74.979490168751568
 31
0.0
  0
LINE
  5
B8
  8
3
 10
61.75
 20
84.25
 30
0.0
 11
54.25
 21
84.25
 31
0.0
  0
LINE
  5
B9
  8
0
 10
62.851228383358936
 20
91.202882373436339
 30
0.0
 11
55.718304511145391
 21
93.520509831248432
 31
0.0
  0
LINE
  5
BA
  8
3
 10
102.4528823734364
 20
97.475168176580723
 30
0.0
 11
108.5205098312484
 21
101.88355756877409
 31
0.0
  0
LINE
  5
BB
  8
0
 10
71.02483182341939
 20
102.4528823734362
 30
0.0
 11
66.616442431225764
 21
108.5205098312485
 31
0.0
  0
LINE
  5
BC
  8
3
 10
77.297117626563704
 20
105.6487716166409
 30
0.0
 11
74.979490168751568
 21
112.78169548885469
 31
0.0
  0
LINE
  5
BD
  8
0
 10
84.25
 20
106.75
 30
0.0
 11
84.25
 21
114.25
 31
0.0
  0
LINE
  5
BE
  8
3
 10
91.202882373436296
 20
105.6487716166409
 30
0.0
 11
93.520509831248432
 21
112.7816954888545
 31
0.0
  0
LINE
  5
BF
  8
0
 10
97.475168176580723
 20
102.4528823734363
 30
0.0
 11
101.88355756877419
 21
108.5205098312484
 31
0.0
  0
LINE
  5
C0
  8
3
 10
63.21555814625151
 20
99.532416559604201
 30
0.0
 11
59.979490168751568
 21
101.88355756877409
 31
0.0
  0
LINE
  5
C1
  8
0
 10
105.6487716166409
 20
91.202882373436296
 30
0.0
 11
112.7816954888546
 21
93.520509831248432
 31
0.0
  0
LINE
  5
C2
  8
3
 10
106.75
 20
84.25
 30
0.0
 11
114.25
 21
84.25
 31
0.0
  0
LINE
  5
C3
  8
0
 10
105.6487716166408
 20
77.297117626563704
 30
0.0
 11
112.7816954888546
 21
74.979490168751568
 31
0.0
  0
LINE
  5
C4
  8
3
 10
102.4528823734364
 20
71.024831823419277
 30
0.0
 11
108.5205098312485
 21
66.616442431225721
 31
0.0
  0
LINE
  5
C5
  8
0
 10
97.475168176580723
 20
66.04711762656359
 30
0.0
 11
101.88355756877409
 21
59.979490168751617
 31
0.0
  0
CIRCLE
  5
C6
  8
0
 10
84.25
 20
84.25
 30
0.0
 40
34.25
  0
CIRCLE
  5
C7
  8
0
 10
84.25
 20
84.25
 30
0.0
 40
30.0
  0
LINE
  5
C8
  8
0
 10
84.25
 20
61.75
 30
0.0
 11
84.25
 21
54.25
 31
0.0
  0
LINE
  5
C9
  8
3
 10
77.297117626563633
 20
62.851228383359
 30
0.0
 11
74.979490168751568
 21
55.718304511145391
 31
0.0
  0
LINE
  5
CA
  8
3
 10
91.202882373436296
 20
62.85122838335905
 30
0.0
 11
93.520509831248432
 21
55.718304511145391
 31
0.0
  0
LINE
  5
CB
  8
0
 10
106.0
 20
73.75
 30
0.0
 11
106.0
 21
70.770980054226357
 31
0.0
  0
LINE
  5
CC
  8
0
 10
105.5
 20
73.75
 30
0.0
 11
105.5
 21
70.770980054225106
 31
0.0
  0
LINE
  5
CD
  8
0
 10
62.5
 20
73.75
 30
0.0
 11
62.5
 21
70.770980054225106
 31
0.0
  0
LINE
  5
CE
  8
0
 10
63.0
 20
73.75
 30
0.0
 11
63.0
 21
70.7709800542263
 31
0.0
  0
CIRCLE
  5
CF
  8
0
 10
62.75
 20
72.25
 30
0.0
 40
1.5
  0
CIRCLE
  5
D0
  8
0
 10
105.75
 20
72.25
 30
0.0
 40
1.5
  0
TEXT
  5
D1
  8
0
 10
82.726190476190482
 20
91.800000000000196
 30
0.0
 40
2.0
  1
20
 41
0.8
  7
08000
 72
     1
 11
84.25
 21
91.800000000000196
 31
0.0
  0
TEXT
  5
D2
  8
0
 10
83.440476190476204
 20
94.000000000000185
 30
0.0
 40
2.0
  1
1
 72
     1
 11
84.25
 21
94.000000000000185
 31
0.0
  0
LINE
  5
D3
  8
0
 10
85.750000000000014
 20
94.000000000000185
 30
0.0
 11
82.75
 21
94.000000000000185
 31
0.0
  0
TEXT
  5
D4
  8
0
 10
81.178571428571431
 20
63.5
 30
0.0
 40
4.0
  1
10
 41
0.75
  7
07500
 72
     4
 11
84.25
 21
65.5
 31
0.0
  0
TEXT
  5
D5
  8
0
 10
92.199544909055518
 20
97.419068644530071
 30
0.0
 40
4.0
  1
18
 50
0.0000000000000368
 41
0.75
  7
07500
 72
     4
 11
95.270973480484088
 21
99.419068644530057
 31
0.0
  0
TEXT
  5
D6
  8
0
 10
99.010881109105512
 20
88.044068644530228
 30
0.0
 40
4.0
  1
16
 50
0.0000000000000368
 41
0.75
  7
07500
 72
     4
 11
102.0823096805341
 21
90.044068644530213
 31
0.0
  0
TEXT
  5
D7
  8
0
 10
98.939452537676715
 20
76.455931355469716
 30
0.0
 40
4.0
  1
14
 50
0.0000000000000368
 41
0.75
  7
07500
 72
     4
 11
102.0823096805338
 21
78.455931355469716
 31
0.0
  0
TEXT
  5
D8
  8
0
 10
92.199544909055334
 20
67.080931355469716
 30
0.0
 40
4.0
  1
12
 50
0.0000000000000368
 41
0.75
  7
07500
 72
     4
 11
95.270973480483903
 21
69.080931355469716
 31
0.0
  0
TEXT
  5
D9
  8
0
 10
71.324264614754412
 20
67.08093135547
 30
0.0
 40
4.0
  1
8
 50
0.0000000000000368
 72
     4
 11
73.22902651951631
 21
69.08093135547
 31
0.0
  0
TEXT
  5
DA
  8
0
 10
64.417690319465578
 20
76.455931355469716
 30
0.0
 40
4.0
  1
6
 50
0.0000000000000368
 72
     4
 11
66.417690319465578
 21
78.455931355469716
 31
0.0
  0
TEXT
  5
DB
  8
0
 10
64.417690319465692
 20
88.044068644530284
 30
0.0
 40
4.0
  1
4
 50
0.0000000000000368
 72
     4
 11
66.417690319465692
 21
90.044068644530284
 31
0.0
  0
TEXT
  5
DC
  8
0
 10
71.32426461475464
 20
97.419068644530284
 30
0.0
 40
4.0
  1
2
 50
0.0000000000000368
 72
     4
 11
73.229026519516538
 21
99.419068644530284
 31
0.0
  0
TEXT
  5
DD
  8
0
 10
82.345238095238102
 20
101.0
 30
0.0
 40
4.0
  1
0
 72
     4
 11
84.25
 21
103.0
 31
0.0
  0
LINE
  5
DE
  8
0
 10
71.024831823419277
 20
66.04711762656359
 30
0.0
 11
66.616442431225892
 21
59.979490168751617
 31
0.0
  0
TEXT
  5
241
  8
0
 62
     3
 10
0.0
 20
0.0
 30
0.0
 40
10.0
  1
PD70L-1/20
  7
STANDARD1
  0
LINE
  5
338
  8
0
 10
173.44999999999999
 20
51.0
 30
0.0
 11
173.44999999999999
 21
117.5
 31
0.0
  0
LINE
  5
339
  8
0
 10
174.44999999999999
 20
118.5
 30
0.0
 11
180.4499999999999
 21
118.5
 31
0.0
  0
LINE
  5
33A
  8
0
 10
205.44999999999999
 20
115.75
 30
0.0
 11
205.44999999999999
 21
52.75
 31
0.0
  0
LINE
  5
33B
  8
0
 10
180.4499999999999
 20
50.0
 30
0.0
 11
174.44999999999999
 21
50.0
 31
0.0
  0
LINE
  5
33C
  8
1
 10
168.44999999999999
 20
84.25
 30
0.0
 11
210.4500000000001
 21
84.25
 31
0.0
  0
LINE
  5
33D
  8
0
 10
180.44999999999999
 20
50.0
 30
0.0
 11
180.44999999999999
 21
118.5
 31
0.0
  0
LINE
  5
33E
  8
0
 10
180.4499999999999
 20
117.75
 30
0.0
 11
203.44999999999999
 21
117.75
 31
0.0
  0
LINE
  5
33F
  8
0
 10
180.4499999999999
 20
50.75
 30
0.0
 11
203.44999999999999
 21
50.75
 31
0.0
  0
ARC
  5
340
  8
0
 10
174.44999999999999
 20
117.5
 30
0.0
 40
1.0
 50
90.0
 51
180.0
  0
ARC
  5
341
  8
0
 10
174.44999999999999
 20
51.0
 30
0.0
 40
1.0
 50
180.0
 51
270.0
  0
ARC
  5
342
  8
0
 10
203.44999999999999
 20
115.75
 30
0.0
 40
2.0
 50
0.0
 51
90.0
  0
ARC
  5
343
  8
0
 10
203.44999999999999
 20
52.75
 30
0.0
 40
2.0
 50
270.0
 51
0.0
  0
ENDSEC
  0
EOF
