  0
SECTION
  2
HEADER
  9
$ACADVER
  1
AC1009
  9
$INSBASE
 10
0.0
 20
0.0
 30
0.0
  9
$EXTMIN
 10
0.0
 20
-2.960436562073669
 30
0.0
  9
$EXTMAX
 10
152.69999999999999
 20
97.400000000000006
 30
0.0
  9
$LIMMIN
 10
0.0
 20
0.0
  9
$LIMMAX
 10
187.5
 20
135.0
  9
$ORTHOMODE
 70
     1
  9
$REGENMODE
 70
     1
  9
$FILLMODE
 70
     1
  9
$QTEXTMODE
 70
     0
  9
$MIRRTEXT
 70
     0
  9
$DRAGMODE
 70
     2
  9
$LTSCALE
 40
5.0
  9
$OSMODE
 70
    37
  9
$ATTMODE
 70
     1
  9
$TEXTSIZE
 40
1.0
  9
$TRACEWID
 40
0.05
  9
$TEXTSTYLE
  7
K50
  9
$CLAYER
  8
0
  9
$CELTYPE
  6
BYLAYER
  9
$CECOLOR
 62
   256
  9
$DIMSCALE
 40
1.0
  9
$DIMASZ
 40
3.0
  9
$DIMEXO
 40
2.0
  9
$DIMDLI
 40
0.38
  9
$DIMRND
 40
0.0
  9
$DIMDLE
 40
0.0
  9
$DIMEXE
 40
2.0
  9
$DIMTP
 40
0.0
  9
$DIMTM
 40
0.0
  9
$DIMTXT
 40
3.2000000000000002
  9
$DIMCEN
 40
0.0
  9
$DIMTSZ
 40
0.0
  9
$DIMTOL
 70
     0
  9
$DIMLIM
 70
     0
  9
$DIMTIH
 70
     0
  9
$DIMTOH
 70
     0
  9
$DIMSE1
 70
     0
  9
$DIMSE2
 70
     0
  9
$DIMTAD
 70
     1
  9
$DIMZIN
 70
     8
  9
$DIMBLK
  1

  9
$DIMASO
 70
     0
  9
$DIMSHO
 70
     0
  9
$DIMPOST
  1

  9
$DIMAPOST
  1

  9
$DIMALT
 70
     0
  9
$DIMALTD
 70
     2
  9
$DIMALTF
 40
25.399999999999999
  9
$DIMLFAC
 40
1.0
  9
$DIMTOFL
 70
     1
  9
$DIMTVP
 40
1.6000000000000001
  9
$DIMTIX
 70
     0
  9
$DIMSOXD
 70
     0
  9
$DIMSAH
 70
     0
  9
$DIMBLK1
  1

  9
$DIMBLK2
  1

  9
$DIMSTYLE
  2
STANDARD
  9
$DIMCLRD
 70
   256
  9
$DIMCLRE
 70
   256
  9
$DIMCLRT
 70
   256
  9
$DIMTFAC
 40
1.0
  9
$DIMGAP
 40
0.5
  9
$LUNITS
 70
     2
  9
$LUPREC
 70
     1
  9
$SKETCHINC
 40
0.1
  9
$FILLETRAD
 40
0.0
  9
$AUNITS
 70
     0
  9
$AUPREC
 70
     1
  9
$MENU
  1
E:\r13\win\SUPPORT\ACAD
  9
$ELEVATION
 40
0.0
  9
$PELEVATION
 40
0.0
  9
$THICKNESS
 40
0.0
  9
$LIMCHECK
 70
     0
  9
$BLIPMODE
 70
     0
  9
$CHAMFERA
 40
0.0
  9
$CHAMFERB
 40
0.0
  9
$SKPOLY
 70
     0
  9
$TDCREATE
 40
2449839.7913773148
  9
$TDUPDATE
 40
2457897.4090606831
  9
$TDINDWG
 40
0.0287778819
  9
$TDUSRTIMER
 40
0.0287778819
  9
$USRTIMER
 70
     1
  9
$ANGBASE
 50
0.0
  9
$ANGDIR
 70
     0
  9
$PDMODE
 70
     0
  9
$PDSIZE
 40
0.0
  9
$PLINEWID
 40
0.0
  9
$COORDS
 70
     1
  9
$SPLFRAME
 70
     0
  9
$SPLINETYPE
 70
     6
  9
$SPLINESEGS
 70
     8
  9
$ATTDIA
 70
     0
  9
$ATTREQ
 70
     1
  9
$HANDLING
 70
     1
  9
$HANDSEED
  5
9ED
  9
$SURFTAB1
 70
     6
  9
$SURFTAB2
 70
     6
  9
$SURFTYPE
 70
     6
  9
$SURFU
 70
     6
  9
$SURFV
 70
     6
  9
$UCSNAME
  2

  9
$UCSORG
 10
0.0
 20
0.0
 30
0.0
  9
$UCSXDIR
 10
1.0
 20
0.0
 30
0.0
  9
$UCSYDIR
 10
0.0
 20
1.0
 30
0.0
  9
$PUCSNAME
  2

  9
$PUCSORG
 10
0.0
 20
0.0
 30
0.0
  9
$PUCSXDIR
 10
1.0
 20
0.0
 30
0.0
  9
$PUCSYDIR
 10
0.0
 20
1.0
 30
0.0
  9
$USERI1
 70
     0
  9
$USERI2
 70
     1
  9
$USERI3
 70
     0
  9
$USERI4
 70
     0
  9
$USERI5
 70
     0
  9
$USERR1
 40
0.0
  9
$USERR2
 40
0.0
  9
$USERR3
 40
0.0
  9
$USERR4
 40
0.0
  9
$USERR5
 40
0.0
  9
$WORLDVIEW
 70
     1
  9
$SHADEDGE
 70
     3
  9
$SHADEDIF
 70
    70
  9
$TILEMODE
 70
     1
  9
$MAXACTVP
 70
    16
  9
$PLIMCHECK
 70
     0
  9
$PEXTMIN
 10
1.0000000000000000E+020
 20
1.0000000000000000E+020
 30
1.0000000000000000E+020
  9
$PEXTMAX
 10
-1.0000000000000000E+020
 20
-1.0000000000000000E+020
 30
-1.0000000000000000E+020
  9
$PLIMMIN
 10
0.0
 20
0.0
  9
$PLIMMAX
 10
12.0
 20
9.0
  9
$UNITMODE
 70
     0
  9
$VISRETAIN
 70
     0
  9
$PLINEGEN
 70
     0
  9
$PSLTSCALE
 70
     0
  0
ENDSEC
  0
SECTION
  2
TABLES
  0
TABLE
  2
VPORT
 70
     1
  0
VPORT
  2
*ACTIVE
 70
     0
 10
0.0
 20
0.0
 11
1.0
 21
1.0
 12
172.54273504273499
 22
95.0
 13
0.0
 23
0.0
 14
5.0
 24
5.0
 15
5.0
 25
5.0
 16
0.0
 26
0.0
 36
1.0
 17
0.0
 27
0.0
 37
0.0
 40
190.0
 41
1.816239316239316
 42
50.0
 43
0.0
 44
0.0
 50
0.0
 51
0.0
 71
     0
 72
   500
 73
     1
 74
     0
 75
     0
 76
     0
 77
     0
 78
     2
  0
ENDTAB
  0
TABLE
  2
LTYPE
 70
     4
  0
LTYPE
  2
CONTINUOUS
 70
     0
  3
Solid Line
 72
    65
 73
     0
 40
0.0
  0
LTYPE
  2
CENTER
 70
     0
  3
____ _ ____ _ ____ _ ____ _ ____ _ ____ _ ____
 72
    65
 73
     4
 40
2.0
 49
1.25
 49
-0.25
 49
0.25
 49
-0.25
  0
LTYPE
  2
PHANTOM2
 70
     0
  3
___ _ _ ___ _ _ ___ _ _ ___ _ _
 72
    65
 73
     6
 40
1.25
 49
0.625
 49
-0.125
 49
0.125
 49
-0.125
 49
0.125
 49
-0.125
  0
LTYPE
  2
HIDDEN
 70
     0
  3
_ _ _ _ _ _ _ _ _ _ _ _ _ _ _ _ _ _ _ _ _ _ _
 72
    65
 73
     2
 40
0.375
 49
0.25
 49
-0.125
  0
ENDTAB
  0
TABLE
  2
LAYER
 70
     5
  0
LAYER
  2
0
 70
     0
 62
     7
  6
CONTINUOUS
  0
LAYER
  2
1
 70
     0
 62
     1
  6
CENTER
  0
LAYER
  2
3
 70
     0
 62
     3
  6
CONTINUOUS
  0
LAYER
  2
2
 70
     0
 62
     2
  6
HIDDEN
  0
LAYER
  2
DEFPOINTS
 70
     0
 62
     7
  6
CONTINUOUS
  0
ENDTAB
  0
TABLE
  2
STYLE
 70
     4
  0
STYLE
  2
STANDARD
 70
     0
 40
0.0
 41
1.0
 50
0.0
 71
     0
 42
4.000000000000048
  3
romans.shx
  4

  0
STYLE
  2
06500
 70
     0
 40
0.0
 41
1.0
 50
0.0
 71
     0
 42
1.0
  3
romans.shx
  4

  0
STYLE
  2
K50
 70
     0
 40
0.0
 41
1.0
 50
0.0
 71
     0
 42
1.0
  3
romans.shx
  4

  0
STYLE
  2
STANDARD1
 70
     0
 40
0.0
 41
1.0
 50
0.0
 71
     0
 42
3.0
  3
txt
  4

  0
ENDTAB
  0
TABLE
  2
VIEW
 70
     1
  0
VIEW
  2
ALL
 70
     0
 40
135.0
 10
110.4957983193277
 20
67.5
 41
0.0
 11
0.0
 21
0.0
 31
1.0
 12
0.0
 22
0.0
 32
0.0
 42
0.0
 43
0.0
 44
0.0
 50
0.0
 71
     0
  0
ENDTAB
  0
TABLE
  2
UCS
 70
     0
  0
ENDTAB
  0
TABLE
  2
APPID
 70
    13
  0
APPID
  2
ACAD
 70
     0
  0
APPID
  2
ACAD_EXEMPT_FROM_CAD_STANDARDS
 70
     0
  0
APPID
  2
ACAD_MLEADERVER
 70
     0
  0
APPID
  2
ACAD_NAV_VCDISPLAY
 70
     0
  0
APPID
  2
ACAD_DSTYLE_DIMJAG
 70
     0
  0
APPID
  2
ACAD_DSTYLE_DIMTALN
 70
     0
  0
APPID
  2
GENIUS_GENODEF_13
 70
     0
  0
APPID
  2
GENIUS_GENOBJ-N-FIL_13
 70
     0
  0
APPID
  2
GENIUS_GENOREF_13
 70
     0
  0
APPID
  2
ACAD_PSEXT
 70
     0
  0
APPID
  2
ACAD_DSTYLE_DIMRADIAL_EXTENSION
 70
     0
  0
APPID
  2
GRADIENTCOLOR1ACI
 70
     0
  0
APPID
  2
GRADIENTCOLOR2ACI
 70
     0
  0
ENDTAB
  0
TABLE
  2
DIMSTYLE
 70
     1
  0
DIMSTYLE
  2
STANDARD
 70
     0
  3

  4

  5

  6

  7

 40
1.0
 41
0.18
 42
0.0625
 43
0.38
 44
0.18
 45
0.0
 46
0.0
 47
0.0
 48
0.0
140
0.18
141
0.09
142
0.0
143
25.399999999999999
144
1.0
145
0.0
146
1.0
147
0.09
 71
     0
 72
     0
 73
     1
 74
     1
 75
     0
 76
     0
 77
     0
 78
     0
170
     0
171
     2
172
     0
173
     0
174
     0
175
     0
176
     0
177
     0
178
     0
  0
ENDTAB
  0
ENDSEC
  0
SECTION
  2
BLOCKS
  0
BLOCK
  8
0
  2
$MODEL_SPACE
 70
     0
 10
0.0
 20
0.0
 30
0.0
  3
$MODEL_SPACE
  1

  0
ENDBLK
  5
128
  8
0
  0
BLOCK
 67
     1
  8
0
  2
$PAPER_SPACE
 70
     0
 10
0.0
 20
0.0
 30
0.0
  3
$PAPER_SPACE
  1

  0
ENDBLK
  5
126
 67
     1
  8
0
  0
BLOCK
  8
0
  2
*U0
 70
     1
 10
0.0
 20
0.0
 30
0.0
  3
*U0
  1

  0
SOLID
  5
9C5
  8
0
  6
CONTINUOUS
 10
73.36509786282555
 20
76.809857496093201
 30
0.0
 11
61.577600983856392
 21
72.800000000000011
 31
0.0
 12
67.683453480324516
 22
72.800000000000011
 32
0.0
 13
67.683453480324516
 23
72.800000000000011
 33
0.0
210
0.0
220
0.0
230
1.0
  0
SOLID
  5
9C6
  8
0
  6
CONTINUOUS
 10
-60.0
 20
72.263333462912982
 30
0.0
 11
-60.106667703303849
 21
72.263333462912982
 31
0.0
 12
-60.0
 22
72.25
 32
0.0
 13
-60.0
 23
72.25
 33
0.0
210
0.0
220
0.0
230
-1.0
  0
SOLID
  5
9C7
  8
0
  6
CONTINUOUS
 10
61.577600983856392
 20
72.800000000000011
 30
0.0
 11
60.0
 21
72.263333462912982
 31
0.0
 12
60.106667703303849
 22
72.263333462912982
 32
0.0
 13
60.106667703303849
 23
72.263333462912982
 33
0.0
210
0.0
220
0.0
230
1.0
  0
SOLID
  5
9C8
  8
0
  6
CONTINUOUS
 10
-61.577600983856392
 20
72.800000000000011
 30
0.0
 11
-64.400000000000006
 21
72.800000000000011
 31
0.0
 12
-60.106667703303849
 22
72.263333462912982
 32
0.0
 13
-60.106667703303849
 23
72.263333462912982
 33
0.0
210
0.0
220
0.0
230
-1.0
  0
SOLID
  5
9C9
  8
0
  6
CONTINUOUS
 10
-64.400000000000006
 20
72.25
 30
0.0
 11
-66.904147878212669
 21
72.25
 31
0.0
 12
-64.400000000000006
 22
70.482681339278614
 32
0.0
 13
-64.400000000000006
 23
70.482681339278614
 33
0.0
210
0.0
220
0.0
230
-1.0
  0
SOLID
  5
9CA
  8
0
  6
CONTINUOUS
 10
64.400000000000006
 20
72.800000000000011
 30
0.0
 11
64.400000000000006
 21
72.25
 31
0.0
 12
66.904147878212669
 22
72.25
 32
0.0
 13
66.904147878212669
 23
72.25
 33
0.0
210
0.0
220
0.0
230
1.0
  0
SOLID
  5
9CB
  8
0
  6
CONTINUOUS
 10
-64.400000000000006
 20
72.800000000000011
 30
0.0
 11
-67.683453480324516
 21
72.800000000000011
 31
0.0
 12
-66.904147878212669
 22
72.25
 32
0.0
 13
-66.904147878212669
 23
72.25
 33
0.0
210
0.0
220
0.0
230
-1.0
  0
LINE
  5
9CC
  8
0
  6
CONTINUOUS
 10
73.36509786282555
 20
76.809857496093201
 30
0.0
 11
61.577600983856392
 21
72.800000000000011
 31
0.0
  0
LINE
  5
9CD
  8
0
  6
CONTINUOUS
 10
67.683453480324516
 20
72.800000000000011
 30
0.0
 11
73.36509786282555
 21
76.809857496093201
 31
0.0
  0
LINE
  5
9CE
  8
0
  6
CONTINUOUS
 10
60.106667703303849
 20
72.263333462912982
 30
0.0
 11
60.0
 21
72.25
 31
0.0
  0
LINE
  5
9CF
  8
0
  6
CONTINUOUS
 10
60.0
 20
72.25
 30
0.0
 11
60.0
 21
72.263333462912982
 31
0.0
  0
LINE
  5
9D0
  8
0
  6
CONTINUOUS
 10
61.577600983856392
 20
72.800000000000011
 30
0.0
 11
60.0
 21
72.263333462912982
 31
0.0
  0
LINE
  5
9D1
  8
0
  6
CONTINUOUS
 10
64.400000000000006
 20
72.800000000000011
 30
0.0
 11
60.106667703303849
 21
72.263333462912982
 31
0.0
  0
LINE
  5
9D2
  8
0
  6
CONTINUOUS
 10
66.904147878212669
 20
72.25
 30
0.0
 11
64.400000000000006
 21
70.482681339278614
 31
0.0
  0
LINE
  5
9D3
  8
0
  6
CONTINUOUS
 10
64.400000000000006
 20
70.482681339278614
 30
0.0
 11
64.400000000000006
 21
72.25
 31
0.0
  0
LINE
  5
9D4
  8
0
  6
CONTINUOUS
 10
64.400000000000006
 20
72.800000000000011
 30
0.0
 11
64.400000000000006
 21
72.25
 31
0.0
  0
LINE
  5
9D5
  8
0
  6
CONTINUOUS
 10
67.683453480324516
 20
72.800000000000011
 30
0.0
 11
66.904147878212669
 21
72.25
 31
0.0
  0
ENDBLK
  5
9D7
  8
0
  0
BLOCK
  8
0
  2
*U1
 70
     1
 10
0.0
 20
0.0
 30
0.0
  3
*U1
  1

  0
SOLID
  5
9D9
  8
0
  6
CONTINUOUS
 10
55.950266532608019
 20
68.256216683424
 30
0.0
 11
56.20819681577121
 21
67.750000000000014
 31
0.0
 12
60.0
 22
67.750000000000014
 32
0.0
 13
60.0
 23
67.750000000000014
 33
0.0
  0
SOLID
  5
9DA
  8
0
  6
CONTINUOUS
 10
60.0
 20
67.750000000000014
 30
0.0
 11
60.0
 21
67.693929525341147
 31
0.0
 12
60.448563797270928
 22
67.693929525341147
 32
0.0
 13
60.448563797270928
 23
67.693929525341147
 33
0.0
210
0.0
220
0.0
230
1.0
  0
SOLID
  5
9DB
  8
0
  6
CONTINUOUS
 10
-60.0
 20
67.693929525341147
 30
0.0
 11
-60.448563797270928
 21
67.693929525341147
 31
0.0
 12
-60.0
 22
67.377352706400714
 32
0.0
 13
-60.0
 23
67.377352706400714
 33
0.0
210
0.0
220
0.0
230
-1.0
  0
SOLID
  5
9DC
  8
0
  6
CONTINUOUS
 10
56.20819681577121
 20
67.750000000000014
 30
0.0
 11
56.236766149575139
 21
67.693929525341147
 31
0.0
 12
60.0
 22
67.693929525341147
 32
0.0
 13
60.0
 23
67.693929525341147
 33
0.0
210
0.0
220
0.0
230
1.0
  0
SOLID
  5
9DD
  8
0
  6
CONTINUOUS
 10
-56.20819681577121
 20
67.750000000000014
 30
0.0
 11
-60.0
 21
67.750000000000014
 31
0.0
 12
-60.0
 22
67.693929525341147
 32
0.0
 13
-60.0
 23
67.693929525341147
 33
0.0
210
0.0
220
0.0
230
-1.0
  0
SOLID
  5
9DE
  8
0
  6
CONTINUOUS
 10
-56.398070095545293
 20
67.377352706400714
 30
0.0
 11
-60.0
 21
67.377352706400714
 31
0.0
 12
-57.350744692841907
 22
65.507623533418524
 32
0.0
 13
-57.350744692841907
 23
65.507623533418524
 33
0.0
210
0.0
220
0.0
230
-1.0
  0
SOLID
  5
9DF
  8
0
  6
CONTINUOUS
 10
56.236766149575139
 20
67.693929525341147
 30
0.0
 11
56.398070095545293
 21
67.377352706400714
 31
0.0
 12
60.0
 22
67.377352706400714
 32
0.0
 13
60.0
 23
67.377352706400714
 33
0.0
210
0.0
220
0.0
230
1.0
  0
SOLID
  5
9E0
  8
0
  6
CONTINUOUS
 10
-56.236766149575139
 20
67.693929525341147
 30
0.0
 11
-60.0
 21
67.693929525341147
 31
0.0
 12
-60.0
 22
67.377352706400714
 32
0.0
 13
-60.0
 23
67.377352706400714
 33
0.0
210
0.0
220
0.0
230
-1.0
  0
LINE
  5
9E1
  8
0
  6
CONTINUOUS
 10
55.950266532608019
 20
68.256216683424
 30
0.0
 11
56.20819681577121
 21
67.750000000000014
 31
0.0
  0
LINE
  5
9E2
  8
0
  6
CONTINUOUS
 10
60.0
 20
67.750000000000014
 30
0.0
 11
55.950266532608019
 21
68.256216683424
 31
0.0
  0
LINE
  5
9E3
  8
0
  6
CONTINUOUS
 10
60.0
 20
67.750000000000014
 30
0.0
 11
60.0
 21
67.693929525341147
 31
0.0
  0
LINE
  5
9E4
  8
0
  6
CONTINUOUS
 10
60.448563797270928
 20
67.693929525341147
 30
0.0
 11
60.0
 21
67.377352706400714
 31
0.0
  0
LINE
  5
9E5
  8
0
  6
CONTINUOUS
 10
60.0
 20
67.377352706400714
 30
0.0
 11
60.0
 21
67.693929525341147
 31
0.0
  0
LINE
  5
9E6
  8
0
  6
CONTINUOUS
 10
56.20819681577121
 20
67.750000000000014
 30
0.0
 11
56.236766149575139
 21
67.693929525341147
 31
0.0
  0
LINE
  5
9E7
  8
0
  6
CONTINUOUS
 10
60.0
 20
67.377352706400714
 30
0.0
 11
57.350744692841907
 21
65.507623533418524
 31
0.0
  0
LINE
  5
9E8
  8
0
  6
CONTINUOUS
 10
57.350744692841907
 20
65.507623533418524
 30
0.0
 11
56.398070095545293
 21
67.377352706400714
 31
0.0
  0
LINE
  5
9E9
  8
0
  6
CONTINUOUS
 10
56.236766149575139
 20
67.693929525341147
 30
0.0
 11
56.398070095545293
 21
67.377352706400714
 31
0.0
  0
LINE
  5
9EA
  8
0
  6
CONTINUOUS
 10
60.0
 20
67.693929525341147
 30
0.0
 11
60.0
 21
67.377352706400714
 31
0.0
  0
ENDBLK
  5
9EC
  8
0
  0
ENDSEC
  0
SECTION
  2
ENTITIES
  0
POLYLINE
  5
3B
  8
0
 66
     1
 10
0.0
 20
0.0
 30
0.0
 70
     1
 40
1.0
 41
1.0
  0
VERTEX
  5
3C
  8
0
 10
59.70610737385374
 20
70.404508497187493
 30
0.0
 42
1.0
 50
306.00000000000011
  0
VERTEX
  5
3D
  8
0
 10
60.293892626146231
 20
69.595491502812536
 30
0.0
 42
1.0
 50
306.00000000000011
  0
SEQEND
  5
3E
  8
0
  0
LINE
  5
49
  8
3
 10
64.71250916421792
 20
84.503611873501086
 30
0.0
 11
66.489356881873874
 21
89.972186842198198
 31
0.0
  0
LINE
  5
4A
  8
0
 10
51.036274902540072
 20
82.337509164217579
 30
0.0
 11
47.656509701858077
 21
86.989356881873903
 31
0.0
  0
LINE
  5
4B
  8
3
 10
55.287490835782052
 20
84.503611873501086
 30
0.0
 11
53.510643118126062
 21
89.972186842198255
 31
0.0
  0
LINE
  5
4C
  8
0
 10
45.496388126498907
 20
74.712509164217977
 30
0.0
 11
40.02781315780183
 21
76.489356881873903
 31
0.0
  0
LINE
  5
4D
  8
3
 10
47.662490835782108
 20
78.963725097460156
 30
0.0
 11
43.010643118126211
 21
82.34349029814183
 31
0.0
  0
LINE
  5
4E
  8
0
 10
45.496388126498879
 20
65.28749083578208
 30
0.0
 11
40.027813157801774
 21
63.510643118126133
 31
0.0
  0
LINE
  5
4F
  8
0
 10
51.036274902539759
 20
57.662490835782052
 30
0.0
 11
47.656509701858113
 21
53.01064311812609
 31
0.0
  0
LINE
  5
50
  8
3
 10
47.662490835782023
 20
61.036274902539731
 30
0.0
 11
47.497675771734883
 21
60.91652974925352
 31
0.0
  0
LINE
  5
51
  8
3
 10
55.28749083578208
 20
55.496388126498879
 30
0.0
 11
53.510643118126133
 21
50.027813157801859
 31
0.0
  0
LINE
  5
52
  8
0
 10
68.963725097460113
 20
57.66249083578213
 30
0.0
 11
72.343490298141916
 21
53.01064311812609
 31
0.0
  0
LINE
  5
53
  8
3
 10
64.712509164217977
 20
55.496388126498921
 30
0.0
 11
66.489356881873931
 21
50.027813157801774
 31
0.0
  0
LINE
  5
54
  8
0
 10
74.503611873501114
 20
65.287490835782023
 30
0.0
 11
79.972186842198425
 21
63.51064311812604
 31
0.0
  0
LINE
  5
55
  8
3
 10
72.337509164217977
 20
61.036274902539787
 30
0.0
 11
72.502324228270112
 21
60.91652974925001
 31
0.0
  0
LINE
  5
56
  8
0
 10
74.503611873501001
 20
74.71250916421792
 30
0.0
 11
79.972186842198283
 21
76.489356881873874
 31
0.0
  0
LINE
  5
57
  8
0
 10
68.963725097460284
 20
82.337509164218034
 30
0.0
 11
72.343490298141887
 21
86.989356881873803
 31
0.0
  0
LINE
  5
58
  8
3
 10
72.337509164217934
 20
78.963725097460213
 30
0.0
 11
76.989356881873874
 21
82.343490298141944
 31
0.0
  0
TEXT
  5
59
  8
0
 10
58.571428571428569
 20
81.0
 30
0.0
 40
3.0
  1
0
 72
     4
 11
60.0
 21
82.5
 31
0.0
  0
TEXT
  5
5A
  8
0
 10
66.133029939370161
 20
78.612712429686781
 30
0.0
 40
3.0
  1
1
 72
     4
 11
67.347315653655869
 21
80.112712429686781
 31
0.0
  0
TEXT
  5
5B
  8
0
 10
70.459635025118089
 20
72.362712429686894
 30
0.0
 40
3.0
  1
2
 72
     4
 11
71.88820645368952
 21
73.862712429686894
 31
0.0
  0
TEXT
  5
5C
  8
0
 10
70.459635025117691
 20
64.637287570313219
 30
0.0
 40
3.0
  1
3
 72
     4
 11
71.888206453689122
 21
66.137287570313219
 31
0.0
  0
TEXT
  5
5D
  8
0
 10
65.847315653655926
 20
58.387287570313113
 30
0.0
 40
3.0
  1
4
 72
     4
 11
67.347315653655926
 21
59.887287570313099
 31
0.0
  0
TEXT
  5
5E
  8
0
 10
58.571428571428569
 20
56.0
 30
0.0
 40
3.0
  1
5
 72
     4
 11
60.0
 21
57.5
 31
0.0
  0
TEXT
  5
5F
  8
0
 10
51.152684346344131
 20
58.387287570313219
 30
0.0
 40
3.0
  1
6
 72
     4
 11
52.652684346344131
 21
59.887287570313219
 31
0.0
  0
TEXT
  5
60
  8
0
 10
46.683222117739163
 20
64.637287570313163
 30
0.0
 40
3.0
  1
7
 72
     4
 11
48.111793546310587
 21
66.137287570313163
 31
0.0
  0
TEXT
  5
61
  8
0
 10
46.683222117739163
 20
72.362712429686823
 30
0.0
 40
3.0
  1
8
 72
     4
 11
48.111793546310587
 21
73.862712429686837
 31
0.0
  0
TEXT
  5
62
  8
0
 10
51.29554148920122
 20
78.612712429686866
 30
0.0
 40
3.0
  1
9
 72
     4
 11
52.652684346344067
 21
80.112712429686866
 31
0.0
  0
LINE
  5
63
  8
0
 10
61.5
 20
76.999999999999943
 30
0.0
 11
58.5
 21
76.999999999999972
 31
0.0
  0
TEXT
  5
64
  8
0
 10
59.392857142857139
 20
76.999999999999972
 30
0.0
 40
1.5
  1
1
 72
     1
 11
60.0
 21
76.999999999999972
 31
0.0
  0
TEXT
  5
65
  8
0
 10
58.464285714285708
 20
75.299999999999997
 30
0.0
 40
1.5
  1
10
 72
     1
 11
60.0
 21
75.299999999999997
 31
0.0
  0
TEXT
  5
66
  8
0
 10
57.94166666666667
 20
61.25
 30
0.0
 40
1.0
  1
CLAYTON
 41
0.65
  7
06500
 72
     1
 11
60.0
 21
61.25
 31
0.0
  0
ARC
  5
67
  8
0
 10
60.16666666666665
 20
63.53205128205127
 30
0.0
 40
0.1794871794871786
 50
269.99999999999977
 51
360.0
  0
LINE
  5
68
  8
0
 10
60.34615384615384
 20
63.608974358974272
 30
0.0
 11
60.34615384615384
 21
63.53205128205127
 31
0.0
  0
ARC
  5
69
  8
0
 10
58.48717948717951
 20
63.53205128205127
 30
0.0
 40
0.1794871794871786
 50
270.0
 51
360.0
  0
LINE
  5
6A
  8
0
 10
58.666666666666679
 20
63.608974358974308
 30
0.0
 11
58.666666666666679
 21
63.53205128205127
 31
0.0
  0
ARC
  5
6B
  8
0
 10
61.645594221012907
 20
63.865384615384578
 30
0.0
 40
0.0384615384615383
 50
89.999999999999986
 51
235.439678220009
  0
ARC
  5
6C
  8
0
 10
61.769230769230781
 20
64.044871794871753
 30
0.0
 40
0.2564102564102552
 50
40.541601873497967
 51
89.999999999999986
  0
ARC
  5
6D
  8
0
 10
61.769230769230781
 20
64.044871794871753
 30
0.0
 40
0.2564102564102552
 50
235.43967822000889
 51
326.63298703076367
  0
ARC
  5
6E
  8
0
 10
62.192285467541232
 20
63.506439884973808
 30
0.0
 40
0.2564102564102552
 50
194.95437033353551
 51
216.87817385345451
  0
LINE
  5
6F
  8
0
 10
60.666666666666693
 20
63.881716200719097
 30
0.0
 11
60.666666666666693
 21
63.865384615384578
 31
0.0
  0
LINE
  5
70
  8
0
 10
60.615384615384613
 20
63.352564102564088
 30
0.0
 11
60.397435897435876
 21
63.352564102564088
 31
0.0
  0
LINE
  5
71
  8
0
 10
61.645594221012907
 20
63.903846153846132
 30
0.0
 11
61.983375552416533
 21
63.903846153846132
 31
0.0
  0
LINE
  5
72
  8
0
 10
61.247413654252618
 20
64.211538461538453
 30
0.0
 11
61.964085694276548
 21
64.211538461538453
 31
0.0
  0
ARC
  5
73
  8
0
 10
61.653846153846132
 20
63.878205128205082
 30
0.0
 40
0.5256410256410231
 50
140.64330107273881
 51
303.57748737918632
  0
ARC
  5
74
  8
0
 10
62.678612472308252
 20
63.536530959166832
 30
0.0
 40
0.2564102564102552
 50
175.26603745311311
 51
225.8460529860541
  0
LINE
  5
75
  8
0
 10
61.179487179487182
 20
64.762820512820468
 30
0.0
 11
60.910256290460723
 21
64.762820512820468
 31
0.0
  0
ARC
  5
76
  8
0
 10
61.487179487179482
 20
64.50641025641022
 30
0.0
 40
0.2564102564102552
 50
89.999999999999986
 51
180.0
  0
ARC
  5
77
  8
0
 10
60.71830607692624
 20
64.52555168589663
 30
0.0
 40
0.5128205128205106
 50
334.06662005680522
 51
357.86089300734187
  0
ARC
  5
78
  8
0
 10
61.802114025384611
 20
64.140222166672345
 30
0.0
 40
0.622640466504708
 50
4.2068467171522084
 51
90.666449776468014
  0
LINE
  5
79
  8
0
 10
62.423076923076898
 20
64.185897435897402
 30
0.0
 11
62.423076923076898
 21
63.557692307692292
 31
0.0
  0
LINE
  5
7A
  8
0
 10
61.179487179487182
 20
64.301282051282016
 30
0.0
 11
61.769230769230738
 21
64.301282051282016
 31
0.0
  0
ARC
  5
7B
  8
0
 10
59.179129820509672
 20
63.589832929487962
 30
0.0
 40
0.5128205128205106
 50
154.06662005680519
 51
177.8608930073419
  0
ARC
  5
7C
  8
0
 10
60.858616999996862
 20
63.589832929487962
 30
0.0
 40
0.5128205128205106
 50
154.06662005680519
 51
177.86089300734179
  0
LINE
  5
7D
  8
0
 10
60.397435897435876
 20
63.814102564102541
 30
0.0
 11
60.397435897435876
 21
63.352564102564088
 31
0.0
  0
LINE
  5
7E
  8
0
 10
58.897435897435912
 20
63.352564102564088
 30
0.0
 11
59.461538461538453
 21
63.352564102564088
 31
0.0
  0
ARC
  5
7F
  8
0
 10
60.615384615384613
 20
63.881716200719097
 30
0.0
 40
0.0512820512820511
 50
0.0000000000008002
 51
54.900367804606418
  0
ARC
  5
80
  8
0
 10
60.615384615384613
 20
63.865384615384578
 30
0.0
 40
0.0512820512820511
 50
270.0
 51
0.0000000000003931
  0
ARC
  5
81
  8
0
 10
60.910256410256409
 20
64.233668414665431
 30
0.0
 40
0.0512820512820511
 50
180.0
 51
234.90036780460591
  0
ARC
  5
82
  8
0
 10
60.910256410256409
 20
64.249999999999972
 30
0.0
 40
0.0512820512820511
 50
90.000000000000085
 51
179.9999999999994
  0
LINE
  5
83
  8
0
 10
60.858974358974358
 20
64.233668414665431
 30
0.0
 11
60.858974358974358
 21
64.249999999999972
 31
0.0
  0
ARC
  5
84
  8
0
 10
60.615384615384613
 20
63.814102564102541
 30
0.0
 40
0.4615384615384594
 50
270.00000000000011
 51
54.90036780460607
  0
ARC
  5
85
  8
0
 10
60.910256410256409
 20
64.301282051282016
 30
0.0
 40
0.4615384615384594
 50
89.999999999999986
 51
234.9003678046067
  0
LINE
  5
86
  8
0
 10
60.910256410256409
 20
64.301282051282016
 30
0.0
 11
61.179487179487182
 21
64.301282051282016
 31
0.0
  0
LINE
  5
87
  8
0
 10
61.179487179487182
 20
64.301282051282016
 30
0.0
 11
61.179487179487182
 21
64.762820512820468
 31
0.0
  0
ARC
  5
88
  8
0
 10
59.935897435897431
 20
64.057692307692264
 30
0.0
 40
0.7051282051282019
 50
89.999999999999986
 51
270.0
  0
LINE
  5
89
  8
0
 10
60.397435897435912
 20
64.301282051282016
 30
0.0
 11
60.397435897435912
 21
64.762820512820468
 31
0.0
  0
ARC
  5
8A
  8
0
 10
59.935897435897431
 20
64.057692307692264
 30
0.0
 40
0.2435897435897425
 50
89.999999999999986
 51
140.83328928387959
  0
LINE
  5
8B
  8
0
 10
60.34615384615384
 20
63.903846153846132
 30
0.0
 11
60.34615384615384
 21
64.211538461538453
 31
0.0
  0
LINE
  5
8C
  8
0
 10
59.747039488940288
 20
64.211538461538453
 30
0.0
 11
60.34615384615384
 21
64.211538461538453
 31
0.0
  0
LINE
  5
8D
  8
0
 10
59.747039488940288
 20
63.903846153846132
 30
0.0
 11
60.34615384615384
 21
63.903846153846132
 31
0.0
  0
LINE
  5
8E
  8
0
 10
59.935897435897431
 20
64.301282051282016
 30
0.0
 11
60.397435897435912
 21
64.301282051282016
 31
0.0
  0
LINE
  5
8F
  8
0
 10
59.935897435897431
 20
63.814102564102541
 30
0.0
 11
60.615384615384613
 21
63.814102564102541
 31
0.0
  0
ARC
  5
90
  8
0
 10
59.935897435897431
 20
64.057692307692264
 30
0.0
 40
0.2435897435897425
 50
219.1667107161197
 51
270.0
  0
LINE
  5
91
  8
0
 10
60.16666666666665
 20
63.352564102564088
 30
0.0
 11
59.935897435897431
 21
63.352564102564088
 31
0.0
  0
LINE
  5
92
  8
0
 10
60.397435897435912
 20
64.762820512820468
 30
0.0
 11
59.935897435897431
 21
64.762820512820468
 31
0.0
  0
LINE
  5
93
  8
0
 10
58.666666666666679
 20
64.762820512820468
 30
0.0
 11
58.205128205128233
 21
64.762820512820468
 31
0.0
  0
ARC
  5
94
  8
0
 10
60.075497127362212
 20
64.007121927867928
 30
0.0
 40
0.8974358974358931
 50
176.7696802327068
 51
226.83313873999671
  0
ARC
  5
95
  8
0
 10
59.999051409603453
 20
64.008383249251011
 30
0.0
 40
1.2820512820512751
 50
177.79579960996611
 51
210.76639186197559
  0
LINE
  5
96
  8
0
 10
59.179487179487182
 20
64.057692307692264
 30
0.0
 11
59.179487179487182
 21
65.147435897435855
 31
0.0
  0
LINE
  5
97
  8
0
 10
58.71794871794873
 20
64.057692307692264
 30
0.0
 11
58.71794871794873
 21
65.147435897435855
 31
0.0
  0
LINE
  5
98
  8
0
 10
58.48717948717951
 20
63.352564102564088
 30
0.0
 11
58.205128205128233
 21
63.352564102564088
 31
0.0
  0
ARC
  5
99
  8
0
 10
58.205128205128233
 20
64.057692307692264
 30
0.0
 40
0.2435897435897425
 50
219.1667107161197
 51
270.0
  0
LINE
  5
9A
  8
0
 10
58.205128205128233
 20
63.814102564102541
 30
0.0
 11
58.71794871794873
 21
63.814102564102541
 31
0.0
  0
LINE
  5
9B
  8
0
 10
58.205128205128233
 20
64.301282051282016
 30
0.0
 11
58.666666666666679
 21
64.301282051282016
 31
0.0
  0
LINE
  5
9C
  8
0
 10
58.016270258171062
 20
63.903846153846132
 30
0.0
 11
58.615384615384642
 21
63.903846153846132
 31
0.0
  0
LINE
  5
9D
  8
0
 10
58.016270258171062
 20
64.211538461538453
 30
0.0
 11
58.615384615384642
 21
64.211538461538453
 31
0.0
  0
LINE
  5
9E
  8
0
 10
58.615384615384642
 20
63.903846153846132
 30
0.0
 11
58.615384615384642
 21
64.211538461538453
 31
0.0
  0
ARC
  5
9F
  8
0
 10
58.205128205128233
 20
64.057692307692264
 30
0.0
 40
0.2435897435897425
 50
89.999999999999986
 51
140.83328928387959
  0
LINE
  5
A0
  8
0
 10
58.666666666666679
 20
64.301282051282016
 30
0.0
 11
58.666666666666679
 21
64.762820512820468
 31
0.0
  0
ARC
  5
A1
  8
0
 10
58.205128205128233
 20
64.057692307692264
 30
0.0
 40
0.7051282051282019
 50
89.999999999999986
 51
270.0
  0
LINE
  5
A2
  8
0
 10
61.794871794871767
 20
64.762820512820468
 30
0.0
 11
61.487179487179482
 21
64.762820512820468
 31
0.0
  0
LINE
  5
A3
  8
0
 10
62.5
 20
63.352564102564088
 30
0.0
 11
61.987179487179482
 21
63.352564102564088
 31
0.0
  0
LINE
  5
A4
  8
0
 10
58.71794871794873
 20
65.147435897435855
 30
0.0
 11
59.179487179487182
 21
65.147435897435855
 31
0.0
  0
CIRCLE
  5
A5
  8
0
 10
46.0
 20
61.0
 30
0.0
 40
1.5
  0
LINE
  5
A6
  8
0
 10
45.75
 20
62.5
 30
0.0
 11
45.75
 21
59.520980054225099
 31
0.0
  0
LINE
  5
A7
  8
0
 10
46.25
 20
62.5
 30
0.0
 11
46.25
 21
59.520980054226328
 31
0.0
  0
LINE
  5
A8
  8
0
 10
73.75
 20
62.5
 30
0.0
 11
73.75
 21
59.520980054225099
 31
0.0
  0
LINE
  5
A9
  8
0
 10
74.25
 20
62.5
 30
0.0
 11
74.25
 21
59.520980054226328
 31
0.0
  0
CIRCLE
  5
AA
  8
0
 10
74.0
 20
61.0
 30
0.0
 40
1.5
  0
LINE
  5
AB
  8
3
 10
45.616577660359553
 20
59.549831971988787
 30
0.0
 11
43.01064311812604
 21
57.656509701857971
 31
0.0
  0
LINE
  5
AC
  8
3
 10
74.383422339635501
 20
59.549831971992432
 30
0.0
 11
76.98935688187396
 21
57.656509701858063
 31
0.0
  0
CIRCLE
  5
AD
  8
0
 10
60.0
 20
70.0
 30
0.0
 40
24.899999999999999
  0
LINE
  5
AE
  8
1
 10
87.400000000000006
 20
70.0
 30
0.0
 11
32.600000000000001
 21
70.0
 31
0.0
  0
LINE
  5
AF
  8
1
 10
60.0
 20
97.400000000000006
 30
0.0
 11
60.0
 21
42.600000000000001
 31
0.0
  0
CIRCLE
  5
B0
  8
0
 10
60.0
 20
70.0
 30
0.0
 40
21.0
  0
LINE
  5
B1
  8
3
 10
39.0
 20
70.0
 30
0.0
 11
41.999999999999702
 21
70.0
 31
0.0
  0
LINE
  5
B2
  8
3
 10
75.25
 20
70.0
 30
0.0
 11
81.0
 21
70.0
 31
0.0
  0
LINE
  5
B3
  8
0
 10
60.0
 20
91.0
 30
0.0
 11
60.0
 21
85.25
 31
0.0
  0
LINE
  5
B4
  8
0
 10
60.0
 20
54.75
 30
0.0
 11
60.0
 21
49.0
 31
0.0
  0
ARC
  5
291
  8
0
 10
121.09999999999999
 20
46.0
 30
0.0
 40
0.9
 50
180.0
 51
270.0
  0
ARC
  5
292
  8
0
 10
121.09999999999989
 20
94.0
 30
0.0
 40
0.9
 50
90.0
 51
180.0
  0
ARC
  5
293
  8
0
 10
148.19999999999999
 20
47.900000000000013
 30
0.0
 40
2.0
 50
270.0
 51
0.0
  0
ARC
  5
294
  8
0
 10
148.19999999999999
 20
92.099999999999994
 30
0.0
 40
2.0
 50
0.0
 51
90.0
  0
LINE
  5
295
  8
0
 10
127.2
 20
45.100000000000001
 30
0.0
 11
127.2
 21
94.900000000000006
 31
0.0
  0
LINE
  5
296
  8
0
 10
127.2
 20
45.899999999999991
 30
0.0
 11
148.19999999999999
 21
45.900000000000013
 31
0.0
  0
LINE
  5
297
  8
0
 10
127.2
 20
94.100000000000009
 30
0.0
 11
148.19999999999999
 21
94.09999999999998
 31
0.0
  0
LINE
  5
298
  8
1
 10
117.7
 20
70.0
 30
0.0
 11
152.69999999999999
 21
70.0
 31
0.0
  0
LINE
  5
299
  8
0
 10
127.2
 20
45.100000000000001
 30
0.0
 11
121.09999999999999
 21
45.100000000000001
 31
0.0
  0
LINE
  5
29A
  8
0
 10
150.19999999999999
 20
92.099999999999994
 30
0.0
 11
150.19999999999999
 21
47.900000000000013
 31
0.0
  0
LINE
  5
29B
  8
0
 10
121.09999999999989
 20
94.900000000000006
 30
0.0
 11
127.2
 21
94.900000000000006
 31
0.0
  0
LINE
  5
29C
  8
0
 10
120.2
 20
46.0
 30
0.0
 11
120.1999999999999
 21
94.0
 31
0.0
  0
TEXT
  5
310
  8
0
 62
     3
 10
0.0
 20
0.0
 30
0.0
 40
10.0
  1
PD50R-1/10
  7
STANDARD1
  0
LINE
  5
853
  8
0
 10
61.949999999999939
 20
72.481249999999989
 30
0.0
 11
61.94999999999996
 21
67.518749999999997
 31
0.0
  0
LINE
  5
854
  8
0
 10
61.749999999999957
 20
72.481249999999989
 30
0.0
 11
61.749999999999972
 21
67.518749999999997
 31
0.0
  0
LINE
  5
855
  8
0
 10
58.25
 20
72.018749999999983
 30
0.0
 11
58.250000000000021
 21
67.98124999999996
 31
0.0
  0
LINE
  5
856
  8
0
 10
58.050000000000011
 20
72.018749999999983
 30
0.0
 11
58.05000000000004
 21
67.98124999999996
 31
0.0
  0
LINE
  5
857
  8
0
 10
42.000000000000021
 20
69.999999999999972
 30
0.0
 11
64.400000000000063
 21
72.800000000000011
 31
0.0
  0
LINE
  5
858
  8
0
 10
42.000000000000021
 20
69.999999999999972
 30
0.0
 11
64.400000000000006
 21
67.200000000000017
 31
0.0
  0
LINE
  5
859
  8
0
 10
64.400000000000006
 20
72.800000000000011
 30
0.0
 11
64.400000000000006
 21
67.200000000000017
 31
0.0
  0
LINE
  5
85D
  8
0
 10
60.448563797270943
 20
67.693929525341147
 30
0.0
 11
57.350744692841907
 21
65.507623533418524
 31
0.0
  0
LINE
  5
85F
  8
0
 10
59.938035448174702
 20
72.24225443102182
 30
0.0
 11
73.365097862825394
 21
76.809857496093159
 31
0.0
  0
LINE
  5
861
  8
0
 10
73.365097862825522
 20
76.809857496093187
 30
0.0
 11
64.400000000000006
 21
70.482681339278614
 31
0.0
  0
LINE
  5
862
  8
0
 10
57.350744692841907
 20
65.507623533418524
 30
0.0
 11
55.950266532608019
 21
68.256216683424
 31
0.0
  0
INSERT
  5
86E
  8
0
  6
CONTINUOUS
  2
*U0
 10
0.0
 20
0.0
 30
0.0
1001
GRADIENTCOLOR1ACI
1070
     5
1001
GRADIENTCOLOR2ACI
1070
     2
1001
ACAD
1002
{
1000
R14_HATCH_DATA
1000
86E
1011
1.0
1021
0.0
1031
0.0
1021
0.0
1031
0.0
1011
0.0
1021
0.0
1031
0.0
1021
1.0
1031
0.0
1011
0.0
1021
0.0
1031
0.0
1021
0.0
1031
1.0
1040
0.0
1010
0.0
1020
0.0
1030
1.0
1000
SOLID
1070
     1
1070
     0
1071
        1
1071
        7
1070
     0
1070
     1
1071
        5
1040
73.36509786282555
1040
76.809857496093201
1040
60.0
1040
72.263333462912982
1040
60.0
1040
72.25
1040
64.400000000000006
1040
72.800000000000011
1040
64.400000000000006
1040
70.482681339278614
1071
        0
1070
     1
1070
     1
1040
0.0316551413203258
1071
        1
1040
65.964925413718333
1040
73.330226927209651
1040
0.0
1002
}
  0
INSERT
  5
87B
  8
0
  6
CONTINUOUS
  2
*U1
 10
0.0
 20
0.0
 30
0.0
1001
GRADIENTCOLOR1ACI
1070
     5
1001
GRADIENTCOLOR2ACI
1070
     2
1001
ACAD
1002
{
1000
R14_HATCH_DATA
1000
87B
1011
1.0
1021
0.0
1031
0.0
1021
0.0
1031
0.0
1011
0.0
1021
0.0
1031
0.0
1021
1.0
1031
0.0
1011
0.0
1021
0.0
1031
0.0
1021
0.0
1031
1.0
1040
0.0
1010
0.0
1020
0.0
1030
1.0
1000
SOLID
1070
     1
1070
     0
1071
        2
1071
        7
1070
     0
1070
     1
1071
        4
1040
60.0
1040
67.377352706400714
1040
60.0
1040
67.750000000000014
1040
55.950266532608019
1040
68.256216683424
1040
57.350744692841907
1040
65.507623533418524
1071
        0
1071
        7
1070
     0
1070
     1
1071
        3
1040
60.448563797270928
1040
67.693929525341147
1040
60.0
1040
67.750000000000014
1040
60.0
1040
67.377352706400714
1071
        0
1070
     1
1070
     1
1040
0.012846470666508
1071
        2
1040
57.838589603448099
1040
67.136478223960239
1040
0.0
1040
60.15581507913214
1040
67.569408595646678
1040
0.0
1002
}
  0
ENDSEC
  0
EOF
