  0
SECTION
  2
HEADER
  9
$ACADVER
  1
AC1009
  9
$INSBASE
 10
0.0
 20
0.0
 30
0.0
  9
$EXTMIN
 10
0.0
 20
-2.960436562073669
 30
0.0
  9
$EXTMAX
 10
183.95554645571599
 20
118.9204201117435
 30
0.0
  9
$LIMMIN
 10
0.0
 20
0.0
  9
$LIMMAX
 10
187.5
 20
139.0
  9
$ORTHOMODE
 70
     1
  9
$REGENMODE
 70
     1
  9
$FILLMODE
 70
     1
  9
$QTEXTMODE
 70
     0
  9
$MIRRTEXT
 70
     0
  9
$DRAGMODE
 70
     2
  9
$LTSCALE
 40
4.0
  9
$OSMODE
 70
  3071
  9
$ATTMODE
 70
     1
  9
$TEXTSIZE
 40
0.2
  9
$TRACEWID
 40
0.05
  9
$TEXTSTYLE
  7
STANDARD
  9
$CLAYER
  8
0
  9
$CELTYPE
  6
BYLAYER
  9
$CECOLOR
 62
   256
  9
$DIMSCALE
 40
1.0
  9
$DIMASZ
 40
3.0
  9
$DIMEXO
 40
1.0
  9
$DIMDLI
 40
6.0
  9
$DIMRND
 40
0.0
  9
$DIMDLE
 40
0.0
  9
$DIMEXE
 40
1.0
  9
$DIMTP
 40
495.0
  9
$DIMTM
 40
0.0
  9
$DIMTXT
 40
3.0
  9
$DIMCEN
 40
0.0
  9
$DIMTSZ
 40
0.0
  9
$DIMTOL
 70
     0
  9
$DIMLIM
 70
     0
  9
$DIMTIH
 70
     0
  9
$DIMTOH
 70
     0
  9
$DIMSE1
 70
     0
  9
$DIMSE2
 70
     0
  9
$DIMTAD
 70
     1
  9
$DIMZIN
 70
     0
  9
$DIMBLK
  1

  9
$DIMASO
 70
     0
  9
$DIMSHO
 70
     0
  9
$DIMPOST
  1

  9
$DIMAPOST
  1

  9
$DIMALT
 70
     0
  9
$DIMALTD
 70
     2
  9
$DIMALTF
 40
25.399999999999999
  9
$DIMLFAC
 40
1.0
  9
$DIMTOFL
 70
     1
  9
$DIMTVP
 40
0.0
  9
$DIMTIX
 70
     1
  9
$DIMSOXD
 70
     0
  9
$DIMSAH
 70
     0
  9
$DIMBLK1
  1

  9
$DIMBLK2
  1

  9
$DIMSTYLE
  2
STANDARD
  9
$DIMCLRD
 70
     0
  9
$DIMCLRE
 70
     0
  9
$DIMCLRT
 70
     4
  9
$DIMTFAC
 40
1.0
  9
$DIMGAP
 40
1.0
  9
$LUNITS
 70
     2
  9
$LUPREC
 70
     4
  9
$SKETCHINC
 40
0.1
  9
$FILLETRAD
 40
0.0
  9
$AUNITS
 70
     0
  9
$AUPREC
 70
     0
  9
$MENU
  1
C:\R13\WIN\SUPPORT\ACAD-I
  9
$ELEVATION
 40
0.0
  9
$PELEVATION
 40
0.0
  9
$THICKNESS
 40
0.0
  9
$LIMCHECK
 70
     0
  9
$BLIPMODE
 70
     0
  9
$CHAMFERA
 40
0.0
  9
$CHAMFERB
 40
0.0
  9
$SKPOLY
 70
     0
  9
$TDCREATE
 40
2450837.486061343
  9
$TDUPDATE
 40
2456597.7048125579
  9
$TDINDWG
 40
0.1057831597
  9
$TDUSRTIMER
 40
0.1057831597
  9
$USRTIMER
 70
     1
  9
$ANGBASE
 50
0.0
  9
$ANGDIR
 70
     0
  9
$PDMODE
 70
     0
  9
$PDSIZE
 40
0.0
  9
$PLINEWID
 40
0.0
  9
$COORDS
 70
     1
  9
$SPLFRAME
 70
     0
  9
$SPLINETYPE
 70
     6
  9
$SPLINESEGS
 70
     8
  9
$ATTDIA
 70
     0
  9
$ATTREQ
 70
     1
  9
$HANDLING
 70
     1
  9
$HANDSEED
  5
10B5
  9
$SURFTAB1
 70
     6
  9
$SURFTAB2
 70
     6
  9
$SURFTYPE
 70
     6
  9
$SURFU
 70
     6
  9
$SURFV
 70
     6
  9
$UCSNAME
  2

  9
$UCSORG
 10
0.0
 20
0.0
 30
0.0
  9
$UCSXDIR
 10
1.0
 20
0.0
 30
0.0
  9
$UCSYDIR
 10
0.0
 20
1.0
 30
0.0
  9
$PUCSNAME
  2

  9
$PUCSORG
 10
0.0
 20
0.0
 30
0.0
  9
$PUCSXDIR
 10
1.0
 20
0.0
 30
0.0
  9
$PUCSYDIR
 10
0.0
 20
1.0
 30
0.0
  9
$USERI1
 70
     4
  9
$USERI2
 70
     1
  9
$USERI3
 70
     0
  9
$USERI4
 70
     0
  9
$USERI5
 70
     0
  9
$USERR1
 40
1.0
  9
$USERR2
 40
3.0
  9
$USERR3
 40
3.0
  9
$USERR4
 40
3.0
  9
$USERR5
 40
10.0
  9
$WORLDVIEW
 70
     1
  9
$SHADEDGE
 70
     3
  9
$SHADEDIF
 70
    70
  9
$TILEMODE
 70
     1
  9
$MAXACTVP
 70
    16
  9
$PLIMCHECK
 70
     0
  9
$PEXTMIN
 10
1.0000000000000000E+020
 20
1.0000000000000000E+020
 30
1.0000000000000000E+020
  9
$PEXTMAX
 10
-1.0000000000000000E+020
 20
-1.0000000000000000E+020
 30
-1.0000000000000000E+020
  9
$PLIMMIN
 10
0.0
 20
0.0
  9
$PLIMMAX
 10
12.0
 20
9.0
  9
$UNITMODE
 70
     0
  9
$VISRETAIN
 70
     0
  9
$PLINEGEN
 70
     0
  9
$PSLTSCALE
 70
     0
  0
ENDSEC
  0
SECTION
  2
TABLES
  0
TABLE
  2
VPORT
 70
     1
  0
VPORT
  2
*ACTIVE
 70
     0
 10
0.0
 20
0.0
 11
1.0
 21
1.0
 12
93.74713919532617
 22
68.325823715754723
 13
0.0
 23
0.0
 14
5.0
 24
5.0
 15
5.0
 25
5.0
 16
0.0
 26
0.0
 36
1.0
 17
0.0
 27
0.0
 37
0.0
 40
144.2094002517301
 41
2.304913294797688
 42
50.0
 43
0.0
 44
0.0
 50
0.0
 51
0.0
 71
     0
 72
   100
 73
     1
 74
     0
 75
     0
 76
     0
 77
     0
 78
     0
  0
ENDTAB
  0
TABLE
  2
LTYPE
 70
     3
  0
LTYPE
  2
CONTINUOUS
 70
     0
  3
Solid Line
 72
    65
 73
     0
 40
0.0
  0
LTYPE
  2
CENTER
 70
     0
  3
____ _ ____ _ ____ _ ____ _ ____ _ ____ _ ____
 72
    65
 73
     4
 40
2.0
 49
1.25
 49
-0.25
 49
0.25
 49
-0.25
  0
LTYPE
  2
PHANTOM2
 70
     0
  3
___ _ _ ___ _ _ ___ _ _ ___ _ _
 72
    65
 73
     6
 40
1.25
 49
0.625
 49
-0.125
 49
0.125
 49
-0.125
 49
0.125
 49
-0.125
  0
ENDTAB
  0
TABLE
  2
LAYER
 70
     2
  0
LAYER
  2
0
 70
     0
 62
     7
  6
CONTINUOUS
  0
LAYER
  2
1
 70
     0
 62
     1
  6
CENTER
  0
ENDTAB
  0
TABLE
  2
STYLE
 70
     2
  0
STYLE
  2
STANDARD
 70
     0
 40
0.0
 41
1.0
 50
0.0
 71
     0
 42
0.2
  3
SIMPLEX
  4
BIGFONT
  0
STYLE
  2
STANDARD1
 70
     0
 40
0.0
 41
1.0
 50
0.0
 71
     0
 42
3.0
  3
txt
  4

  0
ENDTAB
  0
TABLE
  2
VIEW
 70
     0
  0
ENDTAB
  0
TABLE
  2
UCS
 70
     0
  0
ENDTAB
  0
TABLE
  2
APPID
 70
    20
  0
APPID
  2
ACAD
 70
     0
  0
APPID
  2
GENIUS_GENOBJ_13
 70
     0
  0
APPID
  2
GENIUS_GENODEF_13
 70
     0
  0
APPID
  2
GENIUS_GENOENT_13
 70
     0
  0
APPID
  2
GENIUS_GENOLIS_13
 70
     0
  0
APPID
  2
GENIUS_GENOREF_13
 70
     0
  0
APPID
  2
GENIUS_GENOBJ-N-TIT_13
 70
     0
  0
APPID
  2
GENIUS_GENTITLE_13
 70
     0
  0
APPID
  2
GENIUS_GENZVEED_13
 70
     0
  0
APPID
  2
GENIUS_GENOBJ-N-FIL_13
 70
     0
  0
APPID
  2
GENIUS_GENOBJ-N-CRS_13
 70
     0
  0
APPID
  2
GENIUS_GENOBJ-N-SEC_13
 70
     0
  0
APPID
  2
GENIUS_GENOBJ-N-LEADER_13
 70
     0
  0
APPID
  2
GENIUS_GENOBJ-N-ZOO_13
 70
     0
  0
APPID
  2
GENIUS_GENZOO_13
 70
     0
  0
APPID
  2
GENIUS_GENOBJ-N-REV_13
 70
     0
  0
APPID
  2
GENIUS_GENOBJ-N-RSSYM_13
 70
     0
  0
APPID
  2
GENIUS_GENSYMENT_13
 70
     0
  0
APPID
  2
ACAD_MLEADERVER
 70
     0
  0
APPID
  2
ACAD_NAV_VCDISPLAY
 70
     0
  0
ENDTAB
  0
TABLE
  2
DIMSTYLE
 70
     1
  0
DIMSTYLE
  2
STANDARD
 70
     0
  3

  4

  5

  6

  7

 40
1.0
 41
0.18
 42
0.0625
 43
0.38
 44
0.18
 45
0.0
 46
0.0
 47
0.0
 48
0.0
140
0.18
141
0.09
142
0.0
143
25.399999999999999
144
1.0
145
0.0
146
1.0
147
0.09
 71
     0
 72
     0
 73
     1
 74
     1
 75
     0
 76
     0
 77
     0
 78
     0
170
     0
171
     2
172
     0
173
     0
174
     0
175
     0
176
     0
177
     0
178
     0
  0
ENDTAB
  0
ENDSEC
  0
SECTION
  2
BLOCKS
  0
BLOCK
  8
0
  2
$MODEL_SPACE
 70
     0
 10
0.0
 20
0.0
 30
0.0
  3
$MODEL_SPACE
  1

  0
ENDBLK
  5
46F
  8
0
  0
BLOCK
 67
     1
  8
0
  2
$PAPER_SPACE
 70
     0
 10
0.0
 20
0.0
 30
0.0
  3
$PAPER_SPACE
  1

  0
ENDBLK
  5
46D
 67
     1
  8
0
  0
ENDSEC
  0
SECTION
  2
ENTITIES
  0
LINE
  5
CC6
  8
0
 10
93.955546455715933
 20
38.220784987855602
 30
0.0
 11
93.955546455715933
 21
39.813953360166977
 31
0.0
  0
LINE
  5
D04
  8
0
 10
87.155934538893163
 20
43.920420111743553
 30
0.0
 11
88.755546646450796
 21
43.920420111743553
 31
0.0
  0
LINE
  5
D22
  8
0
 10
97.488702917668093
 20
41.920420111743553
 30
0.0
 11
112.955715105083
 21
41.920420111743553
 31
0.0
  0
LINE
  5
D46
  8
0
 10
113.9557156167327
 20
40.920420111743553
 30
0.0
 11
113.9557156167327
 21
38.220785595817063
 31
0.0
  0
LINE
  5
D6A
  8
0
 10
113.6553503116549
 20
37.92042011174356
 30
0.0
 11
111.7565339100954
 21
37.92042011174356
 31
0.0
  0
LINE
  5
D8E
  8
0
 10
110.9555464557159
 20
37.119432478338169
 30
0.0
 11
110.9555464557159
 21
36.220784354847652
 31
0.0
  0
LINE
  5
DB2
  8
0
 10
110.6551824513254
 20
35.920420111743553
 30
0.0
 11
106.4561564124766
 21
35.920420111743553
 31
0.0
  0
LINE
  5
DD6
  8
0
 10
105.9555464557159
 20
35.419810154990117
 30
0.0
 11
105.9555464557159
 21
31.921148952398461
 31
0.0
  0
LINE
  5
E1D
  8
0
 10
106.8131971601958
 20
30.87001596223736
 30
0.0
 11
104.8890224491758
 21
27.537247902008151
 31
0.0
  0
LINE
  5
E40
  8
0
 10
103.9555464557159
 20
27.787372021793072
 30
0.0
 11
103.9555464557158
 21
37.919870362011309
 31
0.0
  0
LINE
  5
E84
  8
0
 10
101.9555464557159
 20
37.919870362153887
 30
0.0
 11
101.9555464557159
 21
25.621654048680099
 31
0.0
  0
LINE
  5
EA8
  8
0
 10
100.95431232796859
 20
24.62041992100869
 30
0.0
 11
100.7664659094757
 21
24.62041992100869
 31
0.0
  0
LINE
  5
EB4
  8
0
 10
100.57057691685181
 20
24.691717783106029
 30
0.0
 11
99.263257746692446
 21
25.788689278749612
 31
0.0
  0
LINE
  5
EC8
  8
0
 10
99.155546503399648
 20
26.019676559926531
 30
0.0
 11
99.155546503399648
 21
26.320054362180748
 31
0.0
  0
LINE
  5
EEC
  8
0
 10
99.45591230089542
 20
26.62041992100869
 30
0.0
 11
99.655182282962016
 21
26.62041992100869
 31
0.0
  0
LINE
  5
F10
  8
0
 10
99.955546455715947
 20
26.920783914758839
 30
0.0
 11
99.955546455715947
 21
37.419809729098688
 31
0.0
  0
LINE
  5
F34
  8
0
 10
99.454936093140077
 20
37.920420101743552
 30
0.0
 11
94.255911142859077
 21
37.920420101743552
 31
0.0
  0
ARC
  5
F37
  8
0
 10
112.955715105083
 20
40.92041960009395
 30
0.0
 40
1.000000511649731
 50
0.0
 51
90.0
  0
ARC
  5
F38
  8
0
 10
113.6555328687961
 20
38.220602859788961
 30
0.0
 40
0.3001828035567685
 50
269.96515538428378
 51
0.0348787595354797
  0
ARC
  5
F39
  8
0
 10
111.7560402782711
 20
37.119926289077988
 30
0.0
 40
0.8004939748668321
 50
89.964668038930299
 51
180.0353447631347
  0
ARC
  5
F3A
  8
0
 10
110.65536435813461
 20
36.220602209469497
 30
0.0
 40
0.3001821528426278
 50
269.96527943792239
 51
0.0347660977414544
  0
ARC
  5
F3B
  8
0
 10
106.45585143410609
 20
35.420115133353342
 30
0.0
 40
0.5003050713453093
 50
89.965073361119991
 51
180.0349266380432
  0
ARC
  5
F3D
  8
0
 10
106.5559129335374
 20
31.92078357839863
 30
0.0
 40
0.6003665890020216
 50
179.9651306554868
 51
269.84264825557699
  0
ARC
  5
F3E
  8
0
 10
106.5533892523445
 20
31.020285447189671
 30
0.0
 40
0.300135081404818
 50
329.95547497088819
 51
89.832982733565103
  0
ARC
  5
F3F
  8
0
 10
104.4556705416058
 20
27.78690855228492
 30
0.0
 40
0.5001243006405219
 50
179.94690349875609
 51
330.05309865638452
  0
ARC
  5
F40
  8
0
 10
102.9555464557159
 20
37.920145236948422
 30
0.0
 40
1.0000000377780749
 50
359.9842508266064
 51
180.01574916522441
  0
ARC
  5
F41
  8
0
 10
100.95492939184081
 20
25.621036984883819
 30
0.0
 40
1.0006172541416161
 50
269.96466665184761
 51
0.0353333438053262
  0
ARC
  5
F43
  8
0
 10
100.765601756403
 20
24.922794530518178
 30
0.0
 40
0.302375844333747
 50
229.83620403845549
 51
270.16374453266047
  0
ARC
  5
F44
  8
0
 10
99.456312965813083
 20
26.01931944766109
 30
0.0
 40
0.300766674420329
 50
179.93197042036309
 51
230.06807242448991
  0
ARC
  5
F45
  8
0
 10
99.455729378303374
 20
26.32023704625022
 30
0.0
 40
0.3001829304922836
 50
89.965085645831778
 51
180.03486882707259
  0
ARC
  5
F46
  8
0
 10
99.655364358055692
 20
26.920602018560469
 30
0.0
 40
0.30018215277049
 50
269.965247317398
 51
0.0347185367867539
  0
ARC
  5
F47
  8
0
 10
99.455241274419222
 20
37.420114920440732
 30
0.0
 40
0.500305274381617
 50
359.96504898544481
 51
90.034949862357834
  0
ARC
  5
F48
  8
0
 10
94.255728946139868
 20
38.220602592288252
 30
0.0
 40
0.3001825458371281
 50
179.9651861942034
 51
270.03477585168588
  0
ARC
  5
F4B
  8
0
 10
91.950747203360663
 20
39.817186724029682
 30
0.0
 40
2.0048018597572361
 50
359.90759277163681
 51
67.845639930780166
  0
ARC
  5
F4E
  8
0
 10
73.980354153274163
 20
-5.5452676977185824
 30
0.0
 40
50.797002560276283
 50
68.367501187145237
 51
75.025998759020226
  0
ARC
  5
F50
  8
0
 10
87.155740401963484
 20
43.720395420723953
 30
0.0
 40
0.2000247852308077
 50
89.944390749117815
 51
255.39993213144521
  0
ARC
  5
F53
  8
0
 10
87.917344603774879
 20
3.096172307980666
 30
0.0
 40
40.832851864713177
 50
85.920504814113272
 51
88.823770305803365
  0
ARC
  5
F54
  8
0
 10
90.081434267070506
 20
33.771167767453413
 30
0.0
 40
10.081650758647379
 50
60.711319004380258
 51
85.786226333591827
  0
ARC
  5
F55
  8
0
 10
97.478074899185458
 20
46.960941184060466
 30
0.0
 40
5.0405322769770784
 50
240.72806479334241
 51
270.12080887917938
  0
LINE
  5
F56
  8
0
 10
66.955715616732675
 20
43.920420111743553
 30
0.0
 11
16.955715616732672
 21
43.920420111743553
 31
0.0
  0
LINE
  5
F57
  8
0
 10
66.955715616732675
 20
24.62041992100869
 30
0.0
 11
16.955715616732672
 21
24.62041992100869
 31
0.0
  0
LINE
  5
F58
  8
0
 10
86.955715616732675
 20
63.920420111743553
 30
0.0
 11
113.9557156167327
 21
63.920420111743553
 31
0.0
  0
LINE
  5
F5C
  8
0
 10
113.9557156167327
 20
63.920420111743553
 30
0.0
 11
113.9557156167327
 21
113.9204201117435
 31
0.0
  0
LINE
  5
F5D
  8
0
 10
86.955715616732675
 20
63.920420111743553
 30
0.0
 11
86.955715616732675
 21
113.9204201117435
 31
0.0
  0
LINE
  5
F5E
  8
0
 10
86.955715616732675
 20
113.9204201117435
 30
0.0
 11
113.9557156167327
 21
113.9204201117435
 31
0.0
  0
LINE
  5
F63
  8
0
 10
133.95554645571599
 20
43.920420111743553
 30
0.0
 11
133.95554645571599
 21
24.62041992100869
 31
0.0
  0
LINE
  5
F64
  8
0
 10
66.955715616732675
 20
43.920420111743553
 30
0.0
 11
66.955715616732675
 21
24.62041992100869
 31
0.0
  0
LINE
  5
F65
  8
0
 10
16.955715616732672
 20
43.920420111743553
 30
0.0
 11
16.955715616732672
 21
24.62041992100869
 31
0.0
  0
LINE
  5
F66
  8
0
 10
183.95554645571599
 20
43.920420111743553
 30
0.0
 11
183.95554645571599
 21
24.62041992100869
 31
0.0
  0
LINE
  5
F67
  8
0
 10
133.95554645571599
 20
43.920420111743553
 30
0.0
 11
183.95554645571599
 21
43.920420111743553
 31
0.0
  0
LINE
  5
F68
  8
0
 10
133.95554645571599
 20
24.62041992100869
 30
0.0
 11
183.95554645571599
 21
24.62041992100869
 31
0.0
  0
LINE
  5
F69
  8
1
 10
100.4557156167326
 20
118.9204201117435
 30
0.0
 11
100.4557156167327
 21
58.920420111743553
 31
0.0
  0
LINE
  5
F78
  8
0
 10
16.955715616732672
 20
37.920420101743552
 30
0.0
 11
66.955715616732675
 21
37.920420101743552
 31
0.0
  0
LINE
  5
F79
  8
0
 10
16.955715616732672
 20
26.62041992100869
 30
0.0
 11
66.955715616732675
 21
26.62041992100869
 31
0.0
  0
LINE
  5
F7A
  8
0
 10
133.95554645571599
 20
41.920420111743553
 30
0.0
 11
183.95554645571599
 21
41.920420111743553
 31
0.0
  0
LINE
  5
F7B
  8
0
 10
133.95554645571599
 20
37.92042011174356
 30
0.0
 11
183.95554645571599
 21
37.92042011174356
 31
0.0
  0
LINE
  5
F7C
  8
0
 10
133.95554645571599
 20
35.920420111743553
 30
0.0
 11
183.95554645571599
 21
35.920420111743553
 31
0.0
  0
LINE
  5
F7D
  8
0
 10
133.95554645571599
 20
31.320419253436661
 30
0.0
 11
183.95554645571599
 21
31.320419253436661
 31
0.0
  0
LINE
  5
F7E
  8
0
 10
133.95554645571599
 20
27.286784251644399
 30
0.0
 11
183.95554645571599
 21
27.286784251644399
 31
0.0
  0
TEXT
  5
1023
  8
0
 62
     3
 10
0.0
 20
0.0
 30
0.0
 40
10.0
  1
PCST6-8
  7
STANDARD1
  0
ENDSEC
  0
EOF
