  0
SECTION
  2
HEADER
  9
$ACADVER
  1
AC1009
  9
$INSBASE
 10
0.0
 20
0.0
 30
0.0
  9
$EXTMIN
 10
0.0
 20
-2.960436562073669
 30
0.0
  9
$EXTMAX
 10
183.61909387962311
 20
111.2267754331732
 30
0.0
  9
$LIMMIN
 10
0.0
 20
0.0
  9
$LIMMAX
 10
275.0
 20
175.0
  9
$ORTHOMODE
 70
     1
  9
$REGENMODE
 70
     1
  9
$FILLMODE
 70
     1
  9
$QTEXTMODE
 70
     0
  9
$MIRRTEXT
 70
     0
  9
$DRAGMODE
 70
     2
  9
$LTSCALE
 40
10.0
  9
$OSMODE
 70
  3071
  9
$ATTMODE
 70
     1
  9
$TEXTSIZE
 40
0.2
  9
$TRACEWID
 40
0.05
  9
$TEXTSTYLE
  7
STANDARD
  9
$CLAYER
  8
0
  9
$CELTYPE
  6
BYLAYER
  9
$CECOLOR
 62
   256
  9
$DIMSCALE
 40
1.0
  9
$DIMASZ
 40
0.18
  9
$DIMEXO
 40
0.0625
  9
$DIMDLI
 40
0.38
  9
$DIMRND
 40
0.0
  9
$DIMDLE
 40
0.0
  9
$DIMEXE
 40
0.18
  9
$DIMTP
 40
0.0
  9
$DIMTM
 40
0.0
  9
$DIMTXT
 40
0.18
  9
$DIMCEN
 40
0.09
  9
$DIMTSZ
 40
0.0
  9
$DIMTOL
 70
     0
  9
$DIMLIM
 70
     0
  9
$DIMTIH
 70
     1
  9
$DIMTOH
 70
     1
  9
$DIMSE1
 70
     0
  9
$DIMSE2
 70
     0
  9
$DIMTAD
 70
     0
  9
$DIMZIN
 70
     0
  9
$DIMBLK
  1

  9
$DIMASO
 70
     0
  9
$DIMSHO
 70
     0
  9
$DIMPOST
  1

  9
$DIMAPOST
  1

  9
$DIMALT
 70
     0
  9
$DIMALTD
 70
     2
  9
$DIMALTF
 40
25.399999999999999
  9
$DIMLFAC
 40
1.0
  9
$DIMTOFL
 70
     0
  9
$DIMTVP
 40
0.0
  9
$DIMTIX
 70
     0
  9
$DIMSOXD
 70
     0
  9
$DIMSAH
 70
     0
  9
$DIMBLK1
  1

  9
$DIMBLK2
  1

  9
$DIMSTYLE
  2
STANDARD
  9
$DIMCLRD
 70
     0
  9
$DIMCLRE
 70
     0
  9
$DIMCLRT
 70
     0
  9
$DIMTFAC
 40
1.0
  9
$DIMGAP
 40
0.09
  9
$LUNITS
 70
     2
  9
$LUPREC
 70
     4
  9
$SKETCHINC
 40
0.1
  9
$FILLETRAD
 40
0.0
  9
$AUNITS
 70
     0
  9
$AUPREC
 70
     0
  9
$MENU
  1
E:\r13\win\SUPPORT\ACAD
  9
$ELEVATION
 40
0.0
  9
$PELEVATION
 40
0.0
  9
$THICKNESS
 40
0.0
  9
$LIMCHECK
 70
     0
  9
$BLIPMODE
 70
     0
  9
$CHAMFERA
 40
0.0
  9
$CHAMFERB
 40
0.0
  9
$SKPOLY
 70
     0
  9
$TDCREATE
 40
2450653.5278402781
  9
$TDUPDATE
 40
2456597.7047957298
  9
$TDINDWG
 40
0.2263944329
  9
$TDUSRTIMER
 40
0.2263944329
  9
$USRTIMER
 70
     1
  9
$ANGBASE
 50
0.0
  9
$ANGDIR
 70
     0
  9
$PDMODE
 70
     0
  9
$PDSIZE
 40
0.0
  9
$PLINEWID
 40
0.0
  9
$COORDS
 70
     1
  9
$SPLFRAME
 70
     0
  9
$SPLINETYPE
 70
     6
  9
$SPLINESEGS
 70
     8
  9
$ATTDIA
 70
     0
  9
$ATTREQ
 70
     1
  9
$HANDLING
 70
     1
  9
$HANDSEED
  5
2129
  9
$SURFTAB1
 70
     6
  9
$SURFTAB2
 70
     6
  9
$SURFTYPE
 70
     6
  9
$SURFU
 70
     6
  9
$SURFV
 70
     6
  9
$UCSNAME
  2

  9
$UCSORG
 10
0.0
 20
0.0
 30
0.0
  9
$UCSXDIR
 10
1.0
 20
0.0
 30
0.0
  9
$UCSYDIR
 10
0.0
 20
1.0
 30
0.0
  9
$PUCSNAME
  2

  9
$PUCSORG
 10
0.0
 20
0.0
 30
0.0
  9
$PUCSXDIR
 10
1.0
 20
0.0
 30
0.0
  9
$PUCSYDIR
 10
0.0
 20
1.0
 30
0.0
  9
$USERI1
 70
     4
  9
$USERI2
 70
     1
  9
$USERI3
 70
     1
  9
$USERI4
 70
     0
  9
$USERI5
 70
     0
  9
$USERR1
 40
1.0
  9
$USERR2
 40
3.0
  9
$USERR3
 40
3.0
  9
$USERR4
 40
3.0
  9
$USERR5
 40
10.0
  9
$WORLDVIEW
 70
     1
  9
$SHADEDGE
 70
     3
  9
$SHADEDIF
 70
    70
  9
$TILEMODE
 70
     1
  9
$MAXACTVP
 70
    16
  9
$PLIMCHECK
 70
     0
  9
$PEXTMIN
 10
1.0000000000000000E+020
 20
1.0000000000000000E+020
 30
1.0000000000000000E+020
  9
$PEXTMAX
 10
-1.0000000000000000E+020
 20
-1.0000000000000000E+020
 30
-1.0000000000000000E+020
  9
$PLIMMIN
 10
0.0
 20
0.0
  9
$PLIMMAX
 10
12.0
 20
9.0
  9
$UNITMODE
 70
     0
  9
$VISRETAIN
 70
     0
  9
$PLINEGEN
 70
     0
  9
$PSLTSCALE
 70
     0
  0
ENDSEC
  0
SECTION
  2
TABLES
  0
TABLE
  2
VPORT
 70
     1
  0
VPORT
  2
*ACTIVE
 70
     0
 10
0.0
 20
0.0
 11
1.0
 21
1.0
 12
137.49580415314509
 22
86.400589071664527
 13
0.0
 23
0.0
 14
5.0
 24
5.0
 15
10.0
 25
10.0
 16
0.0
 26
0.0
 36
1.0
 17
0.0
 27
0.0
 37
0.0
 40
180.7855228654438
 41
2.304913294797688
 42
50.0
 43
0.0
 44
0.0
 50
0.0
 51
0.0
 71
     0
 72
   100
 73
     1
 74
     0
 75
     0
 76
     0
 77
     0
 78
     0
  0
ENDTAB
  0
TABLE
  2
LTYPE
 70
     3
  0
LTYPE
  2
CONTINUOUS
 70
     0
  3
Solid Line
 72
    65
 73
     0
 40
0.0
  0
LTYPE
  2
CENTER
 70
     0
  3
____ _ ____ _ ____ _ ____ _ ____ _ ____ _ ____
 72
    65
 73
     4
 40
2.0
 49
1.25
 49
-0.25
 49
0.25
 49
-0.25
  0
LTYPE
  2
PHANTOM2
 70
     0
  3
___ _ _ ___ _ _ ___ _ _ ___ _ _
 72
    65
 73
     6
 40
1.25
 49
0.625
 49
-0.125
 49
0.125
 49
-0.125
 49
0.125
 49
-0.125
  0
ENDTAB
  0
TABLE
  2
LAYER
 70
     2
  0
LAYER
  2
0
 70
     0
 62
     7
  6
CONTINUOUS
  0
LAYER
  2
1
 70
     0
 62
     1
  6
CENTER
  0
ENDTAB
  0
TABLE
  2
STYLE
 70
     2
  0
STYLE
  2
STANDARD
 70
     0
 40
0.0
 41
1.0
 50
0.0
 71
     0
 42
0.2
  3
simplex
  4
bigfont
  0
STYLE
  2
STANDARD1
 70
     0
 40
0.0
 41
1.0
 50
0.0
 71
     0
 42
3.0
  3
txt
  4

  0
ENDTAB
  0
TABLE
  2
VIEW
 70
     0
  0
ENDTAB
  0
TABLE
  2
UCS
 70
     0
  0
ENDTAB
  0
TABLE
  2
APPID
 70
     6
  0
APPID
  2
ACAD
 70
     0
  0
APPID
  2
GENIUS_GENODEF_13
 70
     0
  0
APPID
  2
GENIUS_GENOBJ-N-FIL_13
 70
     0
  0
APPID
  2
CCLAB
 70
     0
  0
APPID
  2
ACAD_MLEADERVER
 70
     0
  0
APPID
  2
ACAD_NAV_VCDISPLAY
 70
     0
  0
ENDTAB
  0
TABLE
  2
DIMSTYLE
 70
     1
  0
DIMSTYLE
  2
STANDARD
 70
     0
  3

  4

  5

  6

  7

 40
1.0
 41
0.18
 42
0.0625
 43
0.38
 44
0.18
 45
0.0
 46
0.0
 47
0.0
 48
0.0
140
0.18
141
0.09
142
0.0
143
25.399999999999999
144
1.0
145
0.0
146
1.0
147
0.09
 71
     0
 72
     0
 73
     1
 74
     1
 75
     0
 76
     0
 77
     0
 78
     0
170
     0
171
     2
172
     0
173
     0
174
     0
175
     0
176
     0
177
     0
178
     0
  0
ENDTAB
  0
ENDSEC
  0
SECTION
  2
BLOCKS
  0
BLOCK
  8
0
  2
$MODEL_SPACE
 70
     0
 10
0.0
 20
0.0
 30
0.0
  3
$MODEL_SPACE
  1

  0
ENDBLK
  5
7
  8
0
  0
BLOCK
 67
     1
  8
0
  2
$PAPER_SPACE
 70
     0
 10
0.0
 20
0.0
 30
0.0
  3
$PAPER_SPACE
  1

  0
ENDBLK
  5
A
 67
     1
  8
0
  0
ENDSEC
  0
SECTION
  2
ENTITIES
  0
LINE
  5
1CAD
  8
0
 10
93.618893879623101
 20
30.52714040629176
 30
0.0
 11
93.618893879623101
 21
32.126775409331401
 31
0.0
  0
LINE
  5
1CEF
  8
0
 10
83.819290950975841
 20
36.226775433173259
 30
0.0
 11
91.205764549941705
 21
36.226775433173259
 31
0.0
  0
LINE
  5
1D06
  8
0
 10
97.429651516647027
 20
34.226775433173259
 30
0.0
 11
112.61909387962309
 21
34.226775433173259
 31
0.0
  0
LINE
  5
1D2A
  8
0
 10
113.61909387962309
 20
33.226775433173259
 30
0.0
 11
113.61909387962309
 21
30.526952603707599
 31
0.0
  0
LINE
  5
1D4E
  8
0
 10
113.3189168882224
 20
30.226775433173259
 30
0.0
 11
111.4199657873471
 21
30.226775433173259
 31
0.0
  0
LINE
  5
1D72
  8
0
 10
110.61909387962309
 20
29.425903346464921
 30
0.0
 11
110.61909387962309
 21
28.52700190423349
 31
0.0
  0
LINE
  5
1D96
  8
0
 10
110.3188676473989
 20
28.226775433173259
 30
0.0
 11
106.1195022308293
 21
28.226775433173259
 31
0.0
  0
LINE
  5
1DBA
  8
0
 10
105.6188938796231
 20
27.72616708189841
 30
0.0
 11
105.6188938796231
 21
24.22677352582463
 31
0.0
  0
LINE
  5
1E01
  8
0
 10
106.4767778098294
 20
23.176775242438399
 30
0.0
 11
104.55190636512719
 21
19.84280040418156
 31
0.0
  0
LINE
  5
1E24
  8
0
 10
103.6188938796231
 20
20.09280040418156
 30
0.0
 11
103.6188938796231
 21
30.22622568358317
 31
0.0
  0
LINE
  5
1E68
  8
0
 10
101.6188938796231
 20
30.226225683582971
 30
0.0
 11
101.6188938796231
 21
17.926775242438389
 31
0.0
  0
LINE
  5
1E8C
  8
0
 10
100.6188938796231
 20
16.926775242438389
 30
0.0
 11
100.428084987373
 21
16.926775242438389
 31
0.0
  0
LINE
  5
1E98
  8
0
 10
100.2352487027356
 20
16.99696185742863
 30
0.0
 11
98.92605759498565
 21
18.095504070868571
 31
0.0
  0
LINE
  5
1EAC
  8
0
 10
98.818893867702187
 20
18.3253176466132
 30
0.0
 11
98.818893867702187
 21
18.62640995065113
 31
0.0
  0
LINE
  5
1ED0
  8
0
 10
99.119259338538541
 20
18.926775242438381
 30
0.0
 11
99.318512117763191
 21
18.926775242438381
 31
0.0
  0
LINE
  5
1EF4
  8
0
 10
99.618893879623144
 20
19.227156825349208
 30
0.0
 11
99.618893879623101
 21
29.72616508859808
 31
0.0
  0
LINE
  5
1F18
  8
0
 10
99.118283534983846
 20
30.226775433173259
 30
0.0
 11
93.919258673716385
 21
30.226775433173248
 31
0.0
  0
ARC
  5
1F30
  8
0
 10
112.61909336797351
 20
33.226774921523642
 30
0.0
 40
1.000000511649747
 50
0.0
 51
90.0
  0
ARC
  5
1F32
  8
0
 10
113.3190052884504
 20
30.526864024398719
 30
0.0
 40
0.3000886042459472
 50
269.98312178477909
 51
0.0169124070454254
  0
ARC
  5
1F33
  8
0
 10
111.4195299288517
 20
29.426339383847221
 30
0.0
 40
0.8004361679942391
 50
89.968800943177129
 51
180.03121185851691
  0
ARC
  5
1F35
  8
0
 10
110.3189806680282
 20
28.526888644858118
 30
0.0
 40
0.3001132329662707
 50
269.97842279347623
 51
0.0216227864688858
  0
ARC
  5
1F36
  8
0
 10
106.11919805522621
 20
27.726471257570061
 30
0.0
 40
0.5003042680697416
 50
89.965165240820284
 51
180.0348347683634
  0
ARC
  5
1F3A
  8
0
 10
106.2167365904603
 20
23.326640719209951
 30
0.0
 40
0.3001351310641649
 50
330.04453689446279
 51
89.832966383570096
  0
ARC
  5
1F3C
  8
0
 10
106.21925929032371
 20
24.22713783498622
 30
0.0
 40
0.600365521234234
 50
180.03476778385729
 51
269.8427498166069
  0
ARC
  5
1F3D
  8
0
 10
104.1188940389394
 20
20.092801373553229
 30
0.0
 40
0.5000001593173125
 50
180.0
 51
329.99999775262228
  0
ARC
  5
1F3E
  8
0
 10
102.6188938796231
 20
30.22650055837811
 30
0.0
 40
1.0000000377780749
 50
359.98425083475212
 51
180.01574916525931
  0
ARC
  5
1F3F
  8
0
 10
100.6188933679735
 20
17.926775754087981
 30
0.0
 40
1.000000511649719
 50
270.0
 51
0.0
  0
ARC
  5
1F40
  8
0
 10
100.4280873874705
 20
17.226782011921362
 30
0.0
 40
0.300006769492563
 50
229.99998875680839
 51
270.0
  0
ARC
  5
1F41
  8
0
 10
99.118894371596426
 20
18.325317647323871
 30
0.0
 40
0.300000503894239
 50
180.0
 51
229.99998875680561
  0
ARC
  5
1F42
  8
0
 10
99.119076609076714
 20
18.626592501172691
 30
0.0
 40
0.3001827968818996
 50
89.965122492994652
 51
180.0348433527387
  0
ARC
  5
1F46
  8
0
 10
99.318702992725207
 20
19.22696612922266
 30
0.0
 40
0.3001909474677407
 50
269.96356875326393
 51
0.0363971133971109
  0
ARC
  5
1F47
  8
0
 10
99.118588707305378
 20
29.726470260855571
 30
0.0
 40
0.5003052653910233
 50
359.96505117041107
 51
90.034948836923789
  0
ARC
  5
1F4A
  8
0
 10
93.919076372044174
 20
30.526957925703041
 30
0.0
 40
0.3001825478859485
 50
179.96516996642779
 51
270.03479588381242
  0
ARC
  5
1F4E
  8
0
 10
97.440750674453511
 20
39.267191763622442
 30
0.0
 40
5.0404285507844211
 50
239.414548606126
 51
269.8738330667743
  0
ARC
  5
1F4F
  8
0
 10
89.751107035450843
 20
26.280276499127648
 30
0.0
 40
10.05230667704858
 50
59.347553090110793
 51
81.679581588449764
  0
ARC
  5
1F50
  8
0
 10
83.819092319932324
 20
36.026764120124987
 30
0.0
 40
0.2000114116783862
 50
89.943099634924863
 51
263.41352038263329
  0
ARC
  5
1F52
  8
0
 10
91.618893591150652
 20
32.12677519739367
 30
0.0
 40
2.000000288472461
 50
0.0
 51
72.48659453619274
  0
ARC
  5
1F53
  8
0
 10
78.60078495485152
 20
-9.2471053748461856
 30
0.0
 40
45.373599276689099
 50
72.531956595049948
 51
83.425100979955545
  0
LINE
  5
1F6A
  8
0
 10
183.61909387962311
 20
36.226775433173259
 30
0.0
 11
133.61909387962311
 21
36.226775433173259
 31
0.0
  0
LINE
  5
1F6B
  8
0
 10
183.61909387962311
 20
34.226775433173252
 30
0.0
 11
133.61909387962311
 21
34.226775433173252
 31
0.0
  0
LINE
  5
1F6C
  8
0
 10
183.61909387962311
 20
30.226775433173259
 30
0.0
 11
133.61909387962311
 21
30.226775433173259
 31
0.0
  0
LINE
  5
1F6D
  8
0
 10
183.61909387962311
 20
28.226775433173259
 30
0.0
 11
133.61909387962311
 21
28.226775433173259
 31
0.0
  0
LINE
  5
1F6E
  8
0
 10
183.61909387962311
 20
19.592801214235919
 30
0.0
 11
133.61909387962311
 21
19.592801214235919
 31
0.0
  0
LINE
  5
1F6F
  8
0
 10
183.61909387962311
 20
16.926775242438389
 30
0.0
 11
133.61909387962311
 21
16.926775242438389
 31
0.0
  0
LINE
  5
1F70
  8
0
 10
183.61909387962311
 20
23.326640719209951
 30
0.0
 11
133.61909387962311
 21
23.326640719209951
 31
0.0
  0
LINE
  5
1F71
  8
0
 10
133.61909387962311
 20
36.226775433173259
 30
0.0
 11
133.61909387962311
 21
16.926775242438389
 31
0.0
  0
LINE
  5
1F72
  8
0
 10
183.61909387962311
 20
36.226775433173259
 30
0.0
 11
183.61909387962311
 21
16.926775242438389
 31
0.0
  0
LINE
  5
1FC2
  8
0
 10
113.61909387962299
 20
106.2267754331732
 30
0.0
 11
113.61909387962299
 21
56.226775433173238
 31
0.0
  0
LINE
  5
1FC4
  8
0
 10
83.619080908253935
 20
56.226775433173238
 30
0.0
 11
83.619080908253935
 21
106.2267754331732
 31
0.0
  0
LINE
  5
1FC6
  8
0
 10
83.619080908253935
 20
56.226775433173238
 30
0.0
 11
113.61909387962299
 21
56.226775433173238
 31
0.0
  0
LINE
  5
1FC7
  8
0
 10
113.61909387962299
 20
106.2267754331732
 30
0.0
 11
83.619080908253935
 21
106.2267754331732
 31
0.0
  0
LINE
  5
1FCA
  8
1
 10
98.619087393938514
 20
51.226775433173238
 30
0.0
 11
98.619087393938514
 21
111.2267754331732
 31
0.0
  0
LINE
  5
1FE9
  8
0
 10
63.619080908253942
 20
16.926775242438389
 30
0.0
 11
63.619080908253942
 21
36.226775433173259
 31
0.0
  0
LINE
  5
1FEE
  8
0
 10
13.619080908253959
 20
16.926775242438389
 30
0.0
 11
63.619080908253942
 21
16.926775242438389
 31
0.0
  0
LINE
  5
1FEF
  8
0
 10
13.619080908253959
 20
36.226775433173259
 30
0.0
 11
63.619080908253942
 21
36.226775433173259
 31
0.0
  0
LINE
  5
1FF0
  8
0
 10
13.619080908253959
 20
30.226775433173259
 30
0.0
 11
63.619080908253942
 21
30.226775433173259
 31
0.0
  0
LINE
  5
1FF1
  8
0
 10
13.619080908253959
 20
18.926775242438381
 30
0.0
 11
63.619080908253942
 21
18.926775242438381
 31
0.0
  0
LINE
  5
1FF2
  8
0
 10
13.619080908253959
 20
16.926775242438389
 30
0.0
 11
13.619080908253959
 21
36.226775433173259
 31
0.0
  0
TEXT
  5
2097
  8
0
 62
     3
 10
0.0
 20
0.0
 30
0.0
 40
10.0
  1
PCST2-4
  7
STANDARD1
  0
ENDSEC
  0
EOF
