  0
SECTION
  2
HEADER
  9
$ACADVER
  1
AC1009
  9
$INSBASE
 10
0.0
 20
0.0
 30
0.0
  9
$EXTMIN
 10
0.0
 20
-2.960436562073669
 30
0.0
  9
$EXTMAX
 10
111.2000001130818
 20
83.999999936693271
 30
0.0
  9
$LIMMIN
 10
0.0
 20
0.0
  9
$LIMMAX
 10
750.0
 20
540.0
  9
$ORTHOMODE
 70
     1
  9
$REGENMODE
 70
     1
  9
$FILLMODE
 70
     1
  9
$QTEXTMODE
 70
     0
  9
$MIRRTEXT
 70
     0
  9
$DRAGMODE
 70
     2
  9
$LTSCALE
 40
10.0
  9
$OSMODE
 70
    37
  9
$ATTMODE
 70
     1
  9
$TEXTSIZE
 40
0.2
  9
$TRACEWID
 40
0.05
  9
$TEXTSTYLE
  7
STANDARD
  9
$CLAYER
  8
0
  9
$CELTYPE
  6
BYLAYER
  9
$CECOLOR
 62
   256
  9
$DIMSCALE
 40
1.0
  9
$DIMASZ
 40
3.0
  9
$DIMEXO
 40
2.0
  9
$DIMDLI
 40
0.38
  9
$DIMRND
 40
0.0
  9
$DIMDLE
 40
0.0
  9
$DIMEXE
 40
2.0
  9
$DIMTP
 40
0.0
  9
$DIMTM
 40
0.0
  9
$DIMTXT
 40
3.2000000000000002
  9
$DIMCEN
 40
0.0
  9
$DIMTSZ
 40
0.0
  9
$DIMTOL
 70
     0
  9
$DIMLIM
 70
     0
  9
$DIMTIH
 70
     0
  9
$DIMTOH
 70
     0
  9
$DIMSE1
 70
     0
  9
$DIMSE2
 70
     0
  9
$DIMTAD
 70
     1
  9
$DIMZIN
 70
     0
  9
$DIMBLK
  1

  9
$DIMASO
 70
     0
  9
$DIMSHO
 70
     0
  9
$DIMPOST
  1

  9
$DIMAPOST
  1

  9
$DIMALT
 70
     0
  9
$DIMALTD
 70
     2
  9
$DIMALTF
 40
25.399999999999999
  9
$DIMLFAC
 40
1.0
  9
$DIMTOFL
 70
     0
  9
$DIMTVP
 40
1.6000000000000001
  9
$DIMTIX
 70
     1
  9
$DIMSOXD
 70
     0
  9
$DIMSAH
 70
     0
  9
$DIMBLK1
  1

  9
$DIMBLK2
  1

  9
$DIMSTYLE
  2
STANDARD
  9
$DIMCLRD
 70
     0
  9
$DIMCLRE
 70
     0
  9
$DIMCLRT
 70
     0
  9
$DIMTFAC
 40
1.0
  9
$DIMGAP
 40
0.09
  9
$LUNITS
 70
     2
  9
$LUPREC
 70
     4
  9
$SKETCHINC
 40
0.1
  9
$FILLETRAD
 40
0.0
  9
$AUNITS
 70
     0
  9
$AUPREC
 70
     4
  9
$MENU
  1
E:\r13\win\SUPPORT\ACAD
  9
$ELEVATION
 40
0.0
  9
$PELEVATION
 40
0.0
  9
$THICKNESS
 40
0.0
  9
$LIMCHECK
 70
     0
  9
$BLIPMODE
 70
     0
  9
$CHAMFERA
 40
0.0
  9
$CHAMFERB
 40
0.0
  9
$SKPOLY
 70
     0
  9
$TDCREATE
 40
2449840.6227546302
  9
$TDUPDATE
 40
2457436.5938259722
  9
$TDINDWG
 40
0.0270602894
  9
$TDUSRTIMER
 40
2456598.161401852
  9
$USRTIMER
 70
     1
  9
$ANGBASE
 50
0.0
  9
$ANGDIR
 70
     0
  9
$PDMODE
 70
     0
  9
$PDSIZE
 40
0.0
  9
$PLINEWID
 40
0.0
  9
$COORDS
 70
     1
  9
$SPLFRAME
 70
     0
  9
$SPLINETYPE
 70
     6
  9
$SPLINESEGS
 70
     8
  9
$ATTDIA
 70
     0
  9
$ATTREQ
 70
     1
  9
$HANDLING
 70
     1
  9
$HANDSEED
  5
805
  9
$SURFTAB1
 70
     6
  9
$SURFTAB2
 70
     6
  9
$SURFTYPE
 70
     6
  9
$SURFU
 70
     6
  9
$SURFV
 70
     6
  9
$UCSNAME
  2

  9
$UCSORG
 10
0.0
 20
0.0
 30
0.0
  9
$UCSXDIR
 10
1.0
 20
0.0
 30
0.0
  9
$UCSYDIR
 10
0.0
 20
1.0
 30
0.0
  9
$PUCSNAME
  2

  9
$PUCSORG
 10
0.0
 20
0.0
 30
0.0
  9
$PUCSXDIR
 10
1.0
 20
0.0
 30
0.0
  9
$PUCSYDIR
 10
0.0
 20
1.0
 30
0.0
  9
$USERI1
 70
     0
  9
$USERI2
 70
     1
  9
$USERI3
 70
     0
  9
$USERI4
 70
     0
  9
$USERI5
 70
     0
  9
$USERR1
 40
0.0
  9
$USERR2
 40
0.0
  9
$USERR3
 40
0.0
  9
$USERR4
 40
0.0
  9
$USERR5
 40
0.0
  9
$WORLDVIEW
 70
     1
  9
$SHADEDGE
 70
     3
  9
$SHADEDIF
 70
    70
  9
$TILEMODE
 70
     1
  9
$MAXACTVP
 70
    16
  9
$PLIMCHECK
 70
     0
  9
$PEXTMIN
 10
1.0000000000000000E+020
 20
1.0000000000000000E+020
 30
1.0000000000000000E+020
  9
$PEXTMAX
 10
-1.0000000000000000E+020
 20
-1.0000000000000000E+020
 30
-1.0000000000000000E+020
  9
$PLIMMIN
 10
0.0
 20
0.0
  9
$PLIMMAX
 10
12.0
 20
9.0
  9
$UNITMODE
 70
     0
  9
$VISRETAIN
 70
     0
  9
$PLINEGEN
 70
     0
  9
$PSLTSCALE
 70
     0
  0
ENDSEC
  0
SECTION
  2
TABLES
  0
TABLE
  2
VPORT
 70
     1
  0
VPORT
  2
*ACTIVE
 70
     0
 10
0.0
 20
0.0
 11
1.0
 21
1.0
 12
172.54273504273499
 22
95.0
 13
0.0
 23
0.0
 14
20.0
 24
20.0
 15
20.0
 25
20.0
 16
0.0
 26
0.0
 36
1.0
 17
0.0
 27
0.0
 37
0.0
 40
190.0
 41
1.816239316239316
 42
50.0
 43
0.0
 44
0.0
 50
0.0
 51
0.0
 71
    16
 72
   100
 73
     1
 74
     0
 75
     0
 76
     0
 77
     0
 78
     2
  0
ENDTAB
  0
TABLE
  2
LTYPE
 70
     4
  0
LTYPE
  2
CONTINUOUS
 70
     0
  3
Solid Line
 72
    65
 73
     0
 40
0.0
  0
LTYPE
  2
CENTER
 70
     0
  3
____ _ ____ _ ____ _ ____ _ ____ _ ____ _ ____
 72
    65
 73
     4
 40
2.0
 49
1.25
 49
-0.25
 49
0.25
 49
-0.25
  0
LTYPE
  2
HIDDEN
 70
     0
  3
_ _ _ _ _ _ _ _ _ _ _ _ _ _ _ _ _ _ _ _ _ _ _
 72
    65
 73
     2
 40
0.375
 49
0.25
 49
-0.125
  0
LTYPE
  2
PHANTOM2
 70
     0
  3
___ _ _ ___ _ _ ___ _ _ ___ _ _
 72
    65
 73
     6
 40
1.25
 49
0.625
 49
-0.125
 49
0.125
 49
-0.125
 49
0.125
 49
-0.125
  0
ENDTAB
  0
TABLE
  2
LAYER
 70
     4
  0
LAYER
  2
0
 70
     0
 62
     7
  6
CONTINUOUS
  0
LAYER
  2
1
 70
     0
 62
     1
  6
CENTER
  0
LAYER
  2
2
 70
     0
 62
     2
  6
HIDDEN
  0
LAYER
  2
3
 70
     0
 62
     3
  6
CONTINUOUS
  0
ENDTAB
  0
TABLE
  2
STYLE
 70
     2
  0
STYLE
  2
STANDARD
 70
     0
 40
0.0
 41
1.0
 50
0.0
 71
     0
 42
0.2
  3
TXT
  4
BIGFONT
  0
STYLE
  2
STANDARD1
 70
     0
 40
0.0
 41
1.0
 50
0.0
 71
     0
 42
3.0
  3
txt
  4

  0
ENDTAB
  0
TABLE
  2
VIEW
 70
     1
  0
VIEW
  2
ALL
 70
     0
 40
540.0
 10
441.98319299999991
 20
270.0
 41
0.0
 11
0.0
 21
0.0
 31
1.0
 12
0.0
 22
0.0
 32
0.0
 42
50.0
 43
0.0
 44
0.0
 50
0.0
 71
     0
  0
ENDTAB
  0
TABLE
  2
UCS
 70
     0
  0
ENDTAB
  0
TABLE
  2
APPID
 70
     6
  0
APPID
  2
ACAD
 70
     0
  0
APPID
  2
ACAD_NAV_VCDISPLAY
 70
     0
  0
APPID
  2
ACAD_EXEMPT_FROM_CAD_STANDARDS
 70
     0
  0
APPID
  2
ACAD_DSTYLE_DIMJAG
 70
     0
  0
APPID
  2
ACAD_DSTYLE_DIMTALN
 70
     0
  0
APPID
  2
ACAD_MLEADERVER
 70
     0
  0
ENDTAB
  0
TABLE
  2
DIMSTYLE
 70
     1
  0
DIMSTYLE
  2
STANDARD
 70
     0
  3

  4

  5

  6

  7

 40
1.0
 41
0.18
 42
0.0625
 43
0.38
 44
0.18
 45
0.0
 46
0.0
 47
0.0
 48
0.0
140
0.18
141
0.09
142
0.0
143
25.399999999999999
144
1.0
145
0.0
146
1.0
147
0.09
 71
     0
 72
     0
 73
     1
 74
     1
 75
     0
 76
     0
 77
     0
 78
     0
170
     0
171
     2
172
     0
173
     0
174
     0
175
     0
176
     0
177
     0
178
     0
  0
ENDTAB
  0
ENDSEC
  0
SECTION
  2
BLOCKS
  0
BLOCK
  8
0
  2
$MODEL_SPACE
 70
     0
 10
0.0
 20
0.0
 30
0.0
  3
$MODEL_SPACE
  1

  0
ENDBLK
  5
11D
  8
0
  0
BLOCK
 67
     1
  8
0
  2
$PAPER_SPACE
 70
     0
 10
0.0
 20
0.0
 30
0.0
  3
$PAPER_SPACE
  1

  0
ENDBLK
  5
11B
 67
     1
  8
0
  0
ENDSEC
  0
SECTION
  2
ENTITIES
  0
CIRCLE
  5
402
  8
0
 10
10.50000011308285
 20
73.499999936693271
 30
0.0
 40
8.5
  0
CIRCLE
  5
403
  8
0
 10
10.50000011308285
 20
73.499999936693271
 30
0.0
 40
7.0
  0
LINE
  5
404
  8
0
 10
2.0000001130828471
 20
77.407477224805092
 30
0.0
 11
3.4920776131051801
 21
78.268928571094804
 31
0.0
  0
LINE
  5
405
  8
0
 10
9.8702725976227992
 20
81.951381162349946
 30
0.0
 11
10.50000011308285
 21
82.314954512916941
 31
0.0
  0
LINE
  5
406
  8
0
 10
10.50000011308285
 20
82.314954512916941
 30
0.0
 11
11.127966315778879
 21
81.952398056748393
 31
0.0
  0
LINE
  5
407
  8
0
 10
17.524940862336109
 20
78.259103080294395
 30
0.0
 11
19.000000113082869
 21
77.407477224805092
 31
0.0
  0
LINE
  5
408
  8
0
 10
19.000000113082869
 20
77.407477224805092
 30
0.0
 11
19.000000113082869
 21
67.592522648581465
 31
0.0
  0
LINE
  5
409
  8
0
 10
19.000000113082869
 20
67.592522648581465
 30
0.0
 11
10.50000011308285
 21
62.685045360469651
 31
0.0
  0
LINE
  5
40A
  8
0
 10
10.50000011308285
 20
62.685045360469651
 30
0.0
 11
2.0000001130828609
 21
67.592522648581465
 31
0.0
  0
LINE
  5
40B
  8
0
 10
2.0000001130828609
 20
67.592522648581465
 30
0.0
 11
2.0000001130828471
 21
77.407477224805092
 31
0.0
  0
LINE
  5
40C
  8
0
 10
68.70000011308187
 20
81.199999936693715
 30
0.0
 11
66.70000011308187
 21
81.199999936693715
 31
0.0
  0
LINE
  5
40D
  8
0
 10
66.70000011308187
 20
65.799999936693752
 30
0.0
 11
68.70000011308187
 21
65.799999936693752
 31
0.0
  0
LINE
  5
40E
  8
0
 10
74.47510596218369
 20
65.994446437228603
 30
0.0
 11
75.200000113081842
 21
67.249999936693754
 31
0.0
  0
LINE
  5
40F
  8
0
 10
75.200000113081842
 20
79.749999936693754
 30
0.0
 11
74.47510596218369
 21
81.005553436158877
 31
0.0
  0
LINE
  5
410
  8
0
 10
39.800000113081872
 20
81.999999936693769
 30
0.0
 11
38.200000113081842
 21
81.999999936693769
 31
0.0
  0
LINE
  5
411
  8
0
 10
38.200000113081842
 20
64.999999936693754
 30
0.0
 11
39.800000113081872
 21
64.999999936693754
 31
0.0
  0
LINE
  5
412
  8
0
 10
37.20000011308187
 20
66.499999936693754
 30
0.0
 11
38.200000113081842
 21
66.499999936693754
 31
0.0
  0
LINE
  5
413
  8
0
 10
38.200000113081842
 20
80.499999936693754
 30
0.0
 11
37.20000011308187
 21
80.499999936693754
 31
0.0
  0
LINE
  5
414
  8
0
 10
56.80559965315048
 20
82.314954512917424
 30
0.0
 11
55.700000113081842
 21
80.39999993669376
 31
0.0
  0
LINE
  5
415
  8
0
 10
55.700000113081842
 20
64.599999936693749
 30
0.0
 11
56.80559965315048
 21
62.685045360470113
 31
0.0
  0
ARC
  5
416
  8
0
 10
55.400000113081859
 20
78.799999936693737
 30
0.0
 40
0.2999999999999829
 50
270.00000000000131
 51
0.0
  0
ARC
  5
417
  8
0
 10
55.400000113081859
 20
66.199999936693757
 30
0.0
 40
0.2999999999999971
 50
0.0
 51
90.0
  0
LINE
  5
418
  8
0
 10
40.800000113081822
 20
78.499999936693754
 30
0.0
 11
40.30000011308185
 21
78.211324802098957
 31
0.0
  0
LINE
  5
419
  8
0
 10
40.30000011308185
 20
66.788675071288552
 30
0.0
 11
40.800000113081822
 21
66.499999936693754
 31
0.0
  0
LINE
  5
41A
  8
0
 10
55.400000113081859
 20
78.499999936693754
 30
0.0
 11
40.800000113081822
 21
78.499999936693754
 31
0.0
  0
LINE
  5
41B
  8
0
 10
40.800000113081822
 20
66.499999936693754
 30
0.0
 11
55.400000113081859
 21
66.499999936693754
 31
0.0
  0
LINE
  5
41C
  8
0
 10
68.70000011308187
 20
65.799999936693752
 30
0.0
 11
68.70000011308187
 21
81.199999936693715
 31
0.0
  0
ARC
  5
41D
  8
0
 10
71.640293062878555
 20
67.870834812094913
 30
0.0
 40
3.3995584282962592
 50
326.49906331266601
 51
33.500936687334843
  0
ARC
  5
41E
  8
0
 10
62.363905178853067
 20
73.499999936693754
 30
0.0
 40
12.67929484425224
 50
342.78388191107041
 51
17.216118088929569
  0
ARC
  5
41F
  8
0
 10
71.640293062878612
 20
79.129165061292596
 30
0.0
 40
3.3995584282961939
 50
326.49906331266521
 51
33.500936687334978
  0
LINE
  5
420
  8
0
 10
75.200000113081842
 20
79.749999936693754
 30
0.0
 11
75.200000113081842
 21
67.249999936693754
 31
0.0
  0
LINE
  5
421
  8
0
 10
74.47510596218369
 20
69.747223186961193
 30
0.0
 11
68.70000011308187
 21
69.747223186961193
 31
0.0
  0
LINE
  5
422
  8
0
 10
74.47510596218369
 20
77.252776686426316
 30
0.0
 11
68.70000011308187
 21
77.252776686426316
 31
0.0
  0
LINE
  5
423
  8
0
 10
74.47510596218369
 20
65.994446437228603
 30
0.0
 11
68.70000011308187
 21
65.994446437228603
 31
0.0
  0
LINE
  5
424
  8
0
 10
74.47510596218369
 20
81.005553436158877
 30
0.0
 11
68.70000011308187
 21
81.005553436158877
 31
0.0
  0
LINE
  5
425
  8
0
 10
39.800000113081872
 20
64.999999936693754
 30
0.0
 11
39.800000113081872
 21
81.999999936693769
 31
0.0
  0
LINE
  5
426
  8
0
 10
38.200000113081842
 20
64.999999936693754
 30
0.0
 11
38.200000113081842
 21
81.999999936693769
 31
0.0
  0
LINE
  5
427
  8
0
 10
55.700000113081842
 20
64.599999936693749
 30
0.0
 11
55.700000113081842
 21
80.39999993669376
 31
0.0
  0
ARC
  5
428
  8
0
 10
60.527967160284852
 20
79.861215868861507
 30
0.0
 40
4.458346463825265
 50
146.607622859093
 51
213.39237714090811
  0
ARC
  5
429
  8
0
 10
72.535716767952067
 20
72.499999936693754
 30
0.0
 40
16.477861444335169
 50
162.67313792442209
 51
197.32686207557859
  0
ARC
  5
42A
  8
0
 10
60.52796716028471
 20
65.138784004526002
 30
0.0
 40
4.458346463825138
 50
146.60762285909189
 51
213.39237714090879
  0
LINE
  5
42B
  8
0
 10
56.80559965315048
 20
67.592522648581934
 30
0.0
 11
63.594400573013239
 21
67.592522648581934
 31
0.0
  0
LINE
  5
42C
  8
0
 10
56.80559965315048
 20
77.407477224805561
 30
0.0
 11
63.594400573013239
 21
77.407477224805575
 31
0.0
  0
LINE
  5
42E
  8
0
 10
56.80559965315048
 20
62.685045360470113
 30
0.0
 11
63.594400573013232
 21
62.685045360470113
 31
0.0
  0
LINE
  5
42F
  8
0
 10
56.80559965315048
 20
82.314954512917424
 30
0.0
 11
63.594400573013232
 21
82.314954512917438
 31
0.0
  0
LINE
  5
430
  8
0
 10
40.30000011308185
 20
66.788675071288552
 30
0.0
 11
40.30000011308185
 21
78.211324802098957
 31
0.0
  0
LINE
  5
431
  8
0
 10
40.800000113081822
 20
78.499999936693754
 30
0.0
 11
40.800000113081822
 21
66.499999936693754
 31
0.0
  0
LINE
  5
432
  8
0
 10
37.20000011308187
 20
73.499999936693754
 30
0.0
 11
37.20000011308187
 21
80.499999936693754
 31
0.0
  0
LINE
  5
433
  8
0
 10
37.20000011308187
 20
66.499999936693754
 30
0.0
 11
37.20000011308187
 21
73.499999936693754
 31
0.0
  0
LINE
  5
434
  8
0
 10
37.20000011308187
 20
80.499999936693754
 30
0.0
 11
37.20000011308187
 21
66.499999936693754
 31
0.0
  0
LINE
  5
435
  8
0
 10
107.2000001130818
 20
69.747223186961193
 30
0.0
 11
107.2000001130818
 21
77.252776686426316
 31
0.0
  0
LINE
  5
436
  8
0
 10
100.7000001130818
 20
65.994446437228603
 30
0.0
 11
107.2000001130818
 21
69.747223186961193
 31
0.0
  0
LINE
  5
437
  8
0
 10
94.200000113081842
 20
69.747223186961193
 30
0.0
 11
100.7000001130818
 21
65.994446437228603
 31
0.0
  0
LINE
  5
438
  8
0
 10
94.200000113081842
 20
77.252776686426316
 30
0.0
 11
94.200000113081842
 21
69.747223186961193
 31
0.0
  0
LINE
  5
439
  8
0
 10
100.7000001130818
 20
81.005553436158891
 30
0.0
 11
94.200000113081842
 21
77.252776686426316
 31
0.0
  0
LINE
  5
43A
  8
0
 10
107.2000001130818
 20
77.252776686426316
 30
0.0
 11
100.7000001130818
 21
81.005553436158891
 31
0.0
  0
CIRCLE
  5
43B
  8
0
 10
100.7000001130818
 20
73.499999936693754
 30
0.0
 40
6.25
  0
LINE
  5
43C
  8
0
 10
109.2000001130818
 20
67.592522648581934
 30
0.0
 11
109.2000001130818
 21
77.407477224805589
 31
0.0
  0
LINE
  5
43D
  8
0
 10
100.7000001130818
 20
62.685045360470113
 30
0.0
 11
109.2000001130818
 21
67.592522648581934
 31
0.0
  0
LINE
  5
43E
  8
0
 10
92.200000113081856
 20
67.592522648581934
 30
0.0
 11
100.7000001130818
 21
62.685045360470113
 31
0.0
  0
LINE
  5
43F
  8
0
 10
92.200000113081856
 20
77.407477224805589
 30
0.0
 11
92.200000113081856
 21
67.592522648581934
 31
0.0
  0
LINE
  5
440
  8
0
 10
109.2000001130818
 20
77.407477224805589
 30
0.0
 11
105.3883793426714
 21
79.608117502650828
 31
0.0
  0
LINE
  5
441
  8
0
 10
103.64559547970789
 20
80.614314235072143
 30
0.0
 11
100.7000001130818
 21
82.314954512917396
 31
0.0
  0
LINE
  5
442
  8
0
 10
100.7000001130818
 20
82.314954512917396
 30
0.0
 11
97.754404746455805
 21
80.614314235072143
 31
0.0
  0
LINE
  5
443
  8
0
 10
96.011620883492341
 20
79.608117502650828
 30
0.0
 11
92.200000113081856
 21
77.407477224805589
 31
0.0
  0
LINE
  5
444
  8
0
 10
66.700000113082893
 20
30.799999936693879
 30
0.0
 11
68.700000113082851
 21
30.799999936693879
 31
0.0
  0
LINE
  5
445
  8
0
 10
75.055662545785452
 20
31.999999936693889
 30
0.0
 11
75.200000113082879
 21
32.249999936693882
 31
0.0
  0
LINE
  5
446
  8
0
 10
75.200000113082879
 20
44.749999936693868
 30
0.0
 11
75.055662545785452
 21
44.999999936693868
 31
0.0
  0
LINE
  5
447
  8
0
 10
39.800000113082888
 20
46.999999936693847
 30
0.0
 11
38.200000113082872
 21
46.999999936693847
 31
0.0
  0
LINE
  5
448
  8
0
 10
38.200000113082872
 20
29.999999936693872
 30
0.0
 11
39.800000113082888
 21
29.999999936693872
 31
0.0
  0
LINE
  5
449
  8
0
 10
37.200000113082901
 20
31.499999936693872
 30
0.0
 11
38.200000113082901
 21
31.499999936693872
 31
0.0
  0
LINE
  5
44A
  8
0
 10
38.200000113082901
 20
45.499999936693868
 30
0.0
 11
37.200000113082901
 21
45.499999936693868
 31
0.0
  0
LINE
  5
44B
  8
0
 10
56.046410274596631
 20
46.999999936693868
 30
0.0
 11
55.700000113082872
 21
46.39999993669386
 31
0.0
  0
LINE
  5
44C
  8
0
 10
55.700000113082872
 20
30.59999993669388
 30
0.0
 11
56.046410274596631
 21
29.999999936693879
 31
0.0
  0
ARC
  5
44D
  8
0
 10
55.400000113082889
 20
44.799999936693872
 30
0.0
 40
0.3000000000000114
 50
270.00000000000131
 51
0.0
  0
ARC
  5
44E
  8
0
 10
55.400000113082889
 20
32.199999936693871
 30
0.0
 40
0.2999999999999971
 50
0.0
 51
90.0
  0
LINE
  5
44F
  8
0
 10
40.800000113082852
 20
44.499999936693847
 30
0.0
 11
40.300000113082866
 21
44.211324802099078
 31
0.0
  0
LINE
  5
450
  8
0
 10
40.300000113082866
 20
32.788675071288651
 30
0.0
 11
40.800000113082852
 21
32.499999936693868
 31
0.0
  0
LINE
  5
451
  8
0
 10
55.400000113082889
 20
44.499999936693847
 30
0.0
 11
40.800000113082852
 21
44.499999936693847
 31
0.0
  0
LINE
  5
452
  8
0
 10
40.800000113082852
 20
32.499999936693868
 30
0.0
 11
55.400000113082889
 21
32.499999936693868
 31
0.0
  0
LINE
  5
453
  8
0
 10
66.700000113082893
 20
46.189603307479629
 30
0.0
 11
68.700000113082851
 21
46.189603307479629
 31
0.0
  0
LINE
  5
454
  8
0
 10
68.700000113082851
 20
30.799999936693879
 30
0.0
 11
68.700000113082851
 21
46.189603307479629
 31
0.0
  0
LINE
  5
455
  8
0
 10
66.700000113082893
 20
30.799999936693879
 30
0.0
 11
66.700000113082893
 21
46.189603307479629
 31
0.0
  0
LINE
  5
456
  8
0
 10
74.475105962184699
 20
31.999999936693889
 30
0.0
 11
75.054492351027662
 21
31.999999936693889
 31
0.0
  0
ARC
  5
457
  8
0
 10
65.496167720618189
 20
35.249999936693897
 30
0.0
 40
9.5490225649469274
 50
340.10186333709828
 51
19.89813666290279
  0
ARC
  5
458
  8
0
 10
65.496167720618061
 20
41.749999936693868
 30
0.0
 40
9.5490225649470322
 50
340.10186333709828
 51
19.898136662902829
  0
LINE
  5
459
  8
0
 10
75.053203324301151
 20
44.999999936693861
 30
0.0
 11
74.475105962184699
 21
44.999999936693868
 31
0.0
  0
LINE
  5
45A
  8
0
 10
75.200000113082879
 20
44.749999936693868
 30
0.0
 11
75.200000113082879
 21
32.249999936693882
 31
0.0
  0
LINE
  5
45B
  8
0
 10
74.475105962184699
 20
31.999999936693889
 30
0.0
 11
68.700000113082851
 21
31.999999936693889
 31
0.0
  0
LINE
  5
45C
  8
0
 10
74.475105962184699
 20
38.499999936693868
 30
0.0
 11
68.700000113082851
 21
38.499999936693868
 31
0.0
  0
LINE
  5
45D
  8
0
 10
74.475105962184699
 20
44.999999936693868
 30
0.0
 11
68.700000113082851
 21
44.999999936693868
 31
0.0
  0
LINE
  5
45E
  8
0
 10
39.800000113082888
 20
29.999999936693872
 30
0.0
 11
39.800000113082888
 21
46.999999936693847
 31
0.0
  0
LINE
  5
45F
  8
0
 10
38.200000113082872
 20
29.999999936693872
 30
0.0
 11
38.200000113082872
 21
46.999999936693847
 31
0.0
  0
LINE
  5
460
  8
0
 10
55.700000113082872
 20
30.59999993669388
 30
0.0
 11
55.700000113082872
 21
46.39999993669386
 31
0.0
  0
ARC
  5
461
  8
0
 10
68.575710737829354
 20
42.749999936693882
 30
0.0
 40
12.51391285512476
 50
160.1461545957545
 51
199.85384540424641
  0
ARC
  5
462
  8
0
 10
68.575710737829411
 20
34.249999936693882
 30
0.0
 40
12.51391285512482
 50
160.1461545957545
 51
199.85384540424641
  0
LINE
  5
464
  8
0
 10
56.046410274596631
 20
29.999999936693879
 30
0.0
 11
64.353589951567074
 21
29.999999936693879
 31
0.0
  0
LINE
  5
465
  8
0
 10
56.805599653151504
 20
38.499999936693882
 30
0.0
 11
63.594400573012223
 21
38.499999936693889
 31
0.0
  0
LINE
  5
466
  8
0
 10
56.046410274596631
 20
46.999999936693868
 30
0.0
 11
64.353589951567074
 21
46.999999936693868
 31
0.0
  0
LINE
  5
467
  8
0
 10
40.300000113082866
 20
32.788675071288651
 30
0.0
 11
40.300000113082866
 21
44.211324802099078
 31
0.0
  0
LINE
  5
468
  8
0
 10
40.800000113082852
 20
44.499999936693847
 30
0.0
 11
40.800000113082852
 21
32.499999936693868
 31
0.0
  0
LINE
  5
469
  8
0
 10
37.200000113082901
 20
31.499999936693872
 30
0.0
 11
37.200000113082901
 21
45.499999936693868
 31
0.0
  0
ARC
  5
46A
  8
0
 10
38.686461831316052
 20
37.312953709108037
 30
0.0
 40
6.0
 50
198.60445265516159
 51
255.65596870178669
  0
ARC
  5
46B
  8
0
 10
38.686461831316052
 20
39.687046164279522
 30
0.0
 40
6.0
 50
104.344031298215
 51
161.39554734483829
  0
LINE
  5
46C
  8
0
 10
33.000000113082862
 20
35.398755932735682
 30
0.0
 11
33.000000113082862
 21
41.601243940650917
 31
0.0
  0
LINE
  5
46D
  8
2
 10
48.200000113081842
 20
70.176499936693673
 30
0.0
 11
47.028267741761617
 21
69.499999936693754
 31
0.0
  0
LINE
  5
46E
  8
2
 10
48.200000113081842
 20
76.823499936693835
 30
0.0
 11
47.028267741761617
 21
77.499999936693754
 31
0.0
  0
LINE
  5
46F
  8
2
 10
48.200000113081842
 20
77.499999936693754
 30
0.0
 11
48.200000113081721
 21
69.499999936693754
 31
0.0
  0
LINE
  5
470
  8
0
 10
77.00000011308191
 20
77.499999936693754
 30
0.0
 11
77.000000113081796
 21
69.499999936693754
 31
0.0
  0
LINE
  5
471
  8
0
 10
78.200000113081842
 20
70.699999936693729
 30
0.0
 11
77.000000113081796
 21
69.499999936693754
 31
0.0
  0
LINE
  5
472
  8
0
 10
77.00000011308191
 20
77.499999936693754
 30
0.0
 11
78.200000113081842
 21
76.299999936693766
 31
0.0
  0
LINE
  5
473
  8
2
 10
38.200000113081842
 20
77.499999936693754
 30
0.0
 11
39.800000113081872
 21
77.499999936693754
 31
0.0
  0
LINE
  5
474
  8
2
 10
48.200000113081842
 20
76.823499936693835
 30
0.0
 11
64.700000113081813
 21
76.823499936693835
 31
0.0
  0
LINE
  5
475
  8
2
 10
48.200000113081721
 20
70.176499936693673
 30
0.0
 11
64.700000113081813
 21
70.176499936693673
 31
0.0
  0
LINE
  5
476
  8
2
 10
38.200000113081842
 20
69.499999936693754
 30
0.0
 11
39.800000113081872
 21
69.499999936693754
 31
0.0
  0
LINE
  5
477
  8
0
 10
78.200000113081842
 20
76.299999936693766
 30
0.0
 11
78.200000113081842
 21
70.699999936693729
 31
0.0
  0
CIRCLE
  5
478
  8
0
 10
10.50000011308285
 20
73.499999936693271
 30
0.0
 40
3.1012440039571478
  0
LINE
  5
479
  8
0
 10
8.0000001130825353
 20
74.943375609667115
 30
0.0
 11
8.0000001130831002
 21
72.056624263719428
 31
0.0
  0
LINE
  5
47A
  8
0
 10
10.50000011308285
 20
76.386751282641541
 30
0.0
 11
8.0000001130825353
 21
74.943375609667115
 31
0.0
  0
LINE
  5
47B
  8
0
 10
13.00000011308285
 20
74.943375609668038
 30
0.0
 11
10.50000011308285
 21
76.386751282641541
 31
0.0
  0
LINE
  5
47C
  8
0
 10
13.00000011308285
 20
72.056624263719428
 30
0.0
 11
13.00000011308285
 21
74.943375609668038
 31
0.0
  0
LINE
  5
47D
  8
0
 10
10.50000011308307
 20
70.613248590745371
 30
0.0
 11
13.00000011308285
 21
72.056624263719428
 31
0.0
  0
LINE
  5
47E
  8
0
 10
8.0000001130831002
 20
72.056624263719428
 30
0.0
 11
10.50000011308307
 21
70.613248590745371
 31
0.0
  0
LINE
  5
47F
  8
2
 10
40.30000011308185
 20
77.499999936693754
 30
0.0
 11
64.70000011308187
 21
77.499999936693754
 31
0.0
  0
LINE
  5
480
  8
2
 10
40.300000113081978
 20
69.499999936693754
 30
0.0
 11
64.70000011308187
 21
69.499999936693754
 31
0.0
  0
CIRCLE
  5
481
  8
3
 10
100.7000001130819
 20
73.499999936693754
 30
0.0
 40
3.3235000000000001
  0
CIRCLE
  5
482
  8
0
 10
100.7000001130819
 20
73.499999936693754
 30
0.0
 40
4.0
  0
LINE
  5
483
  8
0
 10
66.70000011308187
 20
73.232050744262594
 30
0.0
 11
68.70000011308187
 21
73.767949129124858
 31
0.0
  0
LINE
  5
484
  8
0
 10
66.70000011308187
 20
65.799999936693709
 30
0.0
 11
66.70000011308187
 21
81.199999936693715
 31
0.0
  0
CIRCLE
  5
485
  8
0
 10
100.7000001130819
 20
73.499999936693754
 30
0.0
 40
7.7000000000000446
  0
LINE
  5
486
  8
0
 10
64.70000011308187
 20
77.499999936693754
 30
0.0
 11
66.70000011308187
 21
77.499999936693754
 31
0.0
  0
LINE
  5
487
  8
3
 10
64.70000011308187
 20
76.823499936693892
 30
0.0
 11
66.70000011308187
 21
76.823499936693949
 31
0.0
  0
LINE
  5
488
  8
3
 10
64.70000011308187
 20
70.176499936693673
 30
0.0
 11
66.70000011308187
 21
70.176499936693673
 31
0.0
  0
LINE
  5
489
  8
0
 10
64.70000011308187
 20
69.499999936693754
 30
0.0
 11
66.700000113081757
 21
69.499999936693754
 31
0.0
  0
LINE
  5
48A
  8
0
 10
39.800000113081872
 20
69.499999936693754
 30
0.0
 11
40.30000011308185
 21
69.499999936693754
 31
0.0
  0
LINE
  5
48B
  8
0
 10
39.800000113081872
 20
77.499999936693754
 30
0.0
 11
40.30000011308185
 21
77.499999936693754
 31
0.0
  0
LINE
  5
48C
  8
2
 10
66.70000011308187
 20
77.499999936693754
 30
0.0
 11
75.200000113081842
 21
77.499999936693641
 31
0.0
  0
LINE
  5
48D
  8
2
 10
66.700000113081757
 20
76.823499936693949
 30
0.0
 11
75.200000113081842
 21
76.823499936693779
 31
0.0
  0
LINE
  5
48E
  8
2
 10
66.70000011308187
 20
70.176499936693673
 30
0.0
 11
75.200000113081842
 21
70.176499936693617
 31
0.0
  0
LINE
  5
48F
  8
2
 10
66.70000011308187
 20
69.499999936693754
 30
0.0
 11
75.200000113081842
 21
69.499999936693683
 31
0.0
  0
LINE
  5
490
  8
3
 10
75.200000113081842
 20
76.823499936693779
 30
0.0
 11
77.676500113081701
 21
76.823499936693835
 31
0.0
  0
LINE
  5
491
  8
0
 10
75.200000113081842
 20
77.499999936693683
 30
0.0
 11
77.00000011308191
 21
77.499999936693754
 31
0.0
  0
LINE
  5
492
  8
0
 10
75.200000113081842
 20
69.499999936693683
 30
0.0
 11
77.000000113081796
 21
69.499999936693754
 31
0.0
  0
LINE
  5
493
  8
3
 10
75.200000113081842
 20
70.176499936693617
 30
0.0
 11
77.676500113081701
 21
70.176499936693673
 31
0.0
  0
LINE
  5
494
  8
3
 10
75.200000113082879
 20
35.176499936693773
 30
0.0
 11
77.676500113082739
 21
35.176499936693787
 31
0.0
  0
LINE
  5
495
  8
0
 10
75.200000113082879
 20
34.49999993669384
 30
0.0
 11
77.000000113082805
 21
34.499999936693882
 31
0.0
  0
LINE
  5
496
  8
0
 10
75.200000113082879
 20
42.499999936693811
 30
0.0
 11
77.000000113082933
 21
42.499999936693861
 31
0.0
  0
LINE
  5
497
  8
3
 10
75.200000113082879
 20
41.823499936693921
 30
0.0
 11
77.676500113082739
 21
41.823499936693963
 31
0.0
  0
LINE
  5
498
  8
2
 10
66.700000113082893
 20
34.499999936693847
 30
0.0
 11
75.200000113082879
 21
34.499999936693882
 31
0.0
  0
LINE
  5
499
  8
2
 10
66.700000113082893
 20
35.176499936693773
 30
0.0
 11
75.200000113082879
 21
35.176499936693787
 31
0.0
  0
LINE
  5
49A
  8
2
 10
66.70000011308278
 20
41.82349993669402
 30
0.0
 11
75.200000113082879
 21
41.823499936693921
 31
0.0
  0
LINE
  5
49B
  8
2
 10
66.700000113082893
 20
42.499999936693833
 30
0.0
 11
75.200000113082879
 21
42.499999936693783
 31
0.0
  0
LINE
  5
49C
  8
0
 10
39.800000113082888
 20
42.499999936693833
 30
0.0
 11
40.300000113082866
 21
42.499999936693833
 31
0.0
  0
LINE
  5
49D
  8
0
 10
39.800000113082888
 20
34.499999936693882
 30
0.0
 11
40.300000113082866
 21
34.499999936693882
 31
0.0
  0
LINE
  5
49E
  8
3
 10
64.700000113082893
 20
41.823499936693963
 30
0.0
 11
66.700000113082893
 21
41.82349993669402
 31
0.0
  0
LINE
  5
49F
  8
0
 10
64.700000113082893
 20
42.499999936693833
 30
0.0
 11
66.700000113082893
 21
42.499999936693882
 31
0.0
  0
LINE
  5
4A0
  8
2
 10
40.300000113083001
 20
34.499999936693897
 30
0.0
 11
64.700000113082893
 21
34.49999993669384
 31
0.0
  0
LINE
  5
4A1
  8
2
 10
40.300000113082866
 20
42.499999936693897
 30
0.0
 11
64.700000113082893
 21
42.499999936693811
 31
0.0
  0
LINE
  5
4A2
  8
0
 10
78.200000113082865
 20
41.299999936693879
 30
0.0
 11
78.200000113082865
 21
35.699999936693857
 31
0.0
  0
LINE
  5
4A3
  8
2
 10
38.200000113082872
 20
34.499999936693882
 30
0.0
 11
39.800000113082888
 21
34.499999936693882
 31
0.0
  0
LINE
  5
4A4
  8
2
 10
48.200000113082751
 20
35.176499936693787
 30
0.0
 11
64.700000113082822
 21
35.176499936693773
 31
0.0
  0
LINE
  5
4A5
  8
2
 10
48.200000113082872
 20
41.823499936693963
 30
0.0
 11
64.700000113082822
 21
41.823499936693921
 31
0.0
  0
LINE
  5
4A6
  8
2
 10
38.200000113082872
 20
42.499999936693861
 30
0.0
 11
39.800000113082888
 21
42.499999936693833
 31
0.0
  0
LINE
  5
4A7
  8
0
 10
77.000000113082933
 20
42.499999936693861
 30
0.0
 11
78.200000113082865
 21
41.299999936693879
 31
0.0
  0
LINE
  5
4A8
  8
0
 10
78.200000113082865
 20
35.699999936693857
 30
0.0
 11
77.000000113082805
 21
34.499999936693882
 31
0.0
  0
LINE
  5
4A9
  8
0
 10
77.000000113082933
 20
42.499999936693897
 30
0.0
 11
77.000000113082805
 21
34.499999936693882
 31
0.0
  0
LINE
  5
4AA
  8
2
 10
48.200000113082872
 20
42.499999936693897
 30
0.0
 11
48.200000113082751
 21
34.49999993669384
 31
0.0
  0
LINE
  5
4AB
  8
2
 10
48.200000113082872
 20
41.823499936693963
 30
0.0
 11
47.028267741762647
 21
42.499999936693861
 31
0.0
  0
LINE
  5
4AC
  8
2
 10
48.200000113082872
 20
35.176499936693773
 30
0.0
 11
47.028267741762647
 21
34.499999936693897
 31
0.0
  0
LINE
  5
4AD
  8
0
 10
33.000000113082862
 20
70.398755932735654
 30
0.0
 11
33.000000113082862
 21
76.601243940650917
 31
0.0
  0
ARC
  5
4AE
  8
0
 10
38.686461831316052
 20
74.687046164279522
 30
0.0
 40
6.0
 50
104.344031298215
 51
161.39554734483829
  0
ARC
  5
4AF
  8
0
 10
38.686461831316052
 20
72.312953709108015
 30
0.0
 40
6.0
 50
198.60445265516159
 51
255.65596870178669
  0
LINE
  5
4B0
  8
3
 10
64.700000113082893
 20
35.176499936693688
 30
0.0
 11
66.700000113082893
 21
35.176499936693688
 31
0.0
  0
LINE
  5
4B1
  8
0
 10
64.700000113082893
 20
34.49999993669384
 30
0.0
 11
66.700000113082893
 21
34.499999936693833
 31
0.0
  0
LINE
  5
4B2
  8
1
 10
31.000000113082852
 20
73.499999936693271
 30
0.0
 11
80.200000113081842
 21
73.499999936693754
 31
0.0
  0
LINE
  5
4B3
  8
1
 10
38.3000001130819
 20
72.49999993669374
 30
0.0
 11
66.70000011308187
 21
72.499999936693754
 31
0.0
  0
LINE
  5
4B4
  8
1
 10
90.200000113081842
 20
72.499999936693754
 30
0.0
 11
111.2000001130818
 21
72.499999936693754
 31
0.0
  0
LINE
  5
4B5
  8
1
 10
100.7000001130818
 20
83.199999936693743
 30
0.0
 11
100.7000001130818
 21
61.999999936693769
 31
0.0
  0
LINE
  5
4B6
  8
1
 10
91.000000113081853
 20
73.499999936693754
 30
0.0
 11
110.4000001130819
 21
73.499999936693754
 31
0.0
  0
LINE
  5
4B7
  8
1
 10
0.000000113082848
 20
72.499999936693271
 30
0.0
 11
21.00000011308288
 21
72.499999936693271
 31
0.0
  0
LINE
  5
4B8
  8
1
 10
10.500000113082869
 20
83.999999936693271
 30
0.0
 11
10.50000011308285
 21
61.999999936693278
 31
0.0
  0
LINE
  5
4B9
  8
1
 10
0.000000113082848
 20
73.499999936693271
 30
0.0
 11
21.000000113082852
 21
73.499999936693271
 31
0.0
  0
LINE
  5
4BA
  8
1
 10
31.000000113082852
 20
38.499999936693278
 30
0.0
 11
80.200000113081842
 21
38.499999936693762
 31
0.0
  0
ARC
  5
5EB
  8
0
 10
10.50000011308286
 20
72.499999936693825
 30
0.0
 40
7.9000000000000039
 50
214.02078894065801
 51
325.9792110593437
  0
TEXT
  5
64D
  8
0
 62
     3
 10
0.0
 20
0.0
 30
0.0
 40
10.0
  1
PCRLP12E
  7
STANDARD1
  0
LINE
  5
707
  8
0
 10
63.594400573013232
 20
82.314954512917424
 30
0.0
 11
64.70000011308187
 21
80.39999993669376
 31
0.0
  0
LINE
  5
708
  8
0
 10
64.70000011308187
 20
64.599999936693749
 30
0.0
 11
63.594400573013232
 21
62.685045360470113
 31
0.0
  0
LINE
  5
709
  8
0
 10
64.70000011308187
 20
64.599999936693749
 30
0.0
 11
64.70000011308187
 21
80.39999993669376
 31
0.0
  0
ARC
  5
70A
  8
0
 10
59.87203306587886
 20
79.861215868861507
 30
0.0
 40
4.458346463825265
 50
326.6076228590918
 51
33.392377140907023
  0
ARC
  5
70B
  8
0
 10
47.864283458211638
 20
72.499999936693754
 30
0.0
 40
16.477861444335169
 50
342.67313792442138
 51
17.326862075577878
  0
ARC
  5
70C
  8
0
 10
59.872033065879002
 20
65.138784004526002
 30
0.0
 40
4.458346463825138
 50
326.60762285909129
 51
33.392377140908224
  0
LINE
  5
70D
  8
0
 10
64.353589951567074
 20
46.999999936693868
 30
0.0
 11
64.700000113080847
 21
46.39999993669386
 31
0.0
  0
LINE
  5
70E
  8
0
 10
64.700000113080847
 20
30.59999993669388
 30
0.0
 11
64.353589951567074
 21
29.999999936693879
 31
0.0
  0
LINE
  5
70F
  8
0
 10
64.700000113080847
 20
30.59999993669388
 30
0.0
 11
64.700000113080847
 21
46.39999993669386
 31
0.0
  0
ARC
  5
710
  8
0
 10
51.824289488334358
 20
42.749999936693882
 30
0.0
 40
12.51391285512476
 50
340.1461545957535
 51
19.853845404245419
  0
ARC
  5
711
  8
0
 10
51.824289488334301
 20
34.249999936693882
 30
0.0
 40
12.51391285512482
 50
340.1461545957535
 51
19.853845404245419
  0
ARC
  5
76F
  8
0
 10
100.7000001130818
 20
72.499999936693754
 30
0.0
 40
7.9000000000000048
 50
164.88486742529631
 51
15.11513257469227
  0
ENDSEC
  0
EOF
