  0
SECTION
  2
HEADER
  9
$ACADVER
  1
AC1009
  9
$INSBASE
 10
0.0
 20
0.0
 30
0.0
  9
$EXTMIN
 10
-0.0005
 20
-2.960436562073669
 30
0.0
  9
$EXTMAX
 10
102.2072790000001
 20
125.776488
 30
0.0
  9
$LIMMIN
 10
0.0
 20
0.0
  9
$LIMMAX
 10
187.5
 20
135.0
  9
$ORTHOMODE
 70
     1
  9
$REGENMODE
 70
     1
  9
$FILLMODE
 70
     1
  9
$QTEXTMODE
 70
     0
  9
$MIRRTEXT
 70
     0
  9
$DRAGMODE
 70
     2
  9
$LTSCALE
 40
5.0
  9
$OSMODE
 70
  3071
  9
$ATTMODE
 70
     1
  9
$TEXTSIZE
 40
4.0
  9
$TRACEWID
 40
0.05
  9
$TEXTSTYLE
  7
STANDARD
  9
$CLAYER
  8
0
  9
$CELTYPE
  6
BYLAYER
  9
$CECOLOR
 62
   256
  9
$DIMSCALE
 40
0.5
  9
$DIMASZ
 40
3.0
  9
$DIMEXO
 40
2.0
  9
$DIMDLI
 40
0.38
  9
$DIMRND
 40
0.0
  9
$DIMDLE
 40
0.0
  9
$DIMEXE
 40
2.0
  9
$DIMTP
 40
0.0
  9
$DIMTM
 40
0.0
  9
$DIMTXT
 40
3.0
  9
$DIMCEN
 40
0.0
  9
$DIMTSZ
 40
0.0
  9
$DIMTOL
 70
     0
  9
$DIMLIM
 70
     0
  9
$DIMTIH
 70
     0
  9
$DIMTOH
 70
     0
  9
$DIMSE1
 70
     0
  9
$DIMSE2
 70
     0
  9
$DIMTAD
 70
     1
  9
$DIMZIN
 70
     0
  9
$DIMBLK
  1

  9
$DIMASO
 70
     1
  9
$DIMSHO
 70
     0
  9
$DIMPOST
  1

  9
$DIMAPOST
  1

  9
$DIMALT
 70
     0
  9
$DIMALTD
 70
     2
  9
$DIMALTF
 40
25.399999999999999
  9
$DIMLFAC
 40
1.0
  9
$DIMTOFL
 70
     0
  9
$DIMTVP
 40
1.6000000000000001
  9
$DIMTIX
 70
     1
  9
$DIMSOXD
 70
     0
  9
$DIMSAH
 70
     0
  9
$DIMBLK1
  1

  9
$DIMBLK2
  1

  9
$DIMSTYLE
  2
STANDARD
  9
$DIMCLRD
 70
     0
  9
$DIMCLRE
 70
     0
  9
$DIMCLRT
 70
     0
  9
$DIMTFAC
 40
1.0
  9
$DIMGAP
 40
0.09
  9
$LUNITS
 70
     2
  9
$LUPREC
 70
     1
  9
$SKETCHINC
 40
0.1
  9
$FILLETRAD
 40
0.0
  9
$AUNITS
 70
     0
  9
$AUPREC
 70
     0
  9
$MENU
  1
E:\r13\win\SUPPORT\ACAD
  9
$ELEVATION
 40
0.0
  9
$PELEVATION
 40
0.0
  9
$THICKNESS
 40
0.0
  9
$LIMCHECK
 70
     0
  9
$BLIPMODE
 70
     0
  9
$CHAMFERA
 40
0.0
  9
$CHAMFERB
 40
0.0
  9
$SKPOLY
 70
     0
  9
$TDCREATE
 40
2449840.6017708341
  9
$TDUPDATE
 40
2456597.7045125701
  9
$TDINDWG
 40
0.0030649769
  9
$TDUSRTIMER
 40
0.0030649769
  9
$USRTIMER
 70
     1
  9
$ANGBASE
 50
0.0
  9
$ANGDIR
 70
     0
  9
$PDMODE
 70
     0
  9
$PDSIZE
 40
0.0
  9
$PLINEWID
 40
0.0
  9
$COORDS
 70
     1
  9
$SPLFRAME
 70
     0
  9
$SPLINETYPE
 70
     6
  9
$SPLINESEGS
 70
     8
  9
$ATTDIA
 70
     0
  9
$ATTREQ
 70
     1
  9
$HANDLING
 70
     1
  9
$HANDSEED
  5
44B
  9
$SURFTAB1
 70
     6
  9
$SURFTAB2
 70
     6
  9
$SURFTYPE
 70
     6
  9
$SURFU
 70
     6
  9
$SURFV
 70
     6
  9
$UCSNAME
  2

  9
$UCSORG
 10
0.0
 20
0.0
 30
0.0
  9
$UCSXDIR
 10
1.0
 20
0.0
 30
0.0
  9
$UCSYDIR
 10
0.0
 20
1.0
 30
0.0
  9
$PUCSNAME
  2

  9
$PUCSORG
 10
0.0
 20
0.0
 30
0.0
  9
$PUCSXDIR
 10
1.0
 20
0.0
 30
0.0
  9
$PUCSYDIR
 10
0.0
 20
1.0
 30
0.0
  9
$USERI1
 70
     0
  9
$USERI2
 70
     1
  9
$USERI3
 70
     1
  9
$USERI4
 70
     0
  9
$USERI5
 70
     0
  9
$USERR1
 40
0.0
  9
$USERR2
 40
0.0
  9
$USERR3
 40
0.0
  9
$USERR4
 40
0.0
  9
$USERR5
 40
0.0
  9
$WORLDVIEW
 70
     1
  9
$SHADEDGE
 70
     3
  9
$SHADEDIF
 70
    70
  9
$TILEMODE
 70
     1
  9
$MAXACTVP
 70
    16
  9
$PLIMCHECK
 70
     0
  9
$PEXTMIN
 10
1.0000000000000000E+020
 20
1.0000000000000000E+020
 30
1.0000000000000000E+020
  9
$PEXTMAX
 10
-1.0000000000000000E+020
 20
-1.0000000000000000E+020
 30
-1.0000000000000000E+020
  9
$PLIMMIN
 10
0.0
 20
0.0
  9
$PLIMMAX
 10
12.0
 20
9.0
  9
$UNITMODE
 70
     0
  9
$VISRETAIN
 70
     0
  9
$PLINEGEN
 70
     0
  9
$PSLTSCALE
 70
     0
  0
ENDSEC
  0
SECTION
  2
TABLES
  0
TABLE
  2
VPORT
 70
     1
  0
VPORT
  2
*ACTIVE
 70
     0
 10
0.0
 20
0.0
 11
1.0
 21
1.0
 12
93.746889187697363
 22
66.31833822971997
 13
0.0
 23
0.0
 14
5.0
 24
5.0
 15
5.0
 25
5.0
 16
0.0
 26
0.0
 36
1.0
 17
0.0
 27
0.0
 37
0.0
 40
140.14370980921061
 41
2.304913294797688
 42
50.0
 43
0.0
 44
0.0
 50
0.0
 51
0.0
 71
     0
 72
   100
 73
     1
 74
     0
 75
     0
 76
     0
 77
     0
 78
     2
  0
ENDTAB
  0
TABLE
  2
LTYPE
 70
     4
  0
LTYPE
  2
CONTINUOUS
 70
     0
  3
Solid Line
 72
    65
 73
     0
 40
0.0
  0
LTYPE
  2
CENTER
 70
     0
  3
____ _ ____ _ ____ _ ____ _ ____ _ ____ _ ____
 72
    65
 73
     4
 40
2.0
 49
1.25
 49
-0.25
 49
0.25
 49
-0.25
  0
LTYPE
  2
HIDDEN
 70
     0
  3
_ _ _ _ _ _ _ _ _ _ _ _ _ _ _ _ _ _ _ _ _ _ _
 72
    65
 73
     2
 40
0.375
 49
0.25
 49
-0.125
  0
LTYPE
  2
PHANTOM2
 70
     0
  3
___ _ _ ___ _ _ ___ _ _ ___ _ _
 72
    65
 73
     6
 40
1.25
 49
0.625
 49
-0.125
 49
0.125
 49
-0.125
 49
0.125
 49
-0.125
  0
ENDTAB
  0
TABLE
  2
LAYER
 70
     5
  0
LAYER
  2
0
 70
     0
 62
     7
  6
CONTINUOUS
  0
LAYER
  2
1
 70
     0
 62
     1
  6
CENTER
  0
LAYER
  2
3
 70
     0
 62
     3
  6
CONTINUOUS
  0
LAYER
  2
2
 70
     0
 62
     2
  6
HIDDEN
  0
LAYER
  2
ITTEN
 70
     0
 62
     1
  6
CENTER
  0
ENDTAB
  0
TABLE
  2
STYLE
 70
     2
  0
STYLE
  2
STANDARD
 70
     0
 40
0.0
 41
1.0
 50
0.0
 71
     0
 42
4.0
  3
ROMANS
  4
BIGFONT
  0
STYLE
  2
STANDARD1
 70
     0
 40
0.0
 41
1.0
 50
0.0
 71
     0
 42
3.0
  3
txt
  4

  0
ENDTAB
  0
TABLE
  2
VIEW
 70
     1
  0
VIEW
  2
ALL
 70
     0
 40
135.0
 10
110.29971
 20
67.5
 41
220.59942000000001
 11
0.0
 21
0.0
 31
1.0
 12
0.0
 22
0.0
 32
0.0
 42
0.0
 43
0.0
 44
0.0
 50
0.0
 71
     0
  0
ENDTAB
  0
TABLE
  2
UCS
 70
     0
  0
ENDTAB
  0
TABLE
  2
APPID
 70
     3
  0
APPID
  2
ACAD
 70
     0
  0
APPID
  2
ACAD_MLEADERVER
 70
     0
  0
APPID
  2
ACAD_NAV_VCDISPLAY
 70
     0
  0
ENDTAB
  0
TABLE
  2
DIMSTYLE
 70
     1
  0
DIMSTYLE
  2
STANDARD
 70
     0
  3

  4

  5

  6

  7

 40
1.0
 41
0.18
 42
0.0625
 43
0.38
 44
0.18
 45
0.0
 46
0.0
 47
0.0
 48
0.0
140
0.18
141
0.09
142
0.0
143
25.399999999999999
144
1.0
145
0.0
146
1.0
147
0.09
 71
     0
 72
     0
 73
     1
 74
     1
 75
     0
 76
     0
 77
     0
 78
     0
170
     0
171
     2
172
     0
173
     0
174
     0
175
     0
176
     0
177
     0
178
     0
  0
ENDTAB
  0
ENDSEC
  0
SECTION
  2
BLOCKS
  0
BLOCK
  8
0
  2
$MODEL_SPACE
 70
     0
 10
0.0
 20
0.0
 30
0.0
  3
$MODEL_SPACE
  1

  0
ENDBLK
  5
A8
  8
0
  0
BLOCK
 67
     1
  8
0
  2
$PAPER_SPACE
 70
     0
 10
0.0
 20
0.0
 30
0.0
  3
$PAPER_SPACE
  1

  0
ENDBLK
  5
A6
 67
     1
  8
0
  0
BLOCK
  8
0
  2
BATU
 70
     0
 10
0.0
 20
0.0
 30
0.0
  3
BATU
  1

  0
LINE
  5
B3
  8
ITTEN
 10
0.5
 20
0.0
 30
0.0
 11
-0.5
 21
0.0
 31
0.0
  0
LINE
  5
B4
  8
ITTEN
 10
0.0
 20
0.5
 30
0.0
 11
0.0
 21
-0.5
 31
0.0
  0
ENDBLK
  5
B6
  8
0
  0
ENDSEC
  0
SECTION
  2
ENTITIES
  0
CIRCLE
  5
49
  8
0
 10
87.207278999999986
 20
110.776488
 30
0.0
 40
10.0
  0
LINE
  5
4A
  8
1
 10
102.207279
 20
110.776488
 30
0.0
 11
72.207278999999986
 21
110.776488
 31
0.0
  0
LINE
  5
4B
  8
1
 10
87.207278999999986
 20
125.776488
 30
0.0
 11
87.207278999999986
 21
95.776488000000001
 31
0.0
  0
LINE
  5
4C
  8
1
 10
87.207278999999986
 20
48.992296000000003
 30
0.0
 11
87.207278999999986
 21
18.992296
 31
0.0
  0
LINE
  5
4D
  8
1
 10
102.207279
 20
33.992296000000003
 30
0.0
 11
72.207278999999986
 21
33.992296000000003
 31
0.0
  0
CIRCLE
  5
4E
  8
0
 10
87.207278999999986
 20
33.992296000000003
 30
0.0
 40
10.0
  0
CIRCLE
  5
51
  8
3
 10
87.207278999999986
 20
33.992296000000003
 30
0.0
 40
3.0
  0
CIRCLE
  5
52
  8
0
 10
87.207278999999986
 20
33.992296000000003
 30
0.0
 40
2.458499999999999
  0
INSERT
  5
B7
  8
0
  2
BATU
 10
0.0
 20
0.0
 30
0.0
 41
0.001
 42
0.001
 43
0.001
  0
LINE
  5
1D8
  8
1
 10
87.207278999999986
 20
58.436696999999988
 30
0.0
 11
87.207278999999986
 21
87.436697000000009
 31
0.0
  0
LINE
  5
1D9
  8
1
 10
72.207279000000057
 20
72.436696999999995
 30
0.0
 11
102.2072790000001
 21
72.436696999999995
 31
0.0
  0
LINE
  5
1FD
  8
2
 10
84.707278999999758
 20
64.436697000000905
 30
0.0
 11
84.707278999999758
 21
77.993321327025811
 31
0.0
  0
LINE
  5
1FE
  8
2
 10
84.707278999999758
 20
74.302722403784472
 30
0.0
 11
84.207278999999829
 21
73.43669700000008
 31
0.0
  0
LINE
  5
1FF
  8
2
 10
83.207278999999986
 20
77.436696999999967
 30
0.0
 11
83.207278999999986
 21
63.436696999999988
 31
0.0
  0
LINE
  5
200
  8
2
 10
89.707279000000227
 20
74.302722403784472
 30
0.0
 11
90.207279000000156
 21
73.43669700000008
 31
0.0
  0
LINE
  5
201
  8
2
 10
89.707279000000227
 20
64.436697000000905
 30
0.0
 11
89.707279000000227
 21
77.993321327025811
 31
0.0
  0
LINE
  5
202
  8
2
 10
91.207279
 20
63.436696999999988
 30
0.0
 11
91.207279
 21
77.436696999999995
 31
0.0
  0
LINE
  5
203
  8
2
 10
87.207278999999986
 20
73.43669700000008
 30
0.0
 11
90.207279000000227
 21
73.43669700000008
 31
0.0
  0
LINE
  5
204
  8
2
 10
87.207278999999986
 20
64.436697000000905
 30
0.0
 11
89.707279000000227
 21
64.436697000000905
 31
0.0
  0
LINE
  5
205
  8
2
 10
84.207278999999829
 20
63.93669700000045
 30
0.0
 11
84.207278999999829
 21
73.436697000000095
 31
0.0
  0
LINE
  5
206
  8
2
 10
87.207278999999986
 20
64.436697000000905
 30
0.0
 11
84.707278999999758
 21
64.436697000000905
 31
0.0
  0
LINE
  5
207
  8
2
 10
84.707278999999758
 20
64.436697000000905
 30
0.0
 11
83.707278999999772
 21
63.436696999999988
 31
0.0
  0
LINE
  5
208
  8
2
 10
87.207278999999986
 20
73.43669700000008
 30
0.0
 11
84.207278999999772
 21
73.43669700000008
 31
0.0
  0
LINE
  5
209
  8
2
 10
90.207279000000156
 20
63.93669700000045
 30
0.0
 11
90.207279000000156
 21
73.436697000000066
 31
0.0
  0
LINE
  5
20A
  8
2
 10
89.707279000000227
 20
64.436697000000905
 30
0.0
 11
90.707279000000213
 21
63.436696999999988
 31
0.0
  0
LINE
  5
20B
  8
2
 10
89.207279000000014
 20
80.436696999999995
 30
0.0
 11
85.207279
 21
80.436696999999995
 31
0.0
  0
LINE
  5
20C
  8
2
 10
87.207278999999986
 20
77.993321327025811
 30
0.0
 11
89.707279000000227
 21
77.993321327025811
 31
0.0
  0
LINE
  5
20D
  8
2
 10
87.207279000000057
 20
79.436696999999995
 30
0.0
 11
89.707279000000227
 21
77.993321327025811
 31
0.0
  0
LINE
  5
20E
  8
2
 10
85.207279
 20
80.436696999999995
 30
0.0
 11
83.207278999999986
 21
77.436696999999995
 31
0.0
  0
LINE
  5
20F
  8
2
 10
87.207278999999986
 20
77.993321327025811
 30
0.0
 11
84.707278999999758
 21
77.993321327025811
 31
0.0
  0
LINE
  5
210
  8
2
 10
87.207278999999943
 20
79.436696999999995
 30
0.0
 11
84.707278999999758
 21
77.993321327025811
 31
0.0
  0
LINE
  5
211
  8
2
 10
91.207279
 20
77.436696999999995
 30
0.0
 11
89.207279000000014
 21
80.436696999999995
 31
0.0
  0
LINE
  5
219
  8
2
 62
     0
 10
83.105470533060355
 20
63.436697000000009
 30
0.0
 11
83.207278999999986
 21
63.538505466939618
 31
0.0
  0
ARC
  5
280
  8
0
 10
87.207278999999986
 20
72.436696999999995
 30
0.0
 40
10.0
 50
306.86989764584371
 51
233.13010235415629
  0
LINE
  5
281
  8
0
 10
81.207279
 20
63.436696999999988
 30
0.0
 11
93.207278999999986
 21
63.436696999999988
 31
0.0
  0
LINE
  5
282
  8
0
 10
93.207278999999986
 20
63.436696999999988
 30
0.0
 11
93.207278999999986
 21
64.436696999999995
 31
0.0
  0
LINE
  5
283
  8
0
 10
81.207279
 20
63.436696999999988
 30
0.0
 11
81.207279
 21
64.436696999999995
 31
0.0
  0
CIRCLE
  5
2AE
  8
0
 10
87.207278999999986
 20
33.992296000000003
 30
0.0
 40
4.0
  0
CIRCLE
  5
2AF
  8
0
 10
87.207278999999986
 20
33.992296000000003
 30
0.0
 40
6.0
  0
LINE
  5
2C2
  8
0
 10
81.207279000000028
 20
64.436696999999967
 30
0.0
 11
93.207278999999986
 21
64.436696999999995
 31
0.0
  0
TEXT
  5
3B2
  8
0
 62
     3
 10
0.0
 20
0.0
 30
0.0
 40
10.0
  1
PC20X6R
  7
STANDARD1
  0
ENDSEC
  0
EOF
