  0
SECTION
  2
HEADER
  9
$ACADVER
  1
AC1009
  9
$INSBASE
 10
0.0
 20
0.0
 30
0.0
  9
$EXTMIN
 10
-0.0005
 20
-2.960436562073669
 30
0.0
  9
$EXTMAX
 10
222.10418999999999
 20
256.47890999999998
 30
0.0
  9
$LIMMIN
 10
0.0
 20
0.0
  9
$LIMMAX
 10
375.0
 20
270.0
  9
$ORTHOMODE
 70
     1
  9
$REGENMODE
 70
     1
  9
$FILLMODE
 70
     1
  9
$QTEXTMODE
 70
     0
  9
$MIRRTEXT
 70
     0
  9
$DRAGMODE
 70
     2
  9
$LTSCALE
 40
10.0
  9
$OSMODE
 70
  3071
  9
$ATTMODE
 70
     1
  9
$TEXTSIZE
 40
4.0
  9
$TRACEWID
 40
0.05
  9
$TEXTSTYLE
  7
STANDARD
  9
$CLAYER
  8
0
  9
$CELTYPE
  6
BYLAYER
  9
$CECOLOR
 62
   256
  9
$DIMSCALE
 40
1.0
  9
$DIMASZ
 40
3.0
  9
$DIMEXO
 40
2.0
  9
$DIMDLI
 40
0.38
  9
$DIMRND
 40
0.0
  9
$DIMDLE
 40
0.0
  9
$DIMEXE
 40
2.0
  9
$DIMTP
 40
0.0
  9
$DIMTM
 40
0.0
  9
$DIMTXT
 40
3.0
  9
$DIMCEN
 40
0.0
  9
$DIMTSZ
 40
0.0
  9
$DIMTOL
 70
     0
  9
$DIMLIM
 70
     0
  9
$DIMTIH
 70
     0
  9
$DIMTOH
 70
     0
  9
$DIMSE1
 70
     0
  9
$DIMSE2
 70
     0
  9
$DIMTAD
 70
     1
  9
$DIMZIN
 70
     0
  9
$DIMBLK
  1

  9
$DIMASO
 70
     1
  9
$DIMSHO
 70
     0
  9
$DIMPOST
  1

  9
$DIMAPOST
  1

  9
$DIMALT
 70
     0
  9
$DIMALTD
 70
     2
  9
$DIMALTF
 40
25.399999999999999
  9
$DIMLFAC
 40
1.0
  9
$DIMTOFL
 70
     0
  9
$DIMTVP
 40
1.6000000000000001
  9
$DIMTIX
 70
     1
  9
$DIMSOXD
 70
     0
  9
$DIMSAH
 70
     0
  9
$DIMBLK1
  1

  9
$DIMBLK2
  1

  9
$DIMSTYLE
  2
STANDARD
  9
$DIMCLRD
 70
     0
  9
$DIMCLRE
 70
     0
  9
$DIMCLRT
 70
     0
  9
$DIMTFAC
 40
1.0
  9
$DIMGAP
 40
0.09
  9
$LUNITS
 70
     2
  9
$LUPREC
 70
     1
  9
$SKETCHINC
 40
0.1
  9
$FILLETRAD
 40
0.0
  9
$AUNITS
 70
     0
  9
$AUPREC
 70
     0
  9
$MENU
  1
E:\r13\win\SUPPORT\ACAD
  9
$ELEVATION
 40
0.0
  9
$PELEVATION
 40
0.0
  9
$THICKNESS
 40
0.0
  9
$LIMCHECK
 70
     0
  9
$BLIPMODE
 70
     0
  9
$CHAMFERA
 40
0.0
  9
$CHAMFERB
 40
0.0
  9
$SKPOLY
 70
     0
  9
$TDCREATE
 40
2449840.6017129631
  9
$TDUPDATE
 40
2456597.7044547801
  9
$TDINDWG
 40
0.0036008912
  9
$TDUSRTIMER
 40
0.0036008912
  9
$USRTIMER
 70
     1
  9
$ANGBASE
 50
0.0
  9
$ANGDIR
 70
     0
  9
$PDMODE
 70
     0
  9
$PDSIZE
 40
0.0
  9
$PLINEWID
 40
0.0
  9
$COORDS
 70
     1
  9
$SPLFRAME
 70
     0
  9
$SPLINETYPE
 70
     6
  9
$SPLINESEGS
 70
     8
  9
$ATTDIA
 70
     0
  9
$ATTREQ
 70
     1
  9
$HANDLING
 70
     1
  9
$HANDSEED
  5
486
  9
$SURFTAB1
 70
     6
  9
$SURFTAB2
 70
     6
  9
$SURFTYPE
 70
     6
  9
$SURFU
 70
     6
  9
$SURFV
 70
     6
  9
$UCSNAME
  2

  9
$UCSORG
 10
0.0
 20
0.0
 30
0.0
  9
$UCSXDIR
 10
1.0
 20
0.0
 30
0.0
  9
$UCSYDIR
 10
0.0
 20
1.0
 30
0.0
  9
$PUCSNAME
  2

  9
$PUCSORG
 10
0.0
 20
0.0
 30
0.0
  9
$PUCSXDIR
 10
1.0
 20
0.0
 30
0.0
  9
$PUCSYDIR
 10
0.0
 20
1.0
 30
0.0
  9
$USERI1
 70
     0
  9
$USERI2
 70
     1
  9
$USERI3
 70
     1
  9
$USERI4
 70
     0
  9
$USERI5
 70
     0
  9
$USERR1
 40
0.0
  9
$USERR2
 40
0.0
  9
$USERR3
 40
0.0
  9
$USERR4
 40
0.0
  9
$USERR5
 40
0.0
  9
$WORLDVIEW
 70
     1
  9
$SHADEDGE
 70
     3
  9
$SHADEDIF
 70
    70
  9
$TILEMODE
 70
     1
  9
$MAXACTVP
 70
    16
  9
$PLIMCHECK
 70
     0
  9
$PEXTMIN
 10
1.0000000000000000E+020
 20
1.0000000000000000E+020
 30
1.0000000000000000E+020
  9
$PEXTMAX
 10
-1.0000000000000000E+020
 20
-1.0000000000000000E+020
 30
-1.0000000000000000E+020
  9
$PLIMMIN
 10
0.0
 20
0.0
  9
$PLIMMAX
 10
12.0
 20
9.0
  9
$UNITMODE
 70
     0
  9
$VISRETAIN
 70
     0
  9
$PLINEGEN
 70
     0
  9
$PSLTSCALE
 70
     0
  0
ENDSEC
  0
SECTION
  2
TABLES
  0
TABLE
  2
VPORT
 70
     1
  0
VPORT
  2
*ACTIVE
 70
     0
 10
0.0
 20
0.0
 11
1.0
 21
1.0
 12
187.49402838302359
 22
134.103411279211
 13
0.0
 23
0.0
 14
10.0
 24
10.0
 15
10.0
 25
10.0
 16
0.0
 26
0.0
 36
1.0
 17
0.0
 27
0.0
 37
0.0
 40
277.29457329451338
 41
2.304913294797688
 42
50.0
 43
0.0
 44
0.0
 50
0.0
 51
0.0
 71
     0
 72
   100
 73
     1
 74
     0
 75
     0
 76
     0
 77
     0
 78
     2
  0
ENDTAB
  0
TABLE
  2
LTYPE
 70
     4
  0
LTYPE
  2
CONTINUOUS
 70
     0
  3
Solid Line
 72
    65
 73
     0
 40
0.0
  0
LTYPE
  2
CENTER
 70
     0
  3
____ _ ____ _ ____ _ ____ _ ____ _ ____ _ ____
 72
    65
 73
     4
 40
2.0
 49
1.25
 49
-0.25
 49
0.25
 49
-0.25
  0
LTYPE
  2
HIDDEN
 70
     0
  3
_ _ _ _ _ _ _ _ _ _ _ _ _ _ _ _ _ _ _ _ _ _ _
 72
    65
 73
     2
 40
0.375
 49
0.25
 49
-0.125
  0
LTYPE
  2
PHANTOM2
 70
     0
  3
___ _ _ ___ _ _ ___ _ _ ___ _ _
 72
    65
 73
     6
 40
1.25
 49
0.625
 49
-0.125
 49
0.125
 49
-0.125
 49
0.125
 49
-0.125
  0
ENDTAB
  0
TABLE
  2
LAYER
 70
     5
  0
LAYER
  2
0
 70
     0
 62
     7
  6
CONTINUOUS
  0
LAYER
  2
1
 70
     0
 62
     1
  6
CENTER
  0
LAYER
  2
3
 70
     0
 62
     3
  6
CONTINUOUS
  0
LAYER
  2
2
 70
     0
 62
     2
  6
HIDDEN
  0
LAYER
  2
ITTEN
 70
     0
 62
     1
  6
CENTER
  0
ENDTAB
  0
TABLE
  2
STYLE
 70
     2
  0
STYLE
  2
STANDARD
 70
     0
 40
0.0
 41
1.0
 50
0.0
 71
     0
 42
4.0
  3
ROMANS
  4
BIGFONT
  0
STYLE
  2
STANDARD1
 70
     0
 40
0.0
 41
1.0
 50
0.0
 71
     0
 42
3.0
  3
txt
  4

  0
ENDTAB
  0
TABLE
  2
VIEW
 70
     1
  0
VIEW
  2
ALL
 70
     0
 40
283.95918999999998
 10
232.00456500000001
 20
141.97959499999999
 41
464.00913099999991
 11
0.0
 21
0.0
 31
1.0
 12
0.0
 22
0.0
 32
0.0
 42
0.0
 43
0.0
 44
0.0
 50
0.0
 71
     0
  0
ENDTAB
  0
TABLE
  2
UCS
 70
     0
  0
ENDTAB
  0
TABLE
  2
APPID
 70
     3
  0
APPID
  2
ACAD
 70
     0
  0
APPID
  2
ACAD_MLEADERVER
 70
     0
  0
APPID
  2
ACAD_NAV_VCDISPLAY
 70
     0
  0
ENDTAB
  0
TABLE
  2
DIMSTYLE
 70
     1
  0
DIMSTYLE
  2
STANDARD
 70
     0
  3

  4

  5

  6

  7

 40
1.0
 41
0.18
 42
0.0625
 43
0.38
 44
0.18
 45
0.0
 46
0.0
 47
0.0
 48
0.0
140
0.18
141
0.09
142
0.0
143
25.399999999999999
144
1.0
145
0.0
146
1.0
147
0.09
 71
     0
 72
     0
 73
     1
 74
     1
 75
     0
 76
     0
 77
     0
 78
     0
170
     0
171
     2
172
     0
173
     0
174
     0
175
     0
176
     0
177
     0
178
     0
  0
ENDTAB
  0
ENDSEC
  0
SECTION
  2
BLOCKS
  0
BLOCK
  8
0
  2
$MODEL_SPACE
 70
     0
 10
0.0
 20
0.0
 30
0.0
  3
$MODEL_SPACE
  1

  0
ENDBLK
  5
9E
  8
0
  0
BLOCK
 67
     1
  8
0
  2
$PAPER_SPACE
 70
     0
 10
0.0
 20
0.0
 30
0.0
  3
$PAPER_SPACE
  1

  0
ENDBLK
  5
9C
 67
     1
  8
0
  0
BLOCK
  8
0
  2
BATU
 70
     0
 10
0.0
 20
0.0
 30
0.0
  3
BATU
  1

  0
LINE
  5
A9
  8
ITTEN
 10
0.5
 20
0.0
 30
0.0
 11
-0.5
 21
0.0
 31
0.0
  0
LINE
  5
AA
  8
ITTEN
 10
0.0
 20
0.5
 30
0.0
 11
0.0
 21
-0.5
 31
0.0
  0
ENDBLK
  5
AC
  8
0
  0
ENDSEC
  0
SECTION
  2
ENTITIES
  0
CIRCLE
  5
46
  8
0
 10
192.10418999999999
 20
226.47891000000001
 30
0.0
 40
25.0
  0
LINE
  5
47
  8
1
 10
222.10418999999999
 20
226.47891000000001
 30
0.0
 11
162.1041899999999
 21
226.47891000000001
 31
0.0
  0
LINE
  5
48
  8
1
 10
192.10418999999999
 20
256.47890999999998
 30
0.0
 11
192.10418999999999
 21
196.47891000000001
 31
0.0
  0
LINE
  5
49
  8
1
 10
192.10418999999999
 20
99.722488999999996
 30
0.0
 11
192.10418999999999
 21
39.722489000000003
 31
0.0
  0
LINE
  5
4A
  8
1
 10
222.10418999999999
 20
69.722488999999996
 30
0.0
 11
162.1041899999999
 21
69.722488999999996
 31
0.0
  0
CIRCLE
  5
4B
  8
0
 10
192.10418999999999
 20
69.722488999999996
 30
0.0
 40
25.0
  0
CIRCLE
  5
4D
  8
3
 10
192.10418999999999
 20
69.722488999999996
 30
0.0
 40
6.0
  0
CIRCLE
  5
4E
  8
0
 10
192.10418999999999
 20
69.722488999999996
 30
0.0
 40
5.052999999999999
  0
INSERT
  5
AD
  8
0
  2
BATU
 10
0.0
 20
0.0
 30
0.0
 41
0.001
 42
0.001
 43
0.001
  0
ARC
  5
25C
  8
0
 10
192.10418999999999
 20
146.55993349593729
 30
0.0
 40
25.0
 50
0.4058368529682079
 51
179.59416314703171
  0
LINE
  5
25D
  8
1
 10
162.1041900000001
 20
146.55993349593729
 30
0.0
 11
222.10418999999959
 21
146.55993349593729
 31
0.0
  0
LINE
  5
25E
  8
1
 10
192.10418999999999
 20
176.5599334959372
 30
0.0
 11
192.10418999999999
 21
118.5599334959373
 31
0.0
  0
LINE
  5
25F
  8
2
 10
186.10418999999999
 20
145.55993349593729
 30
0.0
 11
198.10418999999999
 21
145.55993349593729
 31
0.0
  0
LINE
  5
260
  8
2
 10
187.05118999999999
 20
149.05993349593729
 30
0.0
 11
197.1571899999999
 21
149.05993349593729
 31
0.0
  0
LINE
  5
261
  8
2
 10
198.10418999999999
 20
145.55993349593729
 30
0.0
 11
198.10418999999999
 21
129.05993349593729
 31
0.0
  0
LINE
  5
262
  8
2
 10
197.1571899999999
 20
149.05993349593729
 30
0.0
 11
197.1571899999999
 21
129.05993349593729
 31
0.0
  0
LINE
  5
263
  8
2
 10
185.60418999999999
 20
125.5599334959373
 30
0.0
 11
198.60418999999999
 21
125.5599334959373
 31
0.0
  0
LINE
  5
264
  8
2
 10
197.1571899999999
 20
149.05993349593729
 30
0.0
 11
192.10418999999999
 21
151.97728440615251
 31
0.0
  0
LINE
  5
265
  8
2
 10
198.60418999999999
 20
125.5599334959373
 30
0.0
 11
200.60418999999999
 21
123.5599334959373
 31
0.0
  0
LINE
  5
266
  8
2
 10
185.60418999999999
 20
125.5599334959373
 30
0.0
 11
183.60418999999999
 21
123.5599334959373
 31
0.0
  0
LINE
  5
267
  8
2
 10
187.05118999999999
 20
149.05993349593729
 30
0.0
 11
187.05118999999999
 21
129.05993349593729
 31
0.0
  0
LINE
  5
268
  8
2
 10
186.10418999999999
 20
145.55993349593729
 30
0.0
 11
186.10418999999999
 21
129.05993349593729
 31
0.0
  0
LINE
  5
269
  8
2
 10
187.05118999999999
 20
149.05993349593729
 30
0.0
 11
192.10418999999999
 21
151.97728440615251
 31
0.0
  0
LINE
  5
26A
  8
0
 10
179.10418999999999
 20
123.5599334959373
 30
0.0
 11
205.10418999999999
 21
123.5599334959373
 31
0.0
  0
LINE
  5
29B
  8
0
 10
205.10418999999999
 20
125.5599334959373
 30
0.0
 11
205.10418999999999
 21
123.5599334959373
 31
0.0
  0
LINE
  5
29C
  8
0
 10
179.10418999999999
 20
125.5599334959373
 30
0.0
 11
179.10418999999999
 21
123.5599334959373
 31
0.0
  0
ARC
  5
29D
  8
0
 10
192.10418999999999
 20
146.91408999999999
 30
0.0
 40
25.0
 50
301.33225149759329
 51
359.59416314703179
  0
ARC
  5
29E
  8
0
 10
192.10418999999999
 20
146.91408999999999
 30
0.0
 40
25.0
 50
180.40583685296821
 51
238.6677485024066
  0
LINE
  5
29F
  8
2
 10
185.60418999999999
 20
129.05993349593729
 30
0.0
 11
198.60418999999999
 21
129.05993349593729
 31
0.0
  0
LINE
  5
2A0
  8
2
 10
198.60418999999999
 20
129.05993349593729
 30
0.0
 11
198.60418999999999
 21
125.5599334959373
 31
0.0
  0
LINE
  5
2A1
  8
2
 10
185.60418999999999
 20
129.05993349593729
 30
0.0
 11
185.60418999999999
 21
125.5599334959373
 31
0.0
  0
CIRCLE
  5
2D9
  8
0
 10
192.10418999999999
 20
69.722488999999996
 30
0.0
 40
13.0
  0
LINE
  5
2FD
  8
0
 10
179.1041900000003
 20
125.5599334959371
 30
0.0
 11
205.10418999999959
 21
125.5599334959371
 31
0.0
  0
TEXT
  5
3ED
  8
0
 62
     3
 10
0.0
 20
0.0
 30
0.0
 40
10.0
  1
PB50X12B
  7
STANDARD1
  0
ENDSEC
  0
EOF
