  0
SECTION
  2
HEADER
  9
$ACADVER
  1
AC1009
  9
$INSBASE
 10
0.0
 20
0.0
 30
0.0
  9
$EXTMIN
 10
0.0
 20
-2.960436562073669
 30
0.0
  9
$EXTMAX
 10
260.0
 20
200.0
 30
0.0
  9
$LIMMIN
 10
0.0
 20
0.0
  9
$LIMMAX
 10
375.0
 20
270.0
  9
$ORTHOMODE
 70
     1
  9
$REGENMODE
 70
     1
  9
$FILLMODE
 70
     1
  9
$QTEXTMODE
 70
     0
  9
$MIRRTEXT
 70
     0
  9
$DRAGMODE
 70
     2
  9
$LTSCALE
 40
10.0
  9
$OSMODE
 70
  3071
  9
$ATTMODE
 70
     1
  9
$TEXTSIZE
 40
5.0
  9
$TRACEWID
 40
0.05
  9
$TEXTSTYLE
  7
STANDARD
  9
$CLAYER
  8
0
  9
$CELTYPE
  6
BYLAYER
  9
$CECOLOR
 62
   256
  9
$DIMSCALE
 40
1.0
  9
$DIMASZ
 40
3.0
  9
$DIMEXO
 40
2.0
  9
$DIMDLI
 40
0.38
  9
$DIMRND
 40
0.0
  9
$DIMDLE
 40
0.0
  9
$DIMEXE
 40
2.0
  9
$DIMTP
 40
0.0
  9
$DIMTM
 40
0.0
  9
$DIMTXT
 40
3.2000000000000002
  9
$DIMCEN
 40
0.09
  9
$DIMTSZ
 40
0.0
  9
$DIMTOL
 70
     0
  9
$DIMLIM
 70
     0
  9
$DIMTIH
 70
     0
  9
$DIMTOH
 70
     0
  9
$DIMSE1
 70
     0
  9
$DIMSE2
 70
     0
  9
$DIMTAD
 70
     1
  9
$DIMZIN
 70
     0
  9
$DIMBLK
  1

  9
$DIMASO
 70
     1
  9
$DIMSHO
 70
     0
  9
$DIMPOST
  1

  9
$DIMAPOST
  1

  9
$DIMALT
 70
     0
  9
$DIMALTD
 70
     2
  9
$DIMALTF
 40
25.399999999999999
  9
$DIMLFAC
 40
1.0
  9
$DIMTOFL
 70
     0
  9
$DIMTVP
 40
1.6000000000000001
  9
$DIMTIX
 70
     1
  9
$DIMSOXD
 70
     0
  9
$DIMSAH
 70
     0
  9
$DIMBLK1
  1

  9
$DIMBLK2
  1

  9
$DIMSTYLE
  2
STANDARD
  9
$DIMCLRD
 70
     0
  9
$DIMCLRE
 70
     0
  9
$DIMCLRT
 70
     0
  9
$DIMTFAC
 40
1.0
  9
$DIMGAP
 40
0.09
  9
$LUNITS
 70
     2
  9
$LUPREC
 70
     4
  9
$SKETCHINC
 40
0.1
  9
$FILLETRAD
 40
0.5
  9
$AUNITS
 70
     0
  9
$AUPREC
 70
     0
  9
$MENU
  1
E:\r13\win\SUPPORT\ACAD
  9
$ELEVATION
 40
0.0
  9
$PELEVATION
 40
0.0
  9
$THICKNESS
 40
0.0
  9
$LIMCHECK
 70
     0
  9
$BLIPMODE
 70
     0
  9
$CHAMFERA
 40
0.0
  9
$CHAMFERB
 40
0.0
  9
$SKPOLY
 70
     0
  9
$TDCREATE
 40
2449839.7828935189
  9
$TDUPDATE
 40
2456597.5013567829
  9
$TDINDWG
 40
0.0322147801
  9
$TDUSRTIMER
 40
0.0322147801
  9
$USRTIMER
 70
     1
  9
$ANGBASE
 50
0.0
  9
$ANGDIR
 70
     0
  9
$PDMODE
 70
     0
  9
$PDSIZE
 40
0.0
  9
$PLINEWID
 40
0.0
  9
$COORDS
 70
     1
  9
$SPLFRAME
 70
     0
  9
$SPLINETYPE
 70
     6
  9
$SPLINESEGS
 70
     8
  9
$ATTDIA
 70
     0
  9
$ATTREQ
 70
     1
  9
$HANDLING
 70
     1
  9
$HANDSEED
  5
5E0
  9
$SURFTAB1
 70
     6
  9
$SURFTAB2
 70
     6
  9
$SURFTYPE
 70
     6
  9
$SURFU
 70
     6
  9
$SURFV
 70
     6
  9
$UCSNAME
  2

  9
$UCSORG
 10
0.0
 20
0.0
 30
0.0
  9
$UCSXDIR
 10
1.0
 20
0.0
 30
0.0
  9
$UCSYDIR
 10
0.0
 20
1.0
 30
0.0
  9
$PUCSNAME
  2

  9
$PUCSORG
 10
0.0
 20
0.0
 30
0.0
  9
$PUCSXDIR
 10
1.0
 20
0.0
 30
0.0
  9
$PUCSYDIR
 10
0.0
 20
1.0
 30
0.0
  9
$USERI1
 70
     0
  9
$USERI2
 70
     1
  9
$USERI3
 70
     1
  9
$USERI4
 70
     0
  9
$USERI5
 70
     0
  9
$USERR1
 40
0.0
  9
$USERR2
 40
0.0
  9
$USERR3
 40
0.0
  9
$USERR4
 40
0.0
  9
$USERR5
 40
0.0
  9
$WORLDVIEW
 70
     1
  9
$SHADEDGE
 70
     3
  9
$SHADEDIF
 70
    70
  9
$TILEMODE
 70
     1
  9
$MAXACTVP
 70
    16
  9
$PLIMCHECK
 70
     0
  9
$PEXTMIN
 10
1.0000000000000000E+020
 20
1.0000000000000000E+020
 30
1.0000000000000000E+020
  9
$PEXTMAX
 10
-1.0000000000000000E+020
 20
-1.0000000000000000E+020
 30
-1.0000000000000000E+020
  9
$PLIMMIN
 10
0.0
 20
0.0
  9
$PLIMMAX
 10
12.0
 20
9.0
  9
$UNITMODE
 70
     0
  9
$VISRETAIN
 70
     0
  9
$PLINEGEN
 70
     0
  9
$PSLTSCALE
 70
     0
  0
ENDSEC
  0
SECTION
  2
TABLES
  0
TABLE
  2
VPORT
 70
     1
  0
VPORT
  2
*ACTIVE
 70
     0
 10
0.0
 20
0.0
 11
1.0
 21
1.0
 12
187.49427839065231
 22
162.8616388594717
 13
0.0
 23
0.0
 14
10.0
 24
10.0
 15
10.0
 25
10.0
 16
0.0
 26
0.0
 36
1.0
 17
0.0
 27
0.0
 37
0.0
 40
334.81001162774987
 41
1.9089595375722539
 42
50.0
 43
0.0
 44
0.0
 50
0.0
 51
0.0
 71
     0
 72
   500
 73
     1
 74
     0
 75
     0
 76
     0
 77
     0
 78
     2
  0
ENDTAB
  0
TABLE
  2
LTYPE
 70
     3
  0
LTYPE
  2
CONTINUOUS
 70
     0
  3
Solid Line
 72
    65
 73
     0
 40
0.0
  0
LTYPE
  2
CENTER
 70
     0
  3
____ _ ____ _ ____ _ ____ _ ____ _ ____ _ ____
 72
    65
 73
     4
 40
2.0
 49
1.25
 49
-0.25
 49
0.25
 49
-0.25
  0
LTYPE
  2
PHANTOM2
 70
     0
  3
___ _ _ ___ _ _ ___ _ _ ___ _ _
 72
    65
 73
     6
 40
1.25
 49
0.625
 49
-0.125
 49
0.125
 49
-0.125
 49
0.125
 49
-0.125
  0
ENDTAB
  0
TABLE
  2
LAYER
 70
     4
  0
LAYER
  2
0
 70
     0
 62
     7
  6
CONTINUOUS
  0
LAYER
  2
1
 70
     0
 62
     1
  6
CENTER
  0
LAYER
  2
3
 70
     0
 62
     3
  6
CONTINUOUS
  0
LAYER
  2
DEFPOINTS
 70
     0
 62
     7
  6
CONTINUOUS
  0
ENDTAB
  0
TABLE
  2
STYLE
 70
     2
  0
STYLE
  2
STANDARD
 70
     0
 40
0.0
 41
1.0
 50
0.0
 71
     0
 42
5.0
  3
TXT
  4
BIGFONT
  0
STYLE
  2
STANDARD1
 70
     0
 40
0.0
 41
1.0
 50
0.0
 71
     0
 42
3.0
  3
txt
  4

  0
ENDTAB
  0
TABLE
  2
VIEW
 70
     1
  0
VIEW
  2
ALL
 70
     0
 40
270.0
 10
220.99159663865549
 20
135.0
 41
0.0
 11
0.0
 21
0.0
 31
1.0
 12
0.0
 22
0.0
 32
0.0
 42
0.0
 43
0.0
 44
0.0
 50
0.0
 71
     0
  0
ENDTAB
  0
TABLE
  2
UCS
 70
     0
  0
ENDTAB
  0
TABLE
  2
APPID
 70
    39
  0
APPID
  2
ACAD
 70
     0
  0
APPID
  2
ACAD_EXEMPT_FROM_CAD_STANDARDS
 70
     0
  0
APPID
  2
GENIUS_GENOREF_13
 70
     0
  0
APPID
  2
DCO15
 70
     0
  0
APPID
  2
GENIUS_GENOENT_13
 70
     0
  0
APPID
  2
GENIUS_GENBH_13
 70
     0
  0
APPID
  2
GENIUS_GENOBJ_13
 70
     0
  0
APPID
  2
GENIUS_GENODEF_13
 70
     0
  0
APPID
  2
GENIUS_GENOLIS_13
 70
     0
  0
APPID
  2
GENIUS_GENOBJ-NBEHI-BHF_13
 70
     0
  0
APPID
  2
GENIUS_GENOBJ-NBEHI-BHB_13
 70
     0
  0
APPID
  2
GENIUS_GENOBJ-F-PART_13
 70
     0
  0
APPID
  2
GENIUS_GEFSTDP_13
 70
     0
  0
APPID
  2
GENIUS_GENOBJ-N-RSSYM_13
 70
     0
  0
APPID
  2
GENIUS_GENSYMENT_13
 70
     0
  0
APPID
  2
GENIUS_GENOBJ-N-TIT_13
 70
     0
  0
APPID
  2
GENIUS_GENTITLE_13
 70
     0
  0
APPID
  2
GENIUS_GENZVEED_13
 70
     0
  0
APPID
  2
GENIUS_GENOBJ-N-LEADER_13
 70
     0
  0
APPID
  2
GENIUS_GENOBJ-N-FIL_13
 70
     0
  0
APPID
  2
GENIUS_GENOBJ-N-SEC_13
 70
     0
  0
APPID
  2
GENIUS_GENOBJ-N-CRS_13
 70
     0
  0
APPID
  2
GENIUS_GENOBJ-N-ZOO_13
 70
     0
  0
APPID
  2
GENIUS_GENZOO_13
 70
     0
  0
APPID
  2
GENIUS_GENOBJ-F-TOL_13
 70
     0
  0
APPID
  2
GENIUS_GENFIL_13
 70
     0
  0
APPID
  2
GENIUS_GENOBJ-N-CHA_13
 70
     0
  0
APPID
  2
_CALL_MAC$
 70
     0
  0
APPID
  2
ASM_BASE
 70
     0
  0
APPID
  2
ASM_EXPLO_VER_2_00
 70
     0
  0
APPID
  2
ASM_CADM_VER_12_00
 70
     0
  0
APPID
  2
ASM_BASEFORO
 70
     0
  0
APPID
  2
ASM_BASETRAVI
 70
     0
  0
APPID
  2
ASM_BASETRAVI1
 70
     0
  0
APPID
  2
ASM_GRUPPI
 70
     0
  0
APPID
  2
ASM_CADM_ALBERO
 70
     0
  0
APPID
  2
ASM_GOLE
 70
     0
  0
APPID
  2
ACAD_MLEADERVER
 70
     0
  0
APPID
  2
ACAD_NAV_VCDISPLAY
 70
     0
  0
ENDTAB
  0
TABLE
  2
DIMSTYLE
 70
     1
  0
DIMSTYLE
  2
STANDARD
 70
     0
  3

  4

  5

  6

  7

 40
1.0
 41
0.18
 42
0.0625
 43
0.38
 44
0.18
 45
0.0
 46
0.0
 47
0.0
 48
0.0
140
0.18
141
0.09
142
0.0
143
25.399999999999999
144
1.0
145
0.0
146
1.0
147
0.09
 71
     0
 72
     0
 73
     1
 74
     1
 75
     0
 76
     0
 77
     0
 78
     0
170
     0
171
     2
172
     0
173
     0
174
     0
175
     0
176
     0
177
     0
178
     0
  0
ENDTAB
  0
ENDSEC
  0
SECTION
  2
BLOCKS
  0
BLOCK
  8
0
  2
$MODEL_SPACE
 70
     0
 10
0.0
 20
0.0
 30
0.0
  3
$MODEL_SPACE
  1

  0
ENDBLK
  5
FD
  8
0
  0
BLOCK
 67
     1
  8
0
  2
$PAPER_SPACE
 70
     0
 10
0.0
 20
0.0
 30
0.0
  3
$PAPER_SPACE
  1

  0
ENDBLK
  5
FB
 67
     1
  8
0
  0
ENDSEC
  0
SECTION
  2
ENTITIES
  0
LINE
  5
34
  8
1
 10
105.0
 20
120.0
 30
0.0
 11
190.0
 21
120.0
 31
0.0
  0
LINE
  5
3D
  8
3
 10
110.4584999999999
 20
117.5415
 30
0.0
 11
120.0
 21
117.5415
 31
0.0
  0
LINE
  5
3E
  8
3
 10
110.4584999999999
 20
122.4585
 30
0.0
 11
120.0
 21
122.4585
 31
0.0
  0
LINE
  5
3F
  8
0
 10
111.0
 20
123.0
 30
0.0
 11
110.9999999999999
 21
117.0
 31
0.0
  0
LINE
  5
40
  8
0
 10
110.0
 20
118.0
 30
0.0
 11
111.0
 21
117.0
 31
0.0
  0
LINE
  5
41
  8
0
 10
111.0
 20
123.0
 30
0.0
 11
110.0
 21
122.0
 31
0.0
  0
LINE
  5
42
  8
0
 10
111.0
 20
117.0
 30
0.0
 11
120.0
 21
117.0
 31
0.0
  0
LINE
  5
43
  8
0
 10
110.0
 20
122.0
 30
0.0
 11
110.0
 21
118.0
 31
0.0
  0
LINE
  5
44
  8
0
 10
120.0
 20
123.0
 30
0.0
 11
111.0
 21
123.0
 31
0.0
  0
ARC
  5
48
  8
0
 10
121.59999999999999
 20
117.40000000000001
 30
0.0
 40
0.4
 50
0.0
 51
90.0
  0
ARC
  5
49
  8
0
 10
120.40000000000001
 20
117.39999999999991
 30
0.0
 40
0.4
 50
90.0
 51
179.99999999999989
  0
ARC
  5
4A
  8
0
 10
121.59999999999999
 20
122.59999999999999
 30
0.0
 40
0.4
 50
270.0
 51
0.0
  0
ARC
  5
4B
  8
0
 10
120.40000000000001
 20
122.59999999999999
 30
0.0
 40
0.4
 50
180.0
 51
270.0
  0
LINE
  5
4C
  8
0
 10
122.0
 20
124.0
 30
0.0
 11
122.0
 21
116.0
 31
0.0
  0
LINE
  5
4D
  8
0
 10
120.0
 20
122.9999999999999
 30
0.0
 11
120.0
 21
117.0
 31
0.0
  0
LINE
  5
4F
  8
0
 10
120.40000000000001
 20
117.8
 30
0.0
 11
121.59999999999999
 21
117.8
 31
0.0
  0
LINE
  5
50
  8
0
 10
121.59999999999999
 20
122.1999999999999
 30
0.0
 11
120.40000000000001
 21
122.1999999999999
 31
0.0
  0
LINE
  5
51
  8
0
 10
122.0
 20
116.0
 30
0.0
 11
153.0
 21
116.0000000000001
 31
0.0
  0
LINE
  5
53
  8
0
 10
153.0
 20
124.0
 30
0.0
 11
122.0
 21
124.0
 31
0.0
  0
CIRCLE
  5
54
  8
0
 10
50.0
 20
120.0
 30
0.0
 40
4.0
  0
LINE
  5
55
  8
1
 10
65.0
 20
120.0
 30
0.0
 11
35.0
 21
120.0
 31
0.0
  0
LINE
  5
56
  8
1
 10
50.0
 20
135.0
 30
0.0
 11
50.0
 21
105.0
 31
0.0
  0
CIRCLE
  5
57
  8
0
 10
50.0
 20
120.0
 30
0.0
 40
3.0
  0
CIRCLE
  5
58
  8
3
 10
50.0
 20
120.0
 30
0.0
 40
2.458499999999999
  0
LINE
  5
59
  8
1
 10
245.00000000000011
 20
135.0
 30
0.0
 11
245.00000000000011
 21
105.0
 31
0.0
  0
LINE
  5
5A
  8
1
 10
260.0
 20
120.0
 30
0.0
 11
230.00000000000011
 21
120.0
 31
0.0
  0
LINE
  5
5C
  8
0
 10
153.0
 20
194.0
 30
0.0
 11
122.0
 21
194.0
 31
0.0
  0
LINE
  5
5E
  8
0
 10
122.0
 20
186.0
 30
0.0
 11
153.0
 21
186.00000000000011
 31
0.0
  0
LINE
  5
5F
  8
0
 10
121.59999999999999
 20
192.19999999999999
 30
0.0
 11
120.40000000000001
 21
192.19999999999999
 31
0.0
  0
LINE
  5
60
  8
0
 10
120.40000000000001
 20
187.80000000000001
 30
0.0
 11
121.59999999999999
 21
187.80000000000001
 31
0.0
  0
LINE
  5
62
  8
0
 10
120.0
 20
193.0
 30
0.0
 11
120.0
 21
187.0
 31
0.0
  0
LINE
  5
63
  8
0
 10
122.0
 20
194.0
 30
0.0
 11
122.0
 21
186.0
 31
0.0
  0
ARC
  5
64
  8
0
 10
120.40000000000001
 20
192.59999999999999
 30
0.0
 40
0.4
 50
180.0
 51
270.0
  0
ARC
  5
65
  8
0
 10
121.59999999999999
 20
192.59999999999999
 30
0.0
 40
0.4
 50
270.0
 51
0.0
  0
ARC
  5
66
  8
0
 10
120.40000000000001
 20
187.40000000000001
 30
0.0
 40
0.4
 50
90.0
 51
179.99999999999989
  0
ARC
  5
67
  8
0
 10
121.59999999999999
 20
187.40000000000001
 30
0.0
 40
0.4
 50
0.0
 51
90.0
  0
LINE
  5
6B
  8
0
 10
120.0
 20
193.0
 30
0.0
 11
111.0
 21
193.0
 31
0.0
  0
LINE
  5
6C
  8
0
 10
110.0
 20
192.0
 30
0.0
 11
110.0
 21
188.0
 31
0.0
  0
LINE
  5
6D
  8
0
 10
111.0
 20
187.0
 30
0.0
 11
120.0
 21
187.0
 31
0.0
  0
LINE
  5
6E
  8
0
 10
111.0
 20
193.0
 30
0.0
 11
110.0
 21
192.0
 31
0.0
  0
LINE
  5
6F
  8
0
 10
110.0
 20
188.0
 30
0.0
 11
111.0
 21
187.0
 31
0.0
  0
LINE
  5
70
  8
0
 10
111.0
 20
193.0
 30
0.0
 11
110.9999999999999
 21
187.0
 31
0.0
  0
LINE
  5
71
  8
3
 10
110.4584999999999
 20
192.4584999999999
 30
0.0
 11
120.0
 21
192.4584999999999
 31
0.0
  0
LINE
  5
72
  8
3
 10
110.4584999999999
 20
187.54150000000001
 30
0.0
 11
120.0
 21
187.54150000000001
 31
0.0
  0
LINE
  5
79
  8
1
 10
105.0
 20
190.0
 30
0.0
 11
190.0
 21
190.0
 31
0.0
  0
LINE
  5
7A
  8
0
 10
153.0
 20
53.999999999999972
 30
0.0
 11
122.0
 21
53.999999999999979
 31
0.0
  0
LINE
  5
7C
  8
0
 10
122.0
 20
46.000000000000007
 30
0.0
 11
153.0
 21
46.000000000000078
 31
0.0
  0
LINE
  5
7D
  8
0
 10
121.59999999999999
 20
52.199999999999982
 30
0.0
 11
120.40000000000001
 21
52.199999999999982
 31
0.0
  0
LINE
  5
7E
  8
0
 10
120.40000000000001
 20
47.799999999999983
 30
0.0
 11
121.59999999999999
 21
47.799999999999997
 31
0.0
  0
LINE
  5
80
  8
0
 10
120.0
 20
53.0
 30
0.0
 11
120.0
 21
47.0
 31
0.0
  0
LINE
  5
81
  8
0
 10
122.0
 20
53.999999999999979
 30
0.0
 11
122.0
 21
45.999999999999979
 31
0.0
  0
ARC
  5
82
  8
0
 10
120.40000000000001
 20
52.599999999999987
 30
0.0
 40
0.4
 50
180.0
 51
270.0
  0
ARC
  5
83
  8
0
 10
121.59999999999999
 20
52.599999999999987
 30
0.0
 40
0.4
 50
270.0
 51
0.0
  0
ARC
  5
84
  8
0
 10
120.40000000000001
 20
47.39999999999997
 30
0.0
 40
0.4
 50
90.0
 51
179.99999999999989
  0
ARC
  5
85
  8
0
 10
121.59999999999999
 20
47.399999999999991
 30
0.0
 40
0.4
 50
0.0
 51
90.0
  0
LINE
  5
89
  8
0
 10
120.0
 20
53.0
 30
0.0
 11
111.0
 21
53.000000000000007
 31
0.0
  0
LINE
  5
8A
  8
0
 10
110.0
 20
52.000000000000007
 30
0.0
 11
110.0
 21
48.000000000000007
 31
0.0
  0
LINE
  5
8B
  8
0
 10
111.0
 20
47.000000000000007
 30
0.0
 11
120.0
 21
47.0
 31
0.0
  0
LINE
  5
8C
  8
0
 10
111.0
 20
53.000000000000007
 30
0.0
 11
110.0
 21
52.000000000000007
 31
0.0
  0
LINE
  5
8D
  8
0
 10
110.0
 20
48.000000000000007
 30
0.0
 11
111.0
 21
47.000000000000007
 31
0.0
  0
LINE
  5
8E
  8
0
 10
111.0
 20
53.000000000000007
 30
0.0
 11
110.9999999999999
 21
47.000000000000007
 31
0.0
  0
LINE
  5
8F
  8
3
 10
110.4584999999999
 20
52.458499999999972
 30
0.0
 11
120.0
 21
52.458499999999972
 31
0.0
  0
LINE
  5
90
  8
3
 10
110.4584999999999
 20
47.541499999999999
 30
0.0
 11
120.0
 21
47.541499999999999
 31
0.0
  0
LINE
  5
97
  8
1
 10
105.0
 20
49.999999999999993
 30
0.0
 11
190.0
 21
49.999999999999993
 31
0.0
  0
ARC
  5
1F6
  8
0
 10
173.0636970099753
 20
130.02678561956139
 30
0.0
 40
70.0
 50
88.414912256183044
 51
106.34927471248631
  0
LINE
  5
1F7
  8
0
 10
153.0
 20
196.7164531798505
 30
0.0
 11
153.0
 21
183.28354682014941
 31
0.0
  0
ARC
  5
1F8
  8
0
 10
175.0
 20
190.0
 30
0.0
 40
10.0
 50
270.00000000000648
 51
89.999999999993491
  0
ARC
  5
1F9
  8
0
 10
153.5
 20
196.7164531798505
 30
0.0
 40
0.5
 50
106.3492747124829
 51
180.0
  0
ARC
  5
1FA
  8
0
 10
173.06369700997541
 20
249.97321438043861
 30
0.0
 40
70.0
 50
253.65072528751369
 51
271.58508774381698
  0
ARC
  5
1FB
  8
0
 10
153.5
 20
183.28354682014941
 30
0.0
 40
0.5
 50
180.0
 51
253.6507252875171
  0
ARC
  5
1FC
  8
0
 10
173.0636970099753
 20
60.026785619561387
 30
0.0
 40
70.0
 50
88.414912256183044
 51
106.34927471248599
  0
LINE
  5
1FD
  8
0
 10
153.0
 20
126.7164531798505
 30
0.0
 11
153.0
 21
113.2835468201494
 31
0.0
  0
ARC
  5
1FE
  8
0
 10
175.0
 20
119.9999999999999
 30
0.0
 40
10.0
 50
270.00000000000648
 51
89.999999999993491
  0
ARC
  5
1FF
  8
0
 10
153.5
 20
126.7164531798505
 30
0.0
 40
0.5
 50
106.3492747124829
 51
180.0
  0
ARC
  5
200
  8
0
 10
173.06369700997541
 20
179.97321438043861
 30
0.0
 40
70.0
 50
253.65072528751389
 51
271.58508774381698
  0
ARC
  5
201
  8
0
 10
153.5
 20
113.2835468201494
 30
0.0
 40
0.5
 50
180.0
 51
253.6507252875171
  0
ARC
  5
202
  8
0
 10
173.0636970099753
 20
-9.9732143804386322
 30
0.0
 40
70.0
 50
88.414912256183044
 51
106.34927471248599
  0
LINE
  5
203
  8
0
 10
153.0
 20
56.716453179850497
 30
0.0
 11
153.0
 21
43.283546820149439
 31
0.0
  0
ARC
  5
204
  8
0
 10
175.0
 20
49.999999999999943
 30
0.0
 40
10.0
 50
270.00000000000648
 51
89.999999999993491
  0
ARC
  5
205
  8
0
 10
153.5
 20
56.716453179850497
 30
0.0
 40
0.5
 50
106.3492747124829
 51
180.0
  0
ARC
  5
206
  8
0
 10
173.06369700997541
 20
109.97321438043861
 30
0.0
 40
70.0
 50
253.65072528751389
 51
271.58508774381698
  0
ARC
  5
207
  8
0
 10
153.5
 20
43.283546820149439
 30
0.0
 40
0.5
 50
180.0
 51
253.6507252875171
  0
CIRCLE
  5
20B
  8
0
 10
245.00000000000011
 20
120.0
 30
0.0
 40
10.0
  0
CIRCLE
  5
20C
  8
0
 10
50.0
 20
120.0
 30
0.0
 40
10.0
  0
CIRCLE
  5
4D1
  8
0
 10
50.0
 20
120.0
 30
0.0
 40
7.0
  0
TEXT
  5
57C
  8
0
 62
     3
 10
0.0
 20
0.0
 30
0.0
 40
10.0
  1
OGL6X63-SUS
  7
STANDARD1
  0
ENDSEC
  0
EOF
