  0
SECTION
  2
HEADER
  9
$ACADVER
  1
AC1009
  9
$INSBASE
 10
0.0
 20
0.0
 30
0.0
  9
$EXTMIN
 10
0.0
 20
-2.960436562073669
 30
0.0
  9
$EXTMAX
 10
327.27292981805221
 20
243.25979975173809
 30
0.0
  9
$LIMMIN
 10
0.0
 20
0.0
  9
$LIMMAX
 10
375.0
 20
270.0
  9
$ORTHOMODE
 70
     1
  9
$REGENMODE
 70
     1
  9
$FILLMODE
 70
     1
  9
$QTEXTMODE
 70
     0
  9
$MIRRTEXT
 70
     0
  9
$DRAGMODE
 70
     2
  9
$LTSCALE
 40
10.0
  9
$OSMODE
 70
  3071
  9
$ATTMODE
 70
     1
  9
$TEXTSIZE
 40
0.2
  9
$TRACEWID
 40
0.05
  9
$TEXTSTYLE
  7
STANDARD
  9
$CLAYER
  8
0
  9
$CELTYPE
  6
BYLAYER
  9
$CECOLOR
 62
   256
  9
$DIMSCALE
 40
1.0
  9
$DIMASZ
 40
3.0
  9
$DIMEXO
 40
2.0
  9
$DIMDLI
 40
0.38
  9
$DIMRND
 40
0.0
  9
$DIMDLE
 40
0.0
  9
$DIMEXE
 40
2.0
  9
$DIMTP
 40
0.0
  9
$DIMTM
 40
0.0
  9
$DIMTXT
 40
3.2000000000000002
  9
$DIMCEN
 40
0.09
  9
$DIMTSZ
 40
0.0
  9
$DIMTOL
 70
     0
  9
$DIMLIM
 70
     0
  9
$DIMTIH
 70
     0
  9
$DIMTOH
 70
     0
  9
$DIMSE1
 70
     0
  9
$DIMSE2
 70
     0
  9
$DIMTAD
 70
     1
  9
$DIMZIN
 70
     0
  9
$DIMBLK
  1

  9
$DIMASO
 70
     1
  9
$DIMSHO
 70
     0
  9
$DIMPOST
  1

  9
$DIMAPOST
  1

  9
$DIMALT
 70
     0
  9
$DIMALTD
 70
     2
  9
$DIMALTF
 40
25.399999999999999
  9
$DIMLFAC
 40
1.0
  9
$DIMTOFL
 70
     0
  9
$DIMTVP
 40
1.6000000000000001
  9
$DIMTIX
 70
     1
  9
$DIMSOXD
 70
     0
  9
$DIMSAH
 70
     0
  9
$DIMBLK1
  1

  9
$DIMBLK2
  1

  9
$DIMSTYLE
  2
STANDARD
  9
$DIMCLRD
 70
     0
  9
$DIMCLRE
 70
     0
  9
$DIMCLRT
 70
     0
  9
$DIMTFAC
 40
1.0
  9
$DIMGAP
 40
0.09
  9
$LUNITS
 70
     2
  9
$LUPREC
 70
     4
  9
$SKETCHINC
 40
0.1
  9
$FILLETRAD
 40
0.5
  9
$AUNITS
 70
     0
  9
$AUPREC
 70
     0
  9
$MENU
  1
E:\r13\win\SUPPORT\ACAD
  9
$ELEVATION
 40
0.0
  9
$PELEVATION
 40
0.0
  9
$THICKNESS
 40
0.0
  9
$LIMCHECK
 70
     0
  9
$BLIPMODE
 70
     0
  9
$CHAMFERA
 40
0.0
  9
$CHAMFERB
 40
0.0
  9
$SKPOLY
 70
     0
  9
$TDCREATE
 40
2449839.782199074
  9
$TDUPDATE
 40
2456597.5023381021
  9
$TDINDWG
 40
0.0018669444
  9
$TDUSRTIMER
 40
0.0018669444
  9
$USRTIMER
 70
     1
  9
$ANGBASE
 50
0.0
  9
$ANGDIR
 70
     0
  9
$PDMODE
 70
     0
  9
$PDSIZE
 40
0.0
  9
$PLINEWID
 40
0.0
  9
$COORDS
 70
     1
  9
$SPLFRAME
 70
     0
  9
$SPLINETYPE
 70
     6
  9
$SPLINESEGS
 70
     8
  9
$ATTDIA
 70
     0
  9
$ATTREQ
 70
     1
  9
$HANDLING
 70
     1
  9
$HANDSEED
  5
44D
  9
$SURFTAB1
 70
     6
  9
$SURFTAB2
 70
     6
  9
$SURFTYPE
 70
     6
  9
$SURFU
 70
     6
  9
$SURFV
 70
     6
  9
$UCSNAME
  2

  9
$UCSORG
 10
0.0
 20
0.0
 30
0.0
  9
$UCSXDIR
 10
1.0
 20
0.0
 30
0.0
  9
$UCSYDIR
 10
0.0
 20
1.0
 30
0.0
  9
$PUCSNAME
  2

  9
$PUCSORG
 10
0.0
 20
0.0
 30
0.0
  9
$PUCSXDIR
 10
1.0
 20
0.0
 30
0.0
  9
$PUCSYDIR
 10
0.0
 20
1.0
 30
0.0
  9
$USERI1
 70
     0
  9
$USERI2
 70
     1
  9
$USERI3
 70
     1
  9
$USERI4
 70
     0
  9
$USERI5
 70
     0
  9
$USERR1
 40
0.0
  9
$USERR2
 40
0.0
  9
$USERR3
 40
0.0
  9
$USERR4
 40
0.0
  9
$USERR5
 40
0.0
  9
$WORLDVIEW
 70
     1
  9
$SHADEDGE
 70
     3
  9
$SHADEDIF
 70
    70
  9
$TILEMODE
 70
     1
  9
$MAXACTVP
 70
    16
  9
$PLIMCHECK
 70
     0
  9
$PEXTMIN
 10
1.0000000000000000E+020
 20
1.0000000000000000E+020
 30
1.0000000000000000E+020
  9
$PEXTMAX
 10
-1.0000000000000000E+020
 20
-1.0000000000000000E+020
 30
-1.0000000000000000E+020
  9
$PLIMMIN
 10
0.0
 20
0.0
  9
$PLIMMAX
 10
12.0
 20
9.0
  9
$UNITMODE
 70
     0
  9
$VISRETAIN
 70
     0
  9
$PLINEGEN
 70
     0
  9
$PSLTSCALE
 70
     0
  0
ENDSEC
  0
SECTION
  2
TABLES
  0
TABLE
  2
VPORT
 70
     1
  0
VPORT
  2
*ACTIVE
 70
     0
 10
0.0
 20
0.0
 11
1.0
 21
1.0
 12
187.49427839065231
 22
162.8616388594717
 13
0.0
 23
0.0
 14
10.0
 24
10.0
 15
10.0
 25
10.0
 16
0.0
 26
0.0
 36
1.0
 17
0.0
 27
0.0
 37
0.0
 40
334.81001162774987
 41
1.9089595375722539
 42
50.0
 43
0.0
 44
0.0
 50
0.0
 51
0.0
 71
     0
 72
   500
 73
     1
 74
     0
 75
     0
 76
     0
 77
     0
 78
     2
  0
ENDTAB
  0
TABLE
  2
LTYPE
 70
     4
  0
LTYPE
  2
CONTINUOUS
 70
     0
  3
Solid Line
 72
    65
 73
     0
 40
0.0
  0
LTYPE
  2
CENTER
 70
     0
  3
____ _ ____ _ ____ _ ____ _ ____ _ ____ _ ____
 72
    65
 73
     4
 40
2.0
 49
1.25
 49
-0.25
 49
0.25
 49
-0.25
  0
LTYPE
  2
HIDDEN
 70
     0
  3
_ _ _ _ _ _ _ _ _ _ _ _ _ _ _ _ _ _ _ _ _ _ _
 72
    65
 73
     2
 40
0.375
 49
0.25
 49
-0.125
  0
LTYPE
  2
PHANTOM2
 70
     0
  3
___ _ _ ___ _ _ ___ _ _ ___ _ _
 72
    65
 73
     6
 40
1.25
 49
0.625
 49
-0.125
 49
0.125
 49
-0.125
 49
0.125
 49
-0.125
  0
ENDTAB
  0
TABLE
  2
LAYER
 70
     3
  0
LAYER
  2
0
 70
     0
 62
     7
  6
CONTINUOUS
  0
LAYER
  2
1
 70
     0
 62
     1
  6
CENTER
  0
LAYER
  2
2
 70
     0
 62
     2
  6
HIDDEN
  0
ENDTAB
  0
TABLE
  2
STYLE
 70
     2
  0
STYLE
  2
STANDARD
 70
     0
 40
0.0
 41
1.0
 50
0.0
 71
     0
 42
0.2
  3
TXT
  4
BIGFONT
  0
STYLE
  2
STANDARD1
 70
     0
 40
0.0
 41
1.0
 50
0.0
 71
     0
 42
3.0
  3
txt
  4

  0
ENDTAB
  0
TABLE
  2
VIEW
 70
     1
  0
VIEW
  2
ALL
 70
     0
 40
270.0
 10
220.99159663865549
 20
135.0
 41
0.0
 11
0.0
 21
0.0
 31
1.0
 12
0.0
 22
0.0
 32
0.0
 42
0.0
 43
0.0
 44
0.0
 50
0.0
 71
     0
  0
ENDTAB
  0
TABLE
  2
UCS
 70
     0
  0
ENDTAB
  0
TABLE
  2
APPID
 70
     3
  0
APPID
  2
ACAD
 70
     0
  0
APPID
  2
ACAD_MLEADERVER
 70
     0
  0
APPID
  2
ACAD_NAV_VCDISPLAY
 70
     0
  0
ENDTAB
  0
TABLE
  2
DIMSTYLE
 70
     1
  0
DIMSTYLE
  2
STANDARD
 70
     0
  3

  4

  5

  6

  7

 40
1.0
 41
0.18
 42
0.0625
 43
0.38
 44
0.18
 45
0.0
 46
0.0
 47
0.0
 48
0.0
140
0.18
141
0.09
142
0.0
143
25.399999999999999
144
1.0
145
0.0
146
1.0
147
0.09
 71
     0
 72
     0
 73
     1
 74
     1
 75
     0
 76
     0
 77
     0
 78
     0
170
     0
171
     2
172
     0
173
     0
174
     0
175
     0
176
     0
177
     0
178
     0
  0
ENDTAB
  0
ENDSEC
  0
SECTION
  2
BLOCKS
  0
BLOCK
  8
0
  2
$MODEL_SPACE
 70
     0
 10
0.0
 20
0.0
 30
0.0
  3
$MODEL_SPACE
  1

  0
ENDBLK
  5
2CC
  8
0
  0
BLOCK
 67
     1
  8
0
  2
$PAPER_SPACE
 70
     0
 10
0.0
 20
0.0
 30
0.0
  3
$PAPER_SPACE
  1

  0
ENDBLK
  5
2CA
 67
     1
  8
0
  0
ENDSEC
  0
SECTION
  2
ENTITIES
  0
LINE
  5
237
  8
2
 10
174.27292981805209
 20
53.36998206873136
 30
0.0
 11
201.77292981805221
 21
53.36998206873136
 31
0.0
  0
LINE
  5
238
  8
2
 10
174.27292981805209
 20
50.632163595812358
 30
0.0
 11
203.00750876111991
 21
50.632163595812358
 31
0.0
  0
ARC
  5
239
  8
0
 10
217.46634331835909
 20
380.89817999802329
 30
0.0
 40
340.0
 50
257.77229580376348
 51
268.4514401514939
  0
LINE
  5
23A
  8
1
 10
139.27292981805209
 20
61.36998206873136
 30
0.0
 11
236.27292981805209
 21
61.36998206873136
 31
0.0
  0
LINE
  5
23B
  8
2
 10
174.27292981805209
 20
72.107800541650363
 30
0.0
 11
203.00750876111991
 21
72.107800541650363
 31
0.0
  0
LINE
  5
23C
  8
2
 10
174.27292981805209
 20
69.36998206873136
 30
0.0
 11
201.77292981805221
 21
69.36998206873136
 31
0.0
  0
ARC
  5
23D
  8
0
 10
217.46634331835909
 20
-258.15821586056057
 30
0.0
 40
340.0
 50
91.548559848506116
 51
102.2277041962365
  0
ARC
  5
23E
  8
0
 10
217.46634331835909
 20
461.59343468854797
 30
0.0
 40
340.0
 50
257.77229580376348
 51
268.4514401514939
  0
LINE
  5
23F
  8
2
 10
174.27292981805209
 20
134.06523675925609
 30
0.0
 11
201.77292981805221
 21
134.06523675925609
 31
0.0
  0
LINE
  5
240
  8
2
 10
174.27292981805209
 20
131.32741828633709
 30
0.0
 11
203.00750876111991
 21
131.32741828633709
 31
0.0
  0
LINE
  5
241
  8
1
 10
139.27292981805209
 20
142.06523675925609
 30
0.0
 11
236.27292981805209
 21
142.06523675925609
 31
0.0
  0
ARC
  5
242
  8
0
 10
217.46634331835909
 20
-177.46296117003581
 30
0.0
 40
340.0
 50
91.548559848506116
 51
102.2277041962365
  0
LINE
  5
243
  8
2
 10
174.27292981805209
 20
152.8030552321751
 30
0.0
 11
203.00750876111991
 21
152.8030552321751
 31
0.0
  0
LINE
  5
244
  8
2
 10
174.27292981805209
 20
150.06523675925609
 30
0.0
 11
201.77292981805221
 21
150.06523675925609
 31
0.0
  0
ARC
  5
245
  8
0
 10
217.46634331835909
 20
542.28868937907282
 30
0.0
 40
340.0
 50
257.77229580376348
 51
268.4514401514939
  0
LINE
  5
246
  8
2
 10
174.27292981805209
 20
214.7604914497808
 30
0.0
 11
201.77292981805221
 21
214.7604914497808
 31
0.0
  0
LINE
  5
247
  8
2
 10
174.27292981805209
 20
212.0226729768618
 30
0.0
 11
203.00750876111991
 21
212.0226729768618
 31
0.0
  0
LINE
  5
248
  8
1
 10
139.27292981805209
 20
222.7604914497808
 30
0.0
 11
236.27292981805209
 21
222.7604914497808
 31
0.0
  0
ARC
  5
249
  8
0
 10
217.46634331835909
 20
-96.767706479511105
 30
0.0
 40
340.0
 50
91.548559848506116
 51
102.2277041962365
  0
LINE
  5
24A
  8
2
 10
174.27292981805209
 20
233.4983099226998
 30
0.0
 11
203.00750876111991
 21
233.4983099226998
 31
0.0
  0
LINE
  5
24B
  8
2
 10
174.27292981805209
 20
230.7604914497808
 30
0.0
 11
201.77292981805221
 21
230.7604914497808
 31
0.0
  0
CIRCLE
  5
24D
  8
0
 10
73.772929818052148
 20
142.06523675925609
 30
0.0
 40
20.5
  0
LINE
  5
24E
  8
2
 10
174.27292981805209
 20
133.56523675925609
 30
0.0
 11
174.27292981805209
 21
142.06523675925609
 31
0.0
  0
LINE
  5
24F
  8
0
 10
144.27292981805209
 20
142.06523675925609
 30
0.0
 11
144.27292981805209
 21
130.77278167445041
 31
0.0
  0
LINE
  5
250
  8
1
 10
73.772929818052148
 20
167.56523675925609
 30
0.0
 11
73.772929818052148
 21
116.56523675925609
 31
0.0
  0
CIRCLE
  5
251
  8
0
 10
73.772929818052148
 20
142.06523675925609
 30
0.0
 40
8.0
  0
CIRCLE
  5
252
  8
0
 10
73.772929818052148
 20
142.06523675925609
 30
0.0
 40
8.5
  0
CIRCLE
  5
253
  8
0
 10
73.772929818052148
 20
142.06523675925609
 30
0.0
 40
12.234117416148109
  0
LINE
  5
254
  8
0
 10
144.27292981805209
 20
61.36998206873136
 30
0.0
 11
144.27292981805209
 21
50.077526983925679
 31
0.0
  0
ARC
  5
255
  8
0
 10
145.77292981805209
 20
50.077526983925679
 30
0.0
 40
1.5
 50
180.0
 51
257.77229580376212
  0
LINE
  5
256
  8
2
 10
144.27292981805209
 20
69.86998206873136
 30
0.0
 11
174.27292981805209
 21
69.86998206873136
 31
0.0
  0
LINE
  5
257
  8
2
 10
144.27292981805209
 20
52.86998206873136
 30
0.0
 11
174.27292981805209
 21
52.86998206873136
 31
0.0
  0
LINE
  5
258
  8
0
 10
144.27292981805209
 20
61.36998206873136
 30
0.0
 11
144.27292981805209
 21
72.662437153537041
 31
0.0
  0
ARC
  5
259
  8
0
 10
145.77292981805209
 20
72.662437153537041
 30
0.0
 40
1.5
 50
102.22770419623789
 51
180.0
  0
LINE
  5
25A
  8
2
 10
174.27292981805209
 20
69.86998206873136
 30
0.0
 11
174.27292981805209
 21
72.107800541650363
 31
0.0
  0
LINE
  5
25B
  8
2
 10
174.27292981805209
 20
52.86998206873136
 30
0.0
 11
174.27292981805209
 21
61.36998206873136
 31
0.0
  0
LINE
  5
25C
  8
2
 10
174.27292981805209
 20
52.86998206873136
 30
0.0
 11
174.27292981805209
 21
50.632163595812358
 31
0.0
  0
LINE
  5
25D
  8
2
 10
174.27292981805209
 20
69.86998206873136
 30
0.0
 11
174.27292981805209
 21
61.36998206873136
 31
0.0
  0
LINE
  5
25E
  8
2
 10
144.27292981805209
 20
133.56523675925609
 30
0.0
 11
174.27292981805209
 21
133.56523675925609
 31
0.0
  0
ARC
  5
25F
  8
0
 10
145.77292981805209
 20
130.77278167445041
 30
0.0
 40
1.5
 50
180.0
 51
257.77229580376212
  0
LINE
  5
260
  8
2
 10
174.27292981805209
 20
133.56523675925609
 30
0.0
 11
174.27292981805209
 21
131.32741828633709
 31
0.0
  0
LINE
  5
261
  8
1
 10
48.272929818052141
 20
142.06523675925609
 30
0.0
 11
99.272929818052162
 21
142.06523675925609
 31
0.0
  0
LINE
  5
262
  8
2
 10
174.27292981805209
 20
214.2604914497808
 30
0.0
 11
174.27292981805209
 21
222.7604914497808
 31
0.0
  0
LINE
  5
263
  8
0
 10
144.27292981805209
 20
222.7604914497808
 30
0.0
 11
144.27292981805209
 21
211.46803636497509
 31
0.0
  0
LINE
  5
264
  8
2
 10
144.27292981805209
 20
150.56523675925609
 30
0.0
 11
174.27292981805209
 21
150.56523675925609
 31
0.0
  0
LINE
  5
265
  8
0
 10
144.27292981805209
 20
142.06523675925609
 30
0.0
 11
144.27292981805209
 21
153.3576918440618
 31
0.0
  0
ARC
  5
266
  8
0
 10
145.77292981805209
 20
153.3576918440618
 30
0.0
 40
1.5
 50
102.22770419623789
 51
180.0
  0
LINE
  5
267
  8
2
 10
174.27292981805209
 20
150.56523675925609
 30
0.0
 11
174.27292981805209
 21
142.06523675925609
 31
0.0
  0
LINE
  5
268
  8
2
 10
174.27292981805209
 20
150.56523675925609
 30
0.0
 11
174.27292981805209
 21
152.8030552321751
 31
0.0
  0
LINE
  5
269
  8
2
 10
144.27292981805209
 20
214.2604914497808
 30
0.0
 11
174.27292981805209
 21
214.2604914497808
 31
0.0
  0
ARC
  5
26A
  8
0
 10
145.77292981805209
 20
211.46803636497509
 30
0.0
 40
1.5
 50
180.0
 51
257.77229580376212
  0
LINE
  5
26B
  8
2
 10
174.27292981805209
 20
214.2604914497808
 30
0.0
 11
174.27292981805209
 21
212.0226729768618
 31
0.0
  0
LINE
  5
26C
  8
2
 10
144.27292981805209
 20
231.2604914497808
 30
0.0
 11
174.27292981805209
 21
231.2604914497808
 31
0.0
  0
LINE
  5
26D
  8
0
 10
144.27292981805209
 20
222.7604914497808
 30
0.0
 11
144.27292981805209
 21
234.05294653458651
 31
0.0
  0
ARC
  5
26E
  8
0
 10
145.77292981805209
 20
234.05294653458651
 30
0.0
 40
1.5
 50
102.22770419623789
 51
180.0
  0
LINE
  5
26F
  8
2
 10
174.27292981805209
 20
231.2604914497808
 30
0.0
 11
174.27292981805209
 21
222.7604914497808
 31
0.0
  0
LINE
  5
270
  8
2
 10
174.27292981805209
 20
231.2604914497808
 30
0.0
 11
174.27292981805209
 21
233.4983099226998
 31
0.0
  0
LINE
  5
272
  8
2
 10
205.50750876111991
 20
133.82741828633709
 30
0.0
 11
205.50750876111991
 21
142.06523675925609
 31
0.0
  0
LINE
  5
273
  8
2
 10
202.27292981805221
 20
142.06523675925609
 30
0.0
 11
202.27292981805221
 21
134.56523675925609
 31
0.0
  0
ARC
  5
274
  8
0
 10
210.77292981805221
 20
142.06523675925609
 30
0.0
 40
20.5
 50
263.00989681652032
 51
96.990103183479732
  0
LINE
  5
275
  8
1
 10
301.77292981805221
 20
167.56523675925609
 30
0.0
 11
301.77292981805221
 21
116.56523675925609
 31
0.0
  0
CIRCLE
  5
276
  8
0
 10
301.77292981805221
 20
142.06523675925609
 30
0.0
 40
20.5
  0
ARC
  5
27D
  8
0
 10
210.77292981805221
 20
61.36998206873136
 30
0.0
 40
20.5
 50
263.00989681652032
 51
96.990103183479732
  0
LINE
  5
282
  8
2
 10
205.50750876111991
 20
69.607800541650363
 30
0.0
 11
203.00750876111991
 21
72.107800541650363
 31
0.0
  0
ARC
  5
283
  8
2
 10
201.77292981805221
 20
68.86998206873136
 30
0.0
 40
0.5
 50
0.0
 51
90.0
  0
ARC
  5
284
  8
2
 10
201.77292981805221
 20
53.86998206873136
 30
0.0
 40
0.5
 50
270.0
 51
0.0
  0
LINE
  5
285
  8
2
 10
202.27292981805221
 20
61.36998206873136
 30
0.0
 11
202.27292981805221
 21
53.86998206873136
 31
0.0
  0
LINE
  5
286
  8
2
 10
205.50750876111991
 20
53.132163595812358
 30
0.0
 11
205.50750876111991
 21
61.36998206873136
 31
0.0
  0
LINE
  5
287
  8
2
 10
205.50750876111991
 20
53.132163595812358
 30
0.0
 11
203.00750876111991
 21
50.632163595812358
 31
0.0
  0
LINE
  5
288
  8
2
 10
202.27292981805221
 20
61.36998206873136
 30
0.0
 11
202.27292981805221
 21
68.86998206873136
 31
0.0
  0
LINE
  5
289
  8
2
 10
205.50750876111991
 20
69.607800541650363
 30
0.0
 11
205.50750876111991
 21
61.36998206873136
 31
0.0
  0
ARC
  5
28A
  8
2
 10
201.77292981805221
 20
134.56523675925609
 30
0.0
 40
0.5
 50
270.0
 51
0.0
  0
LINE
  5
28B
  8
2
 10
205.50750876111991
 20
133.82741828633709
 30
0.0
 11
203.00750876111991
 21
131.32741828633709
 31
0.0
  0
LINE
  5
28D
  8
1
 10
327.27292981805221
 20
142.06523675925609
 30
0.0
 11
276.27292981805209
 21
142.06523675925609
 31
0.0
  0
LINE
  5
28E
  8
2
 10
205.50750876111991
 20
214.5226729768618
 30
0.0
 11
205.50750876111991
 21
222.7604914497808
 31
0.0
  0
LINE
  5
28F
  8
2
 10
202.27292981805221
 20
222.7604914497808
 30
0.0
 11
202.27292981805221
 21
215.2604914497808
 31
0.0
  0
ARC
  5
290
  8
0
 10
210.77292981805221
 20
222.7604914497808
 30
0.0
 40
20.5
 50
263.00989681652032
 51
96.990103183479732
  0
ARC
  5
291
  8
2
 10
201.77292981805221
 20
149.56523675925609
 30
0.0
 40
0.5
 50
0.0
 51
90.0
  0
LINE
  5
292
  8
2
 10
205.50750876111991
 20
150.3030552321751
 30
0.0
 11
205.50750876111991
 21
142.06523675925609
 31
0.0
  0
LINE
  5
293
  8
2
 10
202.27292981805221
 20
142.06523675925609
 30
0.0
 11
202.27292981805221
 21
149.56523675925609
 31
0.0
  0
LINE
  5
294
  8
2
 10
205.50750876111991
 20
150.3030552321751
 30
0.0
 11
203.00750876111991
 21
152.8030552321751
 31
0.0
  0
ARC
  5
295
  8
2
 10
201.77292981805221
 20
215.2604914497808
 30
0.0
 40
0.5
 50
270.0
 51
0.0
  0
LINE
  5
296
  8
2
 10
205.50750876111991
 20
214.5226729768618
 30
0.0
 11
203.00750876111991
 21
212.0226729768618
 31
0.0
  0
ARC
  5
297
  8
2
 10
201.77292981805221
 20
230.2604914497808
 30
0.0
 40
0.5
 50
0.0
 51
90.0
  0
LINE
  5
298
  8
2
 10
205.50750876111991
 20
230.9983099226998
 30
0.0
 11
205.50750876111991
 21
222.7604914497808
 31
0.0
  0
LINE
  5
299
  8
2
 10
202.27292981805221
 20
222.7604914497808
 30
0.0
 11
202.27292981805221
 21
230.2604914497808
 31
0.0
  0
LINE
  5
29A
  8
2
 10
205.50750876111991
 20
230.9983099226998
 30
0.0
 11
203.00750876111991
 21
233.4983099226998
 31
0.0
  0
TEXT
  5
3BE
  8
0
 62
     3
 10
0.0
 20
0.0
 30
0.0
 40
10.0
  1
OG90
  7
STANDARD1
  0
ENDSEC
  0
EOF
