  0
SECTION
  2
HEADER
  9
$ACADVER
  1
AC1009
  9
$INSBASE
 10
0.0
 20
0.0
 30
0.0
  9
$EXTMIN
 10
0.0
 20
-2.960436562073669
 30
0.0
  9
$EXTMAX
 10
638.0784625994886
 20
464.4889254167615
 30
0.0
  9
$LIMMIN
 10
0.0
 20
0.0
  9
$LIMMAX
 10
750.0
 20
540.0
  9
$ORTHOMODE
 70
     1
  9
$REGENMODE
 70
     1
  9
$FILLMODE
 70
     1
  9
$QTEXTMODE
 70
     0
  9
$MIRRTEXT
 70
     0
  9
$DRAGMODE
 70
     2
  9
$LTSCALE
 40
10.0
  9
$OSMODE
 70
  3071
  9
$ATTMODE
 70
     1
  9
$TEXTSIZE
 40
0.2
  9
$TRACEWID
 40
0.05
  9
$TEXTSTYLE
  7
STANDARD
  9
$CLAYER
  8
0
  9
$CELTYPE
  6
BYLAYER
  9
$CECOLOR
 62
   256
  9
$DIMSCALE
 40
2.0
  9
$DIMASZ
 40
3.0
  9
$DIMEXO
 40
2.0
  9
$DIMDLI
 40
0.38
  9
$DIMRND
 40
0.0
  9
$DIMDLE
 40
0.0
  9
$DIMEXE
 40
2.0
  9
$DIMTP
 40
0.0
  9
$DIMTM
 40
0.0
  9
$DIMTXT
 40
3.2000000000000002
  9
$DIMCEN
 40
0.0
  9
$DIMTSZ
 40
0.0
  9
$DIMTOL
 70
     0
  9
$DIMLIM
 70
     0
  9
$DIMTIH
 70
     0
  9
$DIMTOH
 70
     0
  9
$DIMSE1
 70
     0
  9
$DIMSE2
 70
     0
  9
$DIMTAD
 70
     1
  9
$DIMZIN
 70
     0
  9
$DIMBLK
  1

  9
$DIMASO
 70
     1
  9
$DIMSHO
 70
     0
  9
$DIMPOST
  1

  9
$DIMAPOST
  1

  9
$DIMALT
 70
     0
  9
$DIMALTD
 70
     2
  9
$DIMALTF
 40
25.399999999999999
  9
$DIMLFAC
 40
1.0
  9
$DIMTOFL
 70
     0
  9
$DIMTVP
 40
1.6000000000000001
  9
$DIMTIX
 70
     1
  9
$DIMSOXD
 70
     0
  9
$DIMSAH
 70
     0
  9
$DIMBLK1
  1

  9
$DIMBLK2
  1

  9
$DIMSTYLE
  2
STANDARD
  9
$DIMCLRD
 70
     0
  9
$DIMCLRE
 70
     0
  9
$DIMCLRT
 70
     0
  9
$DIMTFAC
 40
1.0
  9
$DIMGAP
 40
0.09
  9
$LUNITS
 70
     2
  9
$LUPREC
 70
     4
  9
$SKETCHINC
 40
0.1
  9
$FILLETRAD
 40
2.0
  9
$AUNITS
 70
     0
  9
$AUPREC
 70
     0
  9
$MENU
  1
E:\r13\win\SUPPORT\ACAD
  9
$ELEVATION
 40
0.0
  9
$PELEVATION
 40
0.0
  9
$THICKNESS
 40
0.0
  9
$LIMCHECK
 70
     0
  9
$BLIPMODE
 70
     0
  9
$CHAMFERA
 40
0.0
  9
$CHAMFERB
 40
0.0
  9
$SKPOLY
 70
     0
  9
$TDCREATE
 40
2449840.6075231479
  9
$TDUPDATE
 40
2456597.5019403361
  9
$TDINDWG
 40
0.0298522454
  9
$TDUSRTIMER
 40
0.0298522454
  9
$USRTIMER
 70
     1
  9
$ANGBASE
 50
0.0
  9
$ANGDIR
 70
     0
  9
$PDMODE
 70
     0
  9
$PDSIZE
 40
0.0
  9
$PLINEWID
 40
0.0
  9
$COORDS
 70
     1
  9
$SPLFRAME
 70
     0
  9
$SPLINETYPE
 70
     6
  9
$SPLINESEGS
 70
     8
  9
$ATTDIA
 70
     0
  9
$ATTREQ
 70
     1
  9
$HANDLING
 70
     1
  9
$HANDSEED
  5
60E
  9
$SURFTAB1
 70
     6
  9
$SURFTAB2
 70
     6
  9
$SURFTYPE
 70
     6
  9
$SURFU
 70
     6
  9
$SURFV
 70
     6
  9
$UCSNAME
  2

  9
$UCSORG
 10
0.0
 20
0.0
 30
0.0
  9
$UCSXDIR
 10
1.0
 20
0.0
 30
0.0
  9
$UCSYDIR
 10
0.0
 20
1.0
 30
0.0
  9
$PUCSNAME
  2

  9
$PUCSORG
 10
0.0
 20
0.0
 30
0.0
  9
$PUCSXDIR
 10
1.0
 20
0.0
 30
0.0
  9
$PUCSYDIR
 10
0.0
 20
1.0
 30
0.0
  9
$USERI1
 70
     0
  9
$USERI2
 70
     1
  9
$USERI3
 70
     1
  9
$USERI4
 70
     0
  9
$USERI5
 70
     0
  9
$USERR1
 40
0.0
  9
$USERR2
 40
0.0
  9
$USERR3
 40
0.0
  9
$USERR4
 40
0.0
  9
$USERR5
 40
0.0
  9
$WORLDVIEW
 70
     1
  9
$SHADEDGE
 70
     3
  9
$SHADEDIF
 70
    70
  9
$TILEMODE
 70
     1
  9
$MAXACTVP
 70
    16
  9
$PLIMCHECK
 70
     0
  9
$PEXTMIN
 10
1.0000000000000000E+020
 20
1.0000000000000000E+020
 30
1.0000000000000000E+020
  9
$PEXTMAX
 10
-1.0000000000000000E+020
 20
-1.0000000000000000E+020
 30
-1.0000000000000000E+020
  9
$PLIMMIN
 10
0.0
 20
0.0
  9
$PLIMMAX
 10
12.0
 20
9.0
  9
$UNITMODE
 70
     0
  9
$VISRETAIN
 70
     0
  9
$PLINEGEN
 70
     0
  9
$PSLTSCALE
 70
     0
  0
ENDSEC
  0
SECTION
  2
TABLES
  0
TABLE
  2
VPORT
 70
     1
  0
VPORT
  2
*ACTIVE
 70
     0
 10
0.0
 20
0.0
 11
1.0
 21
1.0
 12
374.98855678130462
 22
326.8875087595369
 13
0.0
 23
0.0
 14
20.0
 24
20.0
 15
20.0
 25
20.0
 16
0.0
 26
0.0
 36
1.0
 17
0.0
 27
0.0
 37
0.0
 40
665.98177264116305
 41
1.9089595375722539
 42
50.0
 43
0.0
 44
0.0
 50
0.0
 51
0.0
 71
     0
 72
   500
 73
     1
 74
     0
 75
     0
 76
     0
 77
     0
 78
     2
  0
ENDTAB
  0
TABLE
  2
LTYPE
 70
     4
  0
LTYPE
  2
CONTINUOUS
 70
     0
  3
Solid Line
 72
    65
 73
     0
 40
0.0
  0
LTYPE
  2
CENTER
 70
     0
  3
____ _ ____ _ ____ _ ____ _ ____ _ ____ _ ____
 72
    65
 73
     4
 40
2.0
 49
1.25
 49
-0.25
 49
0.25
 49
-0.25
  0
LTYPE
  2
HIDDEN
 70
     0
  3
_ _ _ _ _ _ _ _ _ _ _ _ _ _ _ _ _ _ _ _ _ _ _
 72
    65
 73
     2
 40
0.375
 49
0.25
 49
-0.125
  0
LTYPE
  2
PHANTOM2
 70
     0
  3
___ _ _ ___ _ _ ___ _ _ ___ _ _
 72
    65
 73
     6
 40
1.25
 49
0.625
 49
-0.125
 49
0.125
 49
-0.125
 49
0.125
 49
-0.125
  0
ENDTAB
  0
TABLE
  2
LAYER
 70
     5
  0
LAYER
  2
0
 70
     0
 62
     7
  6
CONTINUOUS
  0
LAYER
  2
1
 70
     0
 62
     1
  6
CENTER
  0
LAYER
  2
2
 70
     0
 62
     2
  6
HIDDEN
  0
LAYER
  2
3
 70
     0
 62
     3
  6
CONTINUOUS
  0
LAYER
  2
DEFPOINTS
 70
     0
 62
     7
  6
CONTINUOUS
  0
ENDTAB
  0
TABLE
  2
STYLE
 70
     2
  0
STYLE
  2
STANDARD
 70
     0
 40
0.0
 41
1.0
 50
0.0
 71
     0
 42
0.2
  3
simplex.shx
  4
bigfont.shx
  0
STYLE
  2
STANDARD1
 70
     0
 40
0.0
 41
1.0
 50
0.0
 71
     0
 42
3.0
  3
txt
  4

  0
ENDTAB
  0
TABLE
  2
VIEW
 70
     1
  0
VIEW
  2
ALL
 70
     0
 40
540.0
 10
441.98319327731087
 20
270.0
 41
0.0
 11
0.0
 21
0.0
 31
1.0
 12
0.0
 22
0.0
 32
0.0
 42
0.0
 43
0.0
 44
0.0
 50
0.0
 71
     0
  0
ENDTAB
  0
TABLE
  2
UCS
 70
     0
  0
ENDTAB
  0
TABLE
  2
APPID
 70
    28
  0
APPID
  2
ACAD
 70
     0
  0
APPID
  2
DCO15
 70
     0
  0
APPID
  2
GENIUS_GENOREF_13
 70
     0
  0
APPID
  2
GENIUS_GENOENT_13
 70
     0
  0
APPID
  2
GENIUS_GENBH_13
 70
     0
  0
APPID
  2
GENIUS_GENOBJ_13
 70
     0
  0
APPID
  2
GENIUS_GENODEF_13
 70
     0
  0
APPID
  2
GENIUS_GENOLIS_13
 70
     0
  0
APPID
  2
GENIUS_GENOBJ-NBEHI-BHF_13
 70
     0
  0
APPID
  2
GENIUS_GENOBJ-NBEHI-BHB_13
 70
     0
  0
APPID
  2
GENIUS_GENOBJ-F-PART_13
 70
     0
  0
APPID
  2
GENIUS_GEFSTDP_13
 70
     0
  0
APPID
  2
GENIUS_GENOBJ-N-RSSYM_13
 70
     0
  0
APPID
  2
GENIUS_GENSYMENT_13
 70
     0
  0
APPID
  2
GENIUS_GENOBJ-N-TIT_13
 70
     0
  0
APPID
  2
GENIUS_GENTITLE_13
 70
     0
  0
APPID
  2
GENIUS_GENZVEED_13
 70
     0
  0
APPID
  2
GENIUS_GENOBJ-N-LEADER_13
 70
     0
  0
APPID
  2
GENIUS_GENOBJ-N-FIL_13
 70
     0
  0
APPID
  2
GENIUS_GENOBJ-N-SEC_13
 70
     0
  0
APPID
  2
GENIUS_GENOBJ-N-CRS_13
 70
     0
  0
APPID
  2
GENIUS_GENOBJ-N-ZOO_13
 70
     0
  0
APPID
  2
GENIUS_GENZOO_13
 70
     0
  0
APPID
  2
GENIUS_GENOBJ-F-TOL_13
 70
     0
  0
APPID
  2
GENIUS_GENFIL_13
 70
     0
  0
APPID
  2
GENIUS_GENOBJ-N-CHA_13
 70
     0
  0
APPID
  2
ACAD_MLEADERVER
 70
     0
  0
APPID
  2
ACAD_NAV_VCDISPLAY
 70
     0
  0
ENDTAB
  0
TABLE
  2
DIMSTYLE
 70
     1
  0
DIMSTYLE
  2
STANDARD
 70
     0
  3

  4

  5

  6

  7

 40
1.0
 41
0.18
 42
0.0625
 43
0.38
 44
0.18
 45
0.0
 46
0.0
 47
0.0
 48
0.0
140
0.18
141
0.09
142
0.0
143
25.399999999999999
144
1.0
145
0.0
146
1.0
147
0.09
 71
     0
 72
     0
 73
     1
 74
     1
 75
     0
 76
     0
 77
     0
 78
     0
170
     0
171
     2
172
     0
173
     0
174
     0
175
     0
176
     0
177
     0
178
     0
  0
ENDTAB
  0
ENDSEC
  0
SECTION
  2
BLOCKS
  0
BLOCK
  8
0
  2
$MODEL_SPACE
 70
     0
 10
0.0
 20
0.0
 30
0.0
  3
$MODEL_SPACE
  1

  0
ENDBLK
  5
144
  8
0
  0
BLOCK
 67
     1
  8
0
  2
$PAPER_SPACE
 70
     0
 10
0.0
 20
0.0
 30
0.0
  3
$PAPER_SPACE
  1

  0
ENDBLK
  5
142
 67
     1
  8
0
  0
ENDSEC
  0
SECTION
  2
ENTITIES
  0
CIRCLE
  5
325
  8
3
 10
482.09702606617969
 20
117.98892541676111
 30
0.0
 40
6.0
  0
CIRCLE
  5
326
  8
0
 10
482.09702606617969
 20
117.98892541676111
 30
0.0
 40
5.052999999999999
  0
CIRCLE
  5
327
  8
0
 10
232.0970260661795
 20
117.98892541676111
 30
0.0
 40
8.5
  0
CIRCLE
  5
328
  8
0
 10
232.0970260661795
 20
117.98892541676111
 30
0.0
 40
24.0
  0
ARC
  5
329
  8
0
 10
482.09702606617952
 20
117.98892541676111
 30
0.0
 40
12.5
 50
242.3439331042166
 51
117.6560668957833
  0
ARC
  5
32A
  8
0
 10
232.0970260661795
 20
117.98892541676111
 30
0.0
 40
26.0
 50
53.782255983719317
 51
306.21774401628062
  0
LINE
  5
32B
  8
0
 10
471.27538028920412
 20
108.0524076641818
 30
0.0
 11
255.7551335528164
 21
99.900334973903227
 31
0.0
  0
ARC
  5
32C
  8
0
 10
256.32210445180789
 20
84.911054003833726
 30
0.0
 40
15.0
 50
92.166185319299856
 51
126.217745602294
  0
ARC
  5
32D
  8
0
 10
471.65336088853178
 20
98.05955368413521
 30
0.0
 40
10.0
 50
62.343940388183093
 51
92.166185319299856
  0
ARC
  5
32E
  8
0
 10
471.65336088853178
 20
137.91829714938649
 30
0.0
 40
10.0
 50
267.83381468070007
 51
297.65605961181689
  0
ARC
  5
32F
  8
0
 10
256.32210445180789
 20
151.06679682968851
 30
0.0
 40
15.0
 50
233.782254397706
 51
267.83381468070007
  0
LINE
  5
330
  8
0
 10
471.27538028920412
 20
127.9254431693402
 30
0.0
 11
255.7551335528164
 21
136.07751585961839
 31
0.0
  0
ARC
  5
332
  8
2
 10
482.09702606617952
 20
117.98892541676111
 30
0.0
 40
12.5
 50
117.6560668957833
 51
242.3439331042166
  0
LINE
  5
333
  8
1
 10
482.09702606617969
 20
140.48892541676059
 30
0.0
 11
482.09702606617952
 21
95.488925416760594
 31
0.0
  0
LINE
  5
334
  8
1
 10
232.0970260661795
 20
153.98892541676099
 30
0.0
 11
232.0970260661795
 21
81.988925416761049
 31
0.0
  0
LINE
  5
335
  8
1
 10
504.59702606617952
 20
117.98892541676101
 30
0.0
 11
196.0970260661795
 21
117.98892541676101
 31
0.0
  0
ARC
  5
336
  8
0
 10
211.4401718166873
 20
275.98892541676122
 30
0.0
 40
5.0
 50
89.999999999999986
 51
160.52877936550729
  0
ARC
  5
337
  8
0
 10
217.09702606617969
 20
273.98892541676111
 30
0.0
 40
11.0
 50
160.52877936550729
 51
208.9550243718609
  0
LINE
  5
338
  8
2
 10
487.15002606617958
 20
322.98892541676099
 30
0.0
 11
489.15002606617958
 21
324.98892541676099
 31
0.0
  0
LINE
  5
339
  8
2
 10
477.04402606617941
 20
322.98892541676099
 30
0.0
 11
475.04402606617941
 21
324.98892541676099
 31
0.0
  0
LINE
  5
33A
  8
2
 10
487.15002606617958
 20
322.98892541676099
 30
0.0
 11
487.15002606617958
 21
306.98892541676088
 31
0.0
  0
LINE
  5
33B
  8
2
 10
477.04402606617941
 20
322.98892541676099
 30
0.0
 11
477.04402606617958
 21
306.98892541676088
 31
0.0
  0
LINE
  5
33C
  8
2
 10
488.09702606617952
 20
323.93592541676082
 30
0.0
 11
488.09702606617952
 21
306.98892541676088
 31
0.0
  0
LINE
  5
33D
  8
2
 10
476.09702606617952
 20
323.93592541676088
 30
0.0
 11
476.09702606617952
 21
306.98892541676088
 31
0.0
  0
ARC
  5
33E
  8
0
 10
466.59702606617969
 20
319.98892541676111
 30
0.0
 40
3.0
 50
270.0
 51
0.0
  0
LINE
  5
33F
  8
2
 10
240.59702606617969
 20
280.98892541676111
 30
0.0
 11
240.5970260661795
 21
233.98892541676099
 31
0.0
  0
LINE
  5
340
  8
2
 10
223.59702606617969
 20
280.98892541676111
 30
0.0
 11
223.5970260661795
 21
233.98892541676099
 31
0.0
  0
ARC
  5
341
  8
0
 10
492.59702606617952
 20
308.98892541676111
 30
0.0
 40
2.0
 50
270.0
 51
0.0
  0
LINE
  5
342
  8
0
 10
494.59702606617952
 20
324.98892541676088
 30
0.0
 11
494.59702606617952
 21
308.98892541676088
 31
0.0
  0
LINE
  5
343
  8
0
 10
469.59702606617952
 20
324.98892541676088
 30
0.0
 11
469.59702606617952
 21
319.98892541676088
 31
0.0
  0
LINE
  5
344
  8
0
 10
492.59702606617952
 20
306.98892541676088
 30
0.0
 11
469.59702606617952
 21
306.98892541676088
 31
0.0
  0
ARC
  5
345
  8
0
 10
254.59702606617969
 20
235.48892541676111
 30
0.0
 40
1.5
 50
270.0
 51
0.0
  0
ARC
  5
346
  8
0
 10
209.59702606617969
 20
235.48892541676119
 30
0.0
 40
1.5
 50
180.0
 51
270.0
  0
LINE
  5
347
  8
0
 10
254.5970260661795
 20
233.98892541676099
 30
0.0
 11
209.5970260661795
 21
233.98892541676099
 31
0.0
  0
LINE
  5
348
  8
0
 10
256.09702606617981
 20
262.78932382471658
 30
0.0
 11
256.09702606617952
 21
235.48892541676099
 31
0.0
  0
LINE
  5
349
  8
0
 10
208.09702606617981
 20
266.24295872434641
 30
0.0
 11
208.09702606617981
 21
235.48892541676099
 31
0.0
  0
LINE
  5
34A
  8
0
 10
473.29499126393353
 20
316.98892541676088
 30
0.0
 11
329.40161842653038
 21
316.98892541676099
 31
0.0
  0
LINE
  5
34B
  8
1
 10
232.09702606617969
 20
290.98892541676088
 30
0.0
 11
232.0970260661795
 21
223.98892541676111
 31
0.0
  0
LINE
  5
34C
  8
1
 10
482.09702606617952
 20
335.98892541676099
 30
0.0
 11
482.09702606617952
 21
296.98892541676139
 31
0.0
  0
LINE
  5
3F9
  8
0
 10
252.09702606617981
 20
280.98892541676111
 30
0.0
 11
211.4401718166873
 21
280.98892541676111
 31
0.0
  0
ARC
  5
3FA
  8
0
 10
252.09702606617981
 20
312.98892541676111
 30
0.0
 40
32.0
 50
270.0
 51
319.94187900287579
  0
ARC
  5
420
  8
0
 10
203.09702606617969
 20
266.24295872434652
 30
0.0
 40
5.0
 50
0.0
 51
28.955024371860091
  0
ARC
  5
421
  8
0
 10
329.40161842653038
 20
247.98892541676111
 30
0.0
 40
69.0
 50
89.999999999999986
 51
139.94187900287579
  0
ARC
  5
422
  8
0
 10
252.09702606617981
 20
312.98892541676111
 30
0.0
 40
46.0
 50
280.16424862172272
 51
319.94187900287579
  0
ARC
  5
423
  8
0
 10
329.40161842653038
 20
247.98892541676111
 30
0.0
 40
55.0
 50
89.999999999999986
 51
139.94187900287579
  0
ARC
  5
424
  8
0
 10
261.09702606617969
 20
262.78932382471658
 30
0.0
 40
5.0
 50
100.16424862172271
 51
180.0
  0
LINE
  5
42B
  8
0
 10
329.40161842653038
 20
302.98892541676088
 30
0.0
 11
469.59702606617952
 21
306.98892541676088
 31
0.0
  0
LINE
  5
431
  8
2
 10
487.15002606617958
 20
322.98892541676099
 30
0.0
 11
477.04402606617941
 21
322.98892541676099
 31
0.0
  0
LINE
  5
432
  8
0
 10
494.59702606617969
 20
324.98892541676088
 30
0.0
 11
469.59702606617952
 21
324.98892541676088
 31
0.0
  0
LINE
  5
43C
  8
0
 10
256.09702606617981
 20
266.98892541676111
 30
0.0
 11
208.09702606617981
 21
266.98892541676099
 31
0.0
  0
ARC
  5
43D
  8
0
 10
473.29499126393353
 20
319.98892541676088
 30
0.0
 40
3.0
 50
270.0
 51
359.9999999999996
  0
TEXT
  5
43E
  8
0
 10
357.47403971445289
 20
111.9382872831756
 30
0.0
 40
12.0
  1
10
 41
0.75
 72
     1
 11
363.90261114302439
 21
111.9382872831756
 31
0.0
  0
LINE
  5
43F
  8
0
 10
354.9753975271874
 20
117.9889254167604
 30
0.0
 11
350.57539752718549
 21
117.9889254167604
 31
0.0
  0
TEXT
  5
440
  8
0
 10
331.57359891263229
 20
111.59984626750919
 30
0.0
 40
12.0
  1
OC
 41
0.75
 72
     1
 11
339.50217034120368
 21
111.59984626750919
 31
0.0
  0
LINE
  5
444
  8
1
 10
504.59702606617952
 20
428.4889254167615
 30
0.0
 11
196.0970260661795
 21
428.4889254167615
 31
0.0
  0
LINE
  5
445
  8
1
 10
232.0970260661795
 20
464.4889254167615
 30
0.0
 11
232.0970260661795
 21
392.4889254167615
 31
0.0
  0
LINE
  5
446
  8
1
 10
482.09702606617969
 20
450.98892541676099
 30
0.0
 11
482.09702606617952
 21
405.98892541676099
 31
0.0
  0
LINE
  5
448
  8
0
 10
471.27538028920412
 20
438.42544316934072
 30
0.0
 11
255.7551335528164
 21
446.57751585961881
 31
0.0
  0
ARC
  5
449
  8
0
 10
256.32210445180789
 20
461.56679682968888
 30
0.0
 40
15.0
 50
233.782254397706
 51
267.83381468070007
  0
ARC
  5
44A
  8
0
 10
471.65336088853178
 20
448.41829714938689
 30
0.0
 40
10.0
 50
267.83381468070007
 51
297.65605961181689
  0
ARC
  5
44B
  8
0
 10
471.65336088853178
 20
408.55955368413549
 30
0.0
 40
10.0
 50
62.343940388183093
 51
92.166185319299856
  0
ARC
  5
44C
  8
0
 10
256.32210445180789
 20
395.41105400383418
 30
0.0
 40
15.0
 50
92.166185319299856
 51
126.217745602294
  0
LINE
  5
44D
  8
0
 10
471.27538028920412
 20
418.55240766418223
 30
0.0
 11
255.7551335528164
 21
410.40033497390363
 31
0.0
  0
ARC
  5
44E
  8
0
 10
232.0970260661795
 20
428.48892541676162
 30
0.0
 40
26.0
 50
53.782255983719317
 51
306.21774401628062
  0
CIRCLE
  5
450
  8
2
 10
232.0970260661795
 20
428.48892541676162
 30
0.0
 40
24.0
  0
CIRCLE
  5
451
  8
0
 10
232.0970260661795
 20
428.48892541676162
 30
0.0
 40
8.5
  0
CIRCLE
  5
452
  8
0
 10
482.09702606617969
 20
428.4889254167615
 30
0.0
 40
5.052999999999999
  0
CIRCLE
  5
453
  8
3
 10
482.09702606617969
 20
428.4889254167615
 30
0.0
 40
6.0
  0
CIRCLE
  5
455
  8
0
 10
482.09702606617969
 20
428.4889254167615
 30
0.0
 40
12.499999999999771
  0
LINE
  5
456
  8
0
 10
126.09702606617979
 20
266.98892541676099
 30
0.0
 11
78.097026066179865
 21
266.98892541676099
 31
0.0
  0
ARC
  5
45A
  8
0
 10
73.097026066179865
 20
266.24295872434641
 30
0.0
 40
5.0
 50
0.0
 51
28.955024371860091
  0
LINE
  5
45C
  8
0
 10
122.7538803156723
 20
280.98892541676088
 30
0.0
 11
81.440171816687425
 21
280.98892541676088
 31
0.0
  0
LINE
  5
45D
  8
1
 10
102.09702606617969
 20
334.98892541676071
 30
0.0
 11
102.09702606617959
 21
223.98892541676091
 31
0.0
  0
LINE
  5
45E
  8
0
 10
78.097026066179865
 20
266.24295872434629
 30
0.0
 11
78.097026066179865
 21
235.48892541676091
 31
0.0
  0
LINE
  5
45F
  8
0
 10
126.09702606617979
 20
266.24295872434652
 30
0.0
 11
126.09702606617959
 21
235.48892541676091
 31
0.0
  0
LINE
  5
460
  8
0
 10
124.59702606617959
 20
233.98892541676091
 30
0.0
 11
79.597026066179623
 21
233.98892541676091
 31
0.0
  0
ARC
  5
461
  8
0
 10
79.597026066179865
 20
235.48892541676099
 30
0.0
 40
1.5
 50
180.0
 51
270.0
  0
ARC
  5
462
  8
0
 10
124.59702606617979
 20
235.48892541676099
 30
0.0
 40
1.5
 50
270.0
 51
0.0
  0
LINE
  5
463
  8
2
 10
93.597026066179865
 20
280.98892541676088
 30
0.0
 11
93.597026066179623
 21
233.98892541676091
 31
0.0
  0
LINE
  5
464
  8
2
 10
110.59702606617979
 20
280.98892541676088
 30
0.0
 11
110.59702606617959
 21
233.98892541676091
 31
0.0
  0
ARC
  5
465
  8
0
 10
87.097026066179865
 20
273.98892541676099
 30
0.0
 40
11.0
 50
160.52877936550729
 51
208.9550243718609
  0
ARC
  5
466
  8
0
 10
81.440171816687425
 20
275.98892541676099
 30
0.0
 40
5.0
 50
89.999999999999986
 51
160.52877936550729
  0
ARC
  5
467
  8
0
 10
122.7538803156723
 20
275.98892541676099
 30
0.0
 40
5.0
 50
19.471220634492632
 51
90.000000000000028
  0
ARC
  5
468
  8
0
 10
117.09702606617979
 20
273.98892541676099
 30
0.0
 40
11.0
 50
331.04497562813913
 51
19.471220634492632
  0
ARC
  5
469
  8
0
 10
131.09702606617989
 20
266.24295872434641
 30
0.0
 40
5.0
 50
151.04497562813989
 51
180.0
  0
LINE
  5
46A
  8
0
 10
114.59702606617959
 20
324.98892541676082
 30
0.0
 11
89.597026066180092
 21
324.98892541676082
 31
0.0
  0
LINE
  5
46B
  8
2
 10
112.59702606617969
 20
306.98892541676099
 30
0.0
 11
91.597026066179964
 21
306.98892541676099
 31
0.0
  0
LINE
  5
47B
  8
0
 10
114.5970260661795
 20
324.98892541676071
 30
0.0
 11
114.59702606617969
 21
308.98892541676099
 31
0.0
  0
ARC
  5
47C
  8
2
 10
112.59702606617969
 20
308.98892541676099
 30
0.0
 40
2.0
 50
270.0
 51
281.66779648409039
  0
ARC
  5
47D
  8
0
 10
91.597026066179964
 20
308.98892541676099
 30
0.0
 40
2.0
 50
180.0
 51
258.33220351589659
  0
LINE
  5
47E
  8
0
 10
89.597026066180092
 20
324.98892541676071
 30
0.0
 11
89.597026066179978
 21
308.98892541676099
 31
0.0
  0
LINE
  5
484
  8
0
 10
112.0335438187591
 20
310.53894500504742
 30
0.0
 11
120.1856165090374
 21
280.98892541676088
 31
0.0
  0
ARC
  5
486
  8
0
 10
102.09702606617969
 20
306.11008366834602
 30
0.0
 40
10.8788417484148
 50
24.023280375141489
 51
155.9767196248585
  0
LINE
  5
487
  8
0
 10
92.160508313600417
 20
310.53894500504742
 30
0.0
 11
84.008435623322029
 21
280.98892541676088
 31
0.0
  0
LINE
  5
488
  8
0
 10
601.19255229829173
 20
307.03025214868131
 30
0.0
 11
593.24661755871568
 21
278.22745117737429
 31
0.0
  0
LINE
  5
48A
  8
0
 10
623.00149983406675
 20
307.0302521486812
 30
0.0
 11
630.94743457364325
 21
278.22745117737429
 31
0.0
  0
LINE
  5
48B
  8
0
 10
599.59702606617975
 20
324.98892541676088
 30
0.0
 11
599.59702606617952
 21
308.98892541676122
 31
0.0
  0
ARC
  5
48C
  8
0
 10
601.59702606617952
 20
308.98892541676122
 30
0.0
 40
2.0
 50
180.0
 51
270.0
  0
ARC
  5
48D
  8
0
 10
622.59702606617952
 20
308.98892541676122
 30
0.0
 40
2.0
 50
270.0
 51
0.0
  0
LINE
  5
48E
  8
0
 10
624.59702606617896
 20
324.98892541676088
 30
0.0
 11
624.59702606617952
 21
308.98892541676122
 31
0.0
  0
LINE
  5
49E
  8
0
 10
622.59702606617952
 20
306.98892541676122
 30
0.0
 11
601.59702606617952
 21
306.98892541676122
 31
0.0
  0
LINE
  5
49F
  8
0
 10
624.5970260661793
 20
324.98892541676088
 30
0.0
 11
599.59702606617975
 21
324.98892541676088
 31
0.0
  0
ARC
  5
4A0
  8
0
 10
641.09702606617952
 20
266.24295872434658
 30
0.0
 40
5.0
 50
151.04497562813989
 51
180.0
  0
ARC
  5
4A1
  8
0
 10
627.09702606617952
 20
273.98892541676122
 30
0.0
 40
11.0
 50
331.04497562813913
 51
19.471220634492632
  0
ARC
  5
4A2
  8
0
 10
632.75388031567195
 20
275.98892541676122
 30
0.0
 40
5.0
 50
19.471220634492632
 51
90.000000000000028
  0
ARC
  5
4A3
  8
0
 10
591.44017181668698
 20
275.98892541676122
 30
0.0
 40
5.0
 50
89.999999999999986
 51
160.52877936550729
  0
ARC
  5
4A4
  8
0
 10
597.09702606617952
 20
273.98892541676122
 30
0.0
 40
11.0
 50
160.52877936550729
 51
208.9550243718609
  0
LINE
  5
4A5
  8
2
 10
620.59702606617952
 20
280.98892541676111
 30
0.0
 11
620.5970260661793
 21
233.98892541676111
 31
0.0
  0
LINE
  5
4A6
  8
2
 10
603.59702606617952
 20
280.98892541676111
 30
0.0
 11
603.5970260661793
 21
233.98892541676111
 31
0.0
  0
ARC
  5
4A7
  8
0
 10
634.59702606617952
 20
235.48892541676119
 30
0.0
 40
1.5
 50
270.0
 51
0.0
  0
ARC
  5
4A8
  8
0
 10
589.59702606617952
 20
235.48892541676119
 30
0.0
 40
1.5
 50
180.0
 51
270.0
  0
LINE
  5
4A9
  8
0
 10
634.59702606617918
 20
233.98892541676111
 30
0.0
 11
589.59702606617918
 21
233.98892541676111
 31
0.0
  0
LINE
  5
4AA
  8
0
 10
636.09702606617952
 20
266.24295872434658
 30
0.0
 11
636.0970260661793
 21
235.48892541676111
 31
0.0
  0
LINE
  5
4AB
  8
0
 10
588.09702606617952
 20
266.24295872434652
 30
0.0
 11
588.09702606617952
 21
235.48892541676111
 31
0.0
  0
LINE
  5
4AC
  8
1
 10
612.09702606617952
 20
334.98892541676088
 30
0.0
 11
612.0970260661793
 21
223.98892541676111
 31
0.0
  0
LINE
  5
4AD
  8
0
 10
632.75388031567195
 20
280.98892541676111
 30
0.0
 11
630.18561650903735
 21
280.98892541676111
 31
0.0
  0
ARC
  5
4AE
  8
0
 10
583.09702606617952
 20
266.24295872434658
 30
0.0
 40
5.0
 50
0.0
 51
28.955024371860091
  0
LINE
  5
4AF
  8
0
 10
636.09702606617952
 20
266.98892541676122
 30
0.0
 11
588.09702606617952
 21
266.98892541676111
 31
0.0
  0
ARC
  5
4B0
  8
0
 10
112.5970260661795
 20
308.98892541676099
 30
0.0
 40
2.0
 50
281.66779648410341
 51
0.000000000000007
  0
ARC
  5
4B1
  8
2
 10
91.597026066179737
 20
308.98892541676099
 30
0.0
 40
2.0
 50
258.33220351590973
 51
270.0
  0
ARC
  5
4C0
  8
0
 10
621.01793505103137
 20
277.4812758675011
 30
0.0
 40
10.004389153175451
 50
282.4156477088211
 51
1.5341274011425841
  0
ARC
  5
4C6
  8
0
 10
629.01945507674145
 20
277.69557237583399
 30
0.0
 40
2.0
 50
1.534127401142384
 51
15.42277961029926
  0
ARC
  5
4C7
  8
0
 10
595.17459705561782
 20
277.69557237583399
 30
0.0
 40
2.0
 50
164.5772203897007
 51
178.4658725988576
  0
ARC
  5
4C8
  8
0
 10
603.1761170813279
 20
277.4812758675011
 30
0.0
 40
10.004389153175451
 50
178.4658725988574
 51
257.58435229117902
  0
LINE
  5
4C9
  8
0
 10
594.00843562332147
 20
280.98892541676111
 30
0.0
 11
591.44017181668698
 21
280.98892541676111
 31
0.0
  0
LINE
  5
4CA
  8
2
 10
630.18561650903769
 20
280.98892541676111
 30
0.0
 11
594.00843562332159
 21
280.98892541676122
 31
0.0
  0
TEXT
  5
580
  8
0
 62
     3
 10
0.0
 20
0.0
 30
0.0
 40
10.0
  1
OC10
  7
STANDARD1
  0
ENDSEC
  0
EOF
