  0
SECTION
  2
HEADER
  9
$ACADVER
  1
AC1009
  9
$INSBASE
 10
0.0
 20
0.0
 30
0.0
  9
$EXTMIN
 10
0.0
 20
-2.960436562073669
 30
0.0
  9
$EXTMAX
 10
551.89437139173992
 20
593.63953110478099
 30
0.0
  9
$LIMMIN
 10
0.0
 20
0.0
  9
$LIMMAX
 10
770.0
 20
540.0
  9
$ORTHOMODE
 70
     1
  9
$REGENMODE
 70
     1
  9
$FILLMODE
 70
     1
  9
$QTEXTMODE
 70
     0
  9
$MIRRTEXT
 70
     1
  9
$DRAGMODE
 70
     2
  9
$LTSCALE
 40
10.0
  9
$OSMODE
 70
    37
  9
$ATTMODE
 70
     1
  9
$TEXTSIZE
 40
4.0
  9
$TRACEWID
 40
0.05
  9
$TEXTSTYLE
  7
STANDARD
  9
$CLAYER
  8
0
  9
$CELTYPE
  6
BYLAYER
  9
$CECOLOR
 62
   256
  9
$DIMSCALE
 40
2.0
  9
$DIMASZ
 40
3.0
  9
$DIMEXO
 40
2.0
  9
$DIMDLI
 40
0.38
  9
$DIMRND
 40
0.0
  9
$DIMDLE
 40
0.0
  9
$DIMEXE
 40
2.0
  9
$DIMTP
 40
0.0
  9
$DIMTM
 40
0.0
  9
$DIMTXT
 40
3.0
  9
$DIMCEN
 40
0.0
  9
$DIMTSZ
 40
0.0
  9
$DIMTOL
 70
     0
  9
$DIMLIM
 70
     0
  9
$DIMTIH
 70
     0
  9
$DIMTOH
 70
     0
  9
$DIMSE1
 70
     0
  9
$DIMSE2
 70
     0
  9
$DIMTAD
 70
     1
  9
$DIMZIN
 70
     8
  9
$DIMBLK
  1

  9
$DIMASO
 70
     0
  9
$DIMSHO
 70
     0
  9
$DIMPOST
  1

  9
$DIMAPOST
  1

  9
$DIMALT
 70
     0
  9
$DIMALTD
 70
     2
  9
$DIMALTF
 40
25.399999999999999
  9
$DIMLFAC
 40
1.0
  9
$DIMTOFL
 70
     0
  9
$DIMTVP
 40
1.6000000000000001
  9
$DIMTIX
 70
     1
  9
$DIMSOXD
 70
     0
  9
$DIMSAH
 70
     0
  9
$DIMBLK1
  1

  9
$DIMBLK2
  1

  9
$DIMSTYLE
  2
STANDARD
  9
$DIMCLRD
 70
     4
  9
$DIMCLRE
 70
     4
  9
$DIMCLRT
 70
     4
  9
$DIMTFAC
 40
1.0
  9
$DIMGAP
 40
0.09
  9
$LUNITS
 70
     2
  9
$LUPREC
 70
     1
  9
$SKETCHINC
 40
0.1
  9
$FILLETRAD
 40
3.0
  9
$AUNITS
 70
     0
  9
$AUPREC
 70
     0
  9
$MENU
  1
E:\r13\win\SUPPORT\ACAD
  9
$ELEVATION
 40
0.0
  9
$PELEVATION
 40
0.0
  9
$THICKNESS
 40
0.0
  9
$LIMCHECK
 70
     0
  9
$BLIPMODE
 70
     0
  9
$CHAMFERA
 40
1.1999999999999991
  9
$CHAMFERB
 40
1.1999999999999991
  9
$SKPOLY
 70
     0
  9
$TDCREATE
 40
2450059.5671413201
  9
$TDUPDATE
 40
2456776.7139443639
  9
$TDINDWG
 40
0.2326385532
  9
$TDUSRTIMER
 40
0.2326385532
  9
$USRTIMER
 70
     1
  9
$ANGBASE
 50
0.0
  9
$ANGDIR
 70
     0
  9
$PDMODE
 70
     0
  9
$PDSIZE
 40
0.0
  9
$PLINEWID
 40
0.0
  9
$COORDS
 70
     1
  9
$SPLFRAME
 70
     0
  9
$SPLINETYPE
 70
     6
  9
$SPLINESEGS
 70
     8
  9
$ATTDIA
 70
     0
  9
$ATTREQ
 70
     1
  9
$HANDLING
 70
     1
  9
$HANDSEED
  5
1AA1
  9
$SURFTAB1
 70
     6
  9
$SURFTAB2
 70
     6
  9
$SURFTYPE
 70
     6
  9
$SURFU
 70
     6
  9
$SURFV
 70
     6
  9
$UCSNAME
  2

  9
$UCSORG
 10
0.0
 20
0.0
 30
0.0
  9
$UCSXDIR
 10
1.0
 20
0.0
 30
0.0
  9
$UCSYDIR
 10
0.0
 20
1.0
 30
0.0
  9
$PUCSNAME
  2

  9
$PUCSORG
 10
0.0
 20
0.0
 30
0.0
  9
$PUCSXDIR
 10
1.0
 20
0.0
 30
0.0
  9
$PUCSYDIR
 10
0.0
 20
1.0
 30
0.0
  9
$USERI1
 70
     3
  9
$USERI2
 70
     1
  9
$USERI3
 70
     1
  9
$USERI4
 70
     0
  9
$USERI5
 70
     0
  9
$USERR1
 40
2.0
  9
$USERR2
 40
3.0
  9
$USERR3
 40
3.0
  9
$USERR4
 40
3.0
  9
$USERR5
 40
10.0
  9
$WORLDVIEW
 70
     1
  9
$SHADEDGE
 70
     3
  9
$SHADEDIF
 70
    70
  9
$TILEMODE
 70
     1
  9
$MAXACTVP
 70
    16
  9
$PLIMCHECK
 70
     0
  9
$PEXTMIN
 10
1.0000000000000000E+020
 20
1.0000000000000000E+020
 30
1.0000000000000000E+020
  9
$PEXTMAX
 10
-1.0000000000000000E+020
 20
-1.0000000000000000E+020
 30
-1.0000000000000000E+020
  9
$PLIMMIN
 10
0.0
 20
0.0
  9
$PLIMMAX
 10
12.0
 20
9.0
  9
$UNITMODE
 70
     0
  9
$VISRETAIN
 70
     0
  9
$PLINEGEN
 70
     0
  9
$PSLTSCALE
 70
     0
  0
ENDSEC
  0
SECTION
  2
TABLES
  0
TABLE
  2
VPORT
 70
     1
  0
VPORT
  2
*ACTIVE
 70
     0
 10
0.0
 20
0.0
 11
1.0
 21
1.0
 12
585.58203637278564
 22
295.34780750951808
 13
0.0
 23
0.0
 14
10.0
 24
10.0
 15
10.0
 25
10.0
 16
0.0
 26
0.0
 36
1.0
 17
0.0
 27
0.0
 37
0.0
 40
601.9052742941858
 41
2.6019575856443709
 42
50.0
 43
0.0
 44
0.0
 50
0.0
 51
0.0
 71
     0
 72
 10000
 73
     1
 74
     1
 75
     0
 76
     0
 77
     0
 78
     2
  0
ENDTAB
  0
TABLE
  2
LTYPE
 70
     4
  0
LTYPE
  2
CONTINUOUS
 70
     0
  3
実線
 72
    65
 73
     0
 40
0.0
  0
LTYPE
  2
CENTER
 70
     0
  3
____ _ ____ _ ____ _ ____ _ ____ _ ____ _ ____
 72
    65
 73
     4
 40
2.0
 49
1.25
 49
-0.25
 49
0.25
 49
-0.25
  0
LTYPE
  2
HIDDEN
 70
     0
  3
_ _ _ _ _ _ _ _ _ _ _ _ _ _ _ _ _ _ _ _ _ _ _
 72
    65
 73
     2
 40
0.375
 49
0.25
 49
-0.125
  0
LTYPE
  2
PHANTOM2
 70
     0
  3
___ _ _ ___ _ _ ___ _ _ ___ _ _
 72
    65
 73
     6
 40
1.25
 49
0.625
 49
-0.125
 49
0.125
 49
-0.125
 49
0.125
 49
-0.125
  0
ENDTAB
  0
TABLE
  2
LAYER
 70
     4
  0
LAYER
  2
0
 70
     0
 62
     7
  6
CONTINUOUS
  0
LAYER
  2
1
 70
     0
 62
     1
  6
CENTER
  0
LAYER
  2
DEFPOINTS
 70
     0
 62
     7
  6
CONTINUOUS
  0
LAYER
  2
2
 70
     0
 62
     2
  6
HIDDEN
  0
ENDTAB
  0
TABLE
  2
STYLE
 70
     2
  0
STYLE
  2
STANDARD
 70
     0
 40
0.0
 41
1.0
 50
0.0
 71
     0
 42
4.0
  3
SIMPLEX
  4
BIGFONT
  0
STYLE
  2
STANDARD1
 70
     0
 40
0.0
 41
1.0
 50
0.0
 71
     0
 42
3.0
  3
txt
  4

  0
ENDTAB
  0
TABLE
  2
VIEW
 70
     1
  0
VIEW
  2
ALL
 70
     0
 40
270.0
 10
220.59941989218049
 20
135.0
 41
441.19883978436093
 11
0.0
 21
0.0
 31
1.0
 12
0.0
 22
0.0
 32
0.0
 42
50.0
 43
0.0
 44
0.0
 50
0.0
 71
     0
  0
ENDTAB
  0
TABLE
  2
UCS
 70
     0
  0
ENDTAB
  0
TABLE
  2
APPID
 70
     4
  0
APPID
  2
ACAD
 70
     0
  0
APPID
  2
ACAD_MLEADERVER
 70
     0
  0
APPID
  2
ACAD_EXEMPT_FROM_CAD_STANDARDS
 70
     0
  0
APPID
  2
ACAD_NAV_VCDISPLAY
 70
     0
  0
ENDTAB
  0
TABLE
  2
DIMSTYLE
 70
     1
  0
DIMSTYLE
  2
STANDARD
 70
     0
  3

  4

  5

  6

  7

 40
1.0
 41
0.18
 42
0.0625
 43
0.38
 44
0.18
 45
0.0
 46
0.0
 47
0.0
 48
0.0
140
0.18
141
0.09
142
0.0
143
25.399999999999999
144
1.0
145
0.0
146
1.0
147
0.09
 71
     0
 72
     0
 73
     1
 74
     1
 75
     0
 76
     0
 77
     0
 78
     0
170
     0
171
     2
172
     0
173
     0
174
     0
175
     0
176
     0
177
     0
178
     0
  0
ENDTAB
  0
ENDSEC
  0
SECTION
  2
BLOCKS
  0
BLOCK
  8
0
  2
$MODEL_SPACE
 70
     0
 10
0.0
 20
0.0
 30
0.0
  3
$MODEL_SPACE
  1

  0
ENDBLK
  5
EB0
  8
0
  0
BLOCK
 67
     1
  8
0
  2
$PAPER_SPACE
 70
     0
 10
0.0
 20
0.0
 30
0.0
  3
$PAPER_SPACE
  1

  0
ENDBLK
  5
EAE
 67
     1
  8
0
  0
ENDSEC
  0
SECTION
  2
ENTITIES
  0
LINE
  5
FC6
  8
0
 10
540.89437139173992
 20
353.6395311047807
 30
0.0
 11
529.89437139173992
 21
353.6395311047807
 31
0.0
  0
LINE
  5
FC7
  8
0
 10
529.02834598795562
 20
355.13953110478059
 30
0.0
 11
527.15495611128574
 21
355.13953110478059
 31
0.0
  0
ARC
  5
FC8
  8
0
 10
540.89437139173992
 20
352.6395311047807
 30
0.0
 40
1.0
 50
0.0
 51
90.0
  0
LINE
  5
FC9
  8
0
 10
529.89437139173992
 20
353.6395311047807
 30
0.0
 11
529.02834598795562
 21
355.13953110478081
 31
0.0
  0
CIRCLE
  5
FFD
  8
0
 10
292.89437139174038
 20
334.63953110478138
 30
0.0
 40
20.07485989988453
  0
LINE
  5
1003
  8
0
 10
529.02834598795528
 20
314.13953110478178
 30
0.0
 11
529.02834598795562
 21
355.13953110478121
 31
0.0
  0
LINE
  5
1004
  8
0
 10
529.89437139173992
 20
315.6395311047819
 30
0.0
 11
529.02834598795562
 21
314.13953110478178
 31
0.0
  0
ARC
  5
1005
  8
0
 10
540.89437139173992
 20
316.6395311047819
 30
0.0
 40
1.0
 50
270.0
 51
0.0
  0
LINE
  5
1006
  8
0
 10
529.89437139173992
 20
315.6395311047819
 30
0.0
 11
529.89437139173992
 21
353.63953110478081
 31
0.0
  0
LINE
  5
1007
  8
0
 10
540.89437139173992
 20
315.6395311047819
 30
0.0
 11
529.89437139173992
 21
315.6395311047819
 31
0.0
  0
LINE
  5
100D
  8
0
 10
492.89437139173992
 20
263.63953110478138
 30
0.0
 11
492.89437139174061
 21
405.63953110478121
 31
0.0
  0
ARC
  5
100E
  8
0
 10
501.89437139173992
 20
405.63953110478121
 30
0.0
 40
9.0
 50
0.0
 51
180.0
  0
ARC
  5
100F
  8
0
 10
501.89437139173992
 20
263.63953110478138
 30
0.0
 40
9.0
 50
180.0
 51
0.0
  0
ARC
  5
1011
  8
0
 10
302.57225652241101
 20
309.4336084000368
 30
0.0
 40
5.0
 50
63.23970029609886
 51
111.0044336148724
  0
LINE
  5
1012
  8
0
 10
304.82355131742702
 20
313.89809848804612
 30
0.0
 11
335.22045448236798
 21
298.56994487345298
 31
0.0
  0
ARC
  5
1013
  8
0
 10
332.9691596873522
 20
294.10545478544361
 30
0.0
 40
5.0
 50
314.67354731140841
 51
63.23970029609886
  0
ARC
  5
1014
  8
0
 10
292.89437139174009
 20
334.63953110478121
 30
0.0
 40
62.0
 50
225.3264526885915
 51
314.67354731140841
  0
ARC
  5
1015
  8
0
 10
252.81958309612821
 20
294.10545478544373
 30
0.0
 40
5.0
 50
116.7602997039011
 51
225.3264526885915
  0
LINE
  5
1016
  8
0
 10
280.9651914660538
 20
313.89809848804629
 30
0.0
 11
250.56828830111229
 21
298.5699448734531
 31
0.0
  0
ARC
  5
1017
  8
0
 10
283.2164862610698
 20
309.43360840003692
 30
0.0
 40
5.0
 50
68.995566385127546
 51
116.760299703901
  0
ARC
  5
1018
  8
0
 10
292.89437139174038
 20
334.63953110478121
 30
0.0
 40
22.0
 50
248.99556638512749
 51
291.00443361487248
  0
ARC
  5
1019
  8
0
 10
309.88439821454062
 20
355.62378683522212
 30
0.0
 40
5.0
 50
183.23970029610101
 51
231.00443361487379
  0
LINE
  5
101A
  8
0
 10
304.89238898587269
 20
355.34122027510892
 30
0.0
 11
302.96850782675011
 21
389.32978741962012
 31
0.0
  0
ARC
  5
101B
  8
0
 10
307.96051705541799
 20
389.61235397973331
 30
0.0
 40
5.0
 50
74.673547311407205
 51
183.23970029610101
  0
ARC
  5
101C
  8
0
 10
292.89437139174038
 20
334.63953110478133
 30
0.0
 40
62.0
 50
345.32645268859318
 51
74.673547311407148
  0
ARC
  5
101D
  8
0
 10
348.0353053510301
 20
320.20078454916671
 30
0.0
 40
5.0
 50
236.76029970389979
 51
345.32645268859318
  0
LINE
  5
101E
  8
0
 10
316.8215689115591
 20
334.679274551189
 30
0.0
 11
345.29459091737789
 21
316.01886102127048
 31
0.0
  0
ARC
  5
101F
  8
0
 10
319.5622833452112
 20
338.86119807908523
 30
0.0
 40
5.0
 50
188.9955663851253
 51
236.7602997038997
  0
ARC
  5
1020
  8
0
 10
292.89437139174038
 20
334.63953110478138
 30
0.0
 40
22.0
 50
8.9955663851255387
 51
51.004433614873939
  0
ARC
  5
1021
  8
0
 10
237.75343743245071
 20
320.200784549167
 30
0.0
 40
5.0
 50
194.67354731140671
 51
303.23970029610018
  0
ARC
  5
1022
  8
0
 10
266.22645943826922
 20
338.86119807908511
 30
0.0
 40
5.0
 50
303.23970029610018
 51
351.00443361487459
  0
ARC
  5
1023
  8
0
 10
275.90434456894002
 20
355.62378683522178
 30
0.0
 40
5.0
 50
308.99556638512621
 51
356.76029970389851
  0
ARC
  5
1024
  8
0
 10
277.82822572806282
 20
389.61235397973348
 30
0.0
 40
5.0
 50
356.76029970389891
 51
105.32645268859279
  0
ARC
  5
1025
  8
0
 10
276.18861786382001
 20
398.49027737343812
 30
0.0
 40
5.0
 50
10.675721084544911
 51
104.6620654513036
  0
ARC
  5
1026
  8
0
 10
309.60012491966057
 20
398.49027737343812
 30
0.0
 40
5.0
 50
75.337934548696282
 51
169.32427891545501
  0
LINE
  5
1027
  8
0
 10
268.9671738719212
 20
334.67927455118888
 30
0.0
 11
240.49415186610281
 21
316.01886102127082
 31
0.0
  0
LINE
  5
1028
  8
0
 10
280.8963537976079
 20
355.34122027510858
 30
0.0
 11
282.8202349567307
 21
389.32978741962029
 31
0.0
  0
ARC
  5
1029
  8
0
 10
292.89437139174038
 20
401.63953110478138
 30
0.0
 40
12.0
 50
190.6757210845449
 51
349.3242789154549
  0
ARC
  5
102A
  8
0
 10
292.89437139174009
 20
334.63953110478133
 30
0.0
 40
22.0
 50
128.99556638512621
 51
171.00443361487461
  0
ARC
  5
102B
  8
0
 10
292.89437139174009
 20
334.63953110478138
 30
0.0
 40
71.0
 50
104.6620654513036
 51
75.337934548696339
  0
ARC
  5
102C
  8
0
 10
292.89437139174038
 20
334.63953110478138
 30
0.0
 40
62.0
 50
105.32645268859279
 51
194.67354731140651
  0
CIRCLE
  5
102D
  8
0
 10
292.89437139174009
 20
334.63953110478138
 30
0.0
 40
80.0
  0
LINE
  5
1031
  8
0
 10
541.89437139173992
 20
316.6395311047819
 30
0.0
 11
541.89437139173992
 21
352.6395311047807
 31
0.0
  0
LINE
  5
1034
  8
1
 10
304.64437139174021
 20
401.63953110478138
 30
0.0
 11
281.14437139174021
 21
401.63953110478138
 31
0.0
  0
LINE
  5
1037
  8
1
 10
292.89437139174038
 20
334.63953110478133
 30
0.0
 11
370.83665773233952
 21
289.63953110478161
 31
0.0
  0
LINE
  5
1038
  8
1
 10
292.89437139174009
 20
334.63953110478133
 30
0.0
 11
214.9520850511407
 21
289.63953110478133
 31
0.0
  0
LINE
  5
1039
  8
1
 10
482.89437139174009
 20
334.63953110478133
 30
0.0
 11
551.89437139173992
 21
334.63953110478133
 31
0.0
  0
LINE
  5
103A
  8
1
 10
292.89437139174038
 20
244.63953110478141
 30
0.0
 11
292.89437139174038
 21
424.63953110478121
 31
0.0
  0
LINE
  5
103B
  8
1
 10
382.89437139174009
 20
334.63953110478133
 30
0.0
 11
202.89437139174021
 21
334.63953110478133
 31
0.0
  0
LINE
  5
1147
  8
0
 10
510.89437139173901
 20
362.45491572017011
 30
0.0
 11
511.59337655760072
 21
360.64825621455759
 31
0.0
  0
LINE
  5
1148
  8
0
 10
511.15647495220281
 20
388.55455366593969
 30
0.0
 11
523.43563730548567
 21
359.49963429479232
 31
0.0
  0
ARC
  5
114A
  8
0
 10
525.89437139173901
 20
394.78306942312491
 30
0.0
 40
16.0
 50
200.36413480631779
 51
202.9098453291696
  0
ARC
  5
114B
  8
0
 10
506.93023469997451
 20
358.84406442440451
 30
0.0
 40
5.0
 50
322.45052126479362
 51
21.151691383465661
  0
ARC
  5
114C
  8
0
 10
532.18626331646033
 20
363.19781552562102
 30
0.0
 40
9.5
 50
202.9098453291692
 51
238.02080533285621
  0
ARC
  5
114D
  8
2
 10
518.89437139174026
 20
334.63953110478121
 30
0.0
 40
22.0
 50
68.720033531583141
 51
115.6357744516619
  0
LINE
  5
1154
  8
0
 10
529.02834598795562
 20
314.13953110478201
 30
0.0
 11
526.87873110307839
 21
314.13953110478201
 31
0.0
  0
LINE
  5
1189
  8
2
 10
508.89437139173958
 20
315.63953110478133
 30
0.0
 11
508.89437139173958
 21
353.63953110478133
 31
0.0
  0
LINE
  5
118B
  8
2
 10
508.89437139173958
 20
315.63953110478133
 30
0.0
 11
509.37609883652982
 21
314.80515469500432
 31
0.0
  0
LINE
  5
118D
  8
2
 10
508.89437139173958
 20
353.63953110478133
 30
0.0
 11
509.37609883652999
 21
354.4739075145585
 31
0.0
  0
LINE
  5
1478
  8
0
 10
510.89437139173981
 20
405.63953110478121
 30
0.0
 11
510.89437139173981
 21
263.63953110478138
 31
0.0
  0
ARC
  5
147D
  8
2
 10
518.89437139174026
 20
334.63953110478138
 30
0.0
 40
22.0
 50
244.36422554833811
 51
276.85929283710112
  0
POLYLINE
  5
14CD
  8
0
  6
CONTINUOUS
 62
     7
 66
     1
 10
0.0
 20
0.0
 30
0.0
 70
   128
  0
VERTEX
  5
19D7
  8
0
  6
CONTINUOUS
 62
     7
 10
521.80777295596465
 20
352.99272473116253
 30
0.0
  0
VERTEX
  5
19D8
  8
0
  6
CONTINUOUS
 62
     7
 10
523.14186736750628
 20
353.10081703149763
 30
0.0
  0
VERTEX
  5
19D9
  8
0
  6
CONTINUOUS
 62
     7
 10
524.11815927529301
 20
353.36358262415251
 30
0.0
  0
VERTEX
  5
19DA
  8
0
  6
CONTINUOUS
 62
     7
 10
524.86132153702169
 20
353.77639272607348
 30
0.0
  0
VERTEX
  5
19DB
  8
0
  6
CONTINUOUS
 62
     7
 10
525.21926297032235
 20
354.19821379068389
 30
0.0
  0
VERTEX
  5
19DC
  8
0
  6
CONTINUOUS
 62
     7
 10
525.31319618969633
 20
354.57162147292053
 30
0.0
  0
SEQEND
  5
19DD
  8
0
  6
CONTINUOUS
 62
     7
  0
LINE
  5
14CE
  8
0
  6
CONTINUOUS
 62
     7
 10
514.86200135556066
 20
352.99272473078179
 30
0.0
 11
521.80777291397521
 21
352.99272473078179
 31
0.0
  0
POLYLINE
  5
14CF
  8
0
  6
CONTINUOUS
 62
     7
 66
     1
 10
0.0
 20
0.0
 30
0.0
 70
   128
  0
VERTEX
  5
19DE
  8
0
  6
CONTINUOUS
 62
     7
 10
514.86200132019997
 20
352.99272473079373
 30
0.0
  0
VERTEX
  5
19DF
  8
0
  6
CONTINUOUS
 62
     7
 10
513.72440435092835
 20
353.08893173168138
 30
0.0
  0
VERTEX
  5
19E0
  8
0
  6
CONTINUOUS
 62
     7
 10
512.70771364961377
 20
353.38338804864321
 30
0.0
  0
VERTEX
  5
19E1
  8
0
  6
CONTINUOUS
 62
     7
 10
512.00927459132186
 20
353.79036241500938
 30
0.0
  0
VERTEX
  5
19E2
  8
0
  6
CONTINUOUS
 62
     7
 10
511.5897713017477
 20
354.25148295956029
 30
0.0
  0
VERTEX
  5
19E3
  8
0
  6
CONTINUOUS
 62
     7
 10
511.41799960274977
 20
354.81311169961867
 30
0.0
  0
SEQEND
  5
19E4
  8
0
  6
CONTINUOUS
 62
     7
  0
POLYLINE
  5
14D0
  8
0
  6
CONTINUOUS
 62
     7
 66
     1
 10
0.0
 20
0.0
 30
0.0
 70
   128
  0
VERTEX
  5
19E5
  8
0
  6
CONTINUOUS
 62
     7
 10
510.89437139173981
 20
301.09440589205718
 30
0.0
  0
VERTEX
  5
19E6
  8
0
  6
CONTINUOUS
 62
     7
 10
510.9782292732645
 20
301.18512261516162
 30
0.0
  0
VERTEX
  5
19E7
  8
0
  6
CONTINUOUS
 62
     7
 10
512.07035844401003
 20
302.36870754882602
 30
0.0
  0
VERTEX
  5
19E8
  8
0
  6
CONTINUOUS
 62
     7
 10
512.9747454991923
 20
303.35053053858701
 30
0.0
  0
VERTEX
  5
19E9
  8
0
  6
CONTINUOUS
 62
     7
 10
513.6921537832161
 20
304.13065820193111
 30
0.0
  0
VERTEX
  5
19EA
  8
0
  6
CONTINUOUS
 62
     7
 10
514.22548512935759
 20
304.71145991494041
 30
0.0
  0
VERTEX
  5
19EB
  8
0
  6
CONTINUOUS
 62
     7
 10
514.77903346516734
 20
305.31512782624168
 30
0.0
  0
VERTEX
  5
19EC
  8
0
  6
CONTINUOUS
 62
     7
 10
515.81217441298497
 20
306.4444265852062
 30
0.0
  0
VERTEX
  5
19ED
  8
0
  6
CONTINUOUS
 62
     7
 10
517.14289395992114
 20
307.90505040734661
 30
0.0
  0
VERTEX
  5
19EE
  8
0
  6
CONTINUOUS
 62
     7
 10
518.76426902100786
 20
309.69659938704348
 30
0.0
  0
VERTEX
  5
19EF
  8
0
  6
CONTINUOUS
 62
     7
 10
520.66336039824478
 20
311.81831634343422
 30
0.0
  0
VERTEX
  5
19F0
  8
0
  6
CONTINUOUS
 62
     7
 10
522.81323416636883
 20
314.26913964215561
 30
0.0
  0
SEQEND
  5
19F1
  8
0
  6
CONTINUOUS
 62
     7
  0
POLYLINE
  5
14D1
  8
0
  6
CONTINUOUS
 62
     7
 66
     1
 10
0.0
 20
0.0
 30
0.0
 70
   128
  0
VERTEX
  5
19F2
  8
0
  6
CONTINUOUS
 62
     7
 10
522.8132341646417
 20
314.26913964005598
 30
0.0
  0
VERTEX
  5
19F3
  8
0
  6
CONTINUOUS
 62
     7
 10
523.33163567213808
 20
314.7260486158761
 30
0.0
  0
VERTEX
  5
19F4
  8
0
  6
CONTINUOUS
 62
     7
 10
524.54211278084779
 20
315.4582796475101
 30
0.0
  0
SEQEND
  5
19F5
  8
0
  6
CONTINUOUS
 62
     7
  0
POLYLINE
  5
14D2
  8
0
  6
CONTINUOUS
 62
     7
 66
     1
 10
0.0
 20
0.0
 30
0.0
 70
   128
  0
VERTEX
  5
19F6
  8
0
  6
CONTINUOUS
 62
     7
 10
525.31319619012731
 20
316.60913047262011
 30
0.0
  0
VERTEX
  5
19F7
  8
0
  6
CONTINUOUS
 62
     7
 10
525.15962176059952
 20
316.0187726916742
 30
0.0
  0
VERTEX
  5
19F8
  8
0
  6
CONTINUOUS
 62
     7
 10
524.65504133914715
 20
315.52465079949621
 30
0.0
  0
VERTEX
  5
19F9
  8
0
  6
CONTINUOUS
 62
     7
 10
524.47932684120155
 20
315.44948805485592
 30
0.0
  0
SEQEND
  5
19FA
  8
0
  6
CONTINUOUS
 62
     7
  0
POLYLINE
  5
14D3
  8
0
 66
     1
 10
0.0
 20
0.0
 30
0.0
 70
   128
  0
VERTEX
  5
19FB
  8
0
 10
521.80777294262612
 20
335.96865715125517
 30
0.0
  0
VERTEX
  5
19FC
  8
0
 10
523.14186792002067
 20
335.77159482621983
 30
0.0
  0
VERTEX
  5
19FD
  8
0
 10
524.1181585112156
 20
335.28037699830429
 30
0.0
  0
VERTEX
  5
19FE
  8
0
 10
524.74955604738636
 20
334.63953059940059
 30
0.0
  0
VERTEX
  5
19FF
  8
0
 10
525.20135686783419
 20
333.65616409135743
 30
0.0
  0
VERTEX
  5
1A00
  8
0
 10
525.44373674203064
 20
331.6659698519353
 30
0.0
  0
SEQEND
  5
1A01
  8
0
  0
LINE
  5
14D4
  8
0
  6
CONTINUOUS
 62
     7
 10
514.86200135745355
 20
335.96865715078178
 30
0.0
 11
521.80777291436743
 21
335.96865715078178
 31
0.0
  0
POLYLINE
  5
14D5
  8
0
  6
CONTINUOUS
 62
     7
 66
     1
 10
0.0
 20
0.0
 30
0.0
 70
   128
  0
VERTEX
  5
1A02
  8
0
  6
CONTINUOUS
 62
     7
 10
514.86200132761235
 20
335.96865715031481
 30
0.0
  0
VERTEX
  5
1A03
  8
0
  6
CONTINUOUS
 62
     7
 10
513.72440442151515
 20
335.79340063560988
 30
0.0
  0
VERTEX
  5
1A04
  8
0
  6
CONTINUOUS
 62
     7
 10
512.70771378764061
 20
335.24261496580129
 30
0.0
  0
VERTEX
  5
1A05
  8
0
  6
CONTINUOUS
 62
     7
 10
512.14121567575796
 20
334.63952505590669
 30
0.0
  0
VERTEX
  5
1A06
  8
0
  6
CONTINUOUS
 62
     7
 10
511.5797476073505
 20
333.42990045409169
 30
0.0
  0
VERTEX
  5
1A07
  8
0
  6
CONTINUOUS
 62
     7
 10
511.418000075527
 20
332.15339761130599
 30
0.0
  0
SEQEND
  5
1A08
  8
0
  6
CONTINUOUS
 62
     7
  0
ARC
  5
14D7
  8
0
 10
518.89437139174026
 20
334.63953110478138
 30
0.0
 40
22.0
 50
276.85929283710112
 51
291.27996646841677
  0
LINE
  5
1533
  8
0
 10
221.89437139174041
 20
552.6395311047811
 30
0.0
 11
363.89437139174038
 21
552.6395311047811
 31
0.0
  0
LINE
  5
1534
  8
2
 10
273.89437139174038
 20
550.63953110478087
 30
0.0
 11
273.05999498196297
 21
551.12125854957128
 31
0.0
  0
LINE
  5
1535
  8
2
 10
311.89437139174038
 20
550.63953110478087
 30
0.0
 11
312.72874780151773
 21
551.12125854957105
 31
0.0
  0
LINE
  5
1536
  8
2
 10
311.89437139174038
 20
550.63953110478087
 30
0.0
 11
273.89437139174038
 21
550.63953110478087
 31
0.0
  0
LINE
  5
1537
  8
0
 10
313.3943713917397
 20
570.77350570099668
 30
0.0
 11
313.3943713917397
 21
568.62389081611968
 31
0.0
  0
ARC
  5
1538
  8
2
 10
292.89437139174038
 20
560.63953110478155
 30
0.0
 40
22.0
 50
201.32368626349901
 51
205.635774451662
  0
ARC
  5
1539
  8
0
 10
264.33608697090062
 20
573.9314230295015
 30
0.0
 40
9.5
 50
292.90984532916917
 51
328.02080533285613
  0
ARC
  5
153A
  8
0
 10
268.68983807211703
 20
548.67539441301574
 30
0.0
 40
5.0
 50
52.450521264793608
 51
111.1516913834656
  0
ARC
  5
153B
  8
0
 10
232.7508330733969
 20
567.63953110478019
 30
0.0
 40
16.0
 50
290.36413480631779
 51
292.90984532916951
  0
LINE
  5
153C
  8
0
 10
238.97934883058201
 20
552.90163466524405
 30
0.0
 11
268.03426820172967
 21
565.18079701852685
 31
0.0
  0
LINE
  5
153D
  8
0
 10
265.07898677635171
 20
552.63953110478008
 30
0.0
 11
266.88564628196423
 21
553.33853627064195
 31
0.0
  0
LINE
  5
153F
  8
1
 10
292.89437139174038
 20
524.63953110478121
 30
0.0
 11
292.89437139174038
 21
593.63953110478099
 31
0.0
  0
LINE
  5
1540
  8
0
 10
310.89437139173992
 20
583.6395311047811
 30
0.0
 11
274.89437139174112
 21
583.6395311047811
 31
0.0
  0
ARC
  5
1541
  8
0
 10
363.89437139174038
 20
543.63953110478099
 30
0.0
 40
9.0
 50
270.0
 51
90.0
  0
ARC
  5
1542
  8
0
 10
221.89437139174041
 20
543.63953110478099
 30
0.0
 40
9.0
 50
90.0
 51
270.0
  0
LINE
  5
1543
  8
0
 10
363.89437139174038
 20
534.63953110478099
 30
0.0
 11
221.89437139174041
 21
534.63953110478167
 31
0.0
  0
LINE
  5
1544
  8
0
 10
311.89437139173992
 20
582.6395311047811
 30
0.0
 11
311.89437139173992
 21
571.63953110478099
 31
0.0
  0
LINE
  5
1545
  8
0
 10
311.89437139173992
 20
571.63953110478099
 30
0.0
 11
273.89437139174112
 21
571.63953110478099
 31
0.0
  0
ARC
  5
1546
  8
0
 10
310.89437139173992
 20
582.6395311047811
 30
0.0
 40
1.0
 50
0.0
 51
90.0
  0
LINE
  5
1547
  8
0
 10
311.89437139173992
 20
571.63953110478099
 30
0.0
 11
313.39437139173992
 21
570.77350570099668
 31
0.0
  0
LINE
  5
1548
  8
0
 10
313.39437139173992
 20
570.77350570099657
 30
0.0
 11
272.39437139174061
 21
570.77350570099668
 31
0.0
  0
LINE
  5
1549
  8
0
 10
273.89437139174129
 20
571.63953110478099
 30
0.0
 11
272.39437139174112
 21
570.77350570099668
 31
0.0
  0
ARC
  5
154A
  8
0
 10
274.89437139174078
 20
582.6395311047811
 30
0.0
 40
1.0
 50
90.0
 51
180.0
  0
LINE
  5
154B
  8
0
 10
272.39437139174129
 20
570.77350570099668
 30
0.0
 11
272.39437139174129
 21
568.62389081611968
 31
0.0
  0
LINE
  5
154C
  8
0
 10
273.89437139174129
 20
582.6395311047811
 30
0.0
 11
273.89437139174129
 21
571.63953110478099
 31
0.0
  0
ARC
  5
154D
  8
0
 10
317.0989047113635
 20
548.67539441301574
 30
0.0
 40
5.0
 50
68.848308616534368
 51
127.54947873520641
  0
LINE
  5
154E
  8
0
 10
320.70975600712882
 20
552.63953110478008
 30
0.0
 11
318.9030965015163
 21
553.33853627064195
 31
0.0
  0
ARC
  5
154F
  8
0
 10
321.45265581257991
 20
573.9314230295015
 30
0.0
 40
9.5
 50
211.9791946671439
 51
247.0901546708308
  0
LINE
  5
1550
  8
0
 10
347.42958265934629
 20
552.63953110478087
 30
0.0
 11
317.75447458175091
 21
565.18079701852685
 31
0.0
  0
ARC
  5
1551
  8
0
 10
292.89437139174009
 20
560.63953110478155
 30
0.0
 40
22.0
 50
338.67631373650079
 51
21.279966468416848
  0
ARC
  5
1552
  8
2
 10
292.89437139174038
 20
560.63953110478155
 30
0.0
 40
22.0
 50
334.36422554833808
 51
338.67631373650102
  0
ARC
  5
1553
  8
0
 10
292.89437139174061
 20
560.63953110478155
 30
0.0
 40
22.0
 50
158.72003353158311
 51
201.3236862634991
  0
POLYLINE
  5
15B0
  8
0
 66
     1
 10
0.0
 20
0.0
 30
0.0
 70
   128
  0
VERTEX
  5
1A09
  8
0
 10
283.58245583663211
 20
567.05835639367626
 30
0.0
  0
VERTEX
  5
1A0A
  8
0
 10
282.6263795770696
 20
566.90478199691836
 30
0.0
  0
VERTEX
  5
1A0B
  8
0
 10
281.78607172793039
 20
566.40020203314748
 30
0.0
  0
VERTEX
  5
1A0C
  8
0
 10
281.23241931047318
 20
565.67074071209856
 30
0.0
  0
VERTEX
  5
1A0D
  8
0
 10
280.9009904922159
 20
564.7784501110666
 30
0.0
  0
VERTEX
  5
1A0E
  8
0
 10
280.76340755068441
 20
563.55293266888395
 30
0.0
  0
SEQEND
  5
1A0F
  8
0
  0
POLYLINE
  5
15B1
  8
0
 66
     1
 10
0.0
 20
0.0
 30
0.0
 70
   128
  0
VERTEX
  5
1A10
  8
0
 10
280.97782810427589
 20
561.4502669817814
 30
0.0
  0
VERTEX
  5
1A11
  8
0
 10
281.20925945762878
 20
559.83724533385544
 30
0.0
  0
VERTEX
  5
1A12
  8
0
 10
281.47873560955583
 20
557.92218223478187
 30
0.0
  0
VERTEX
  5
1A13
  8
0
 10
281.7134515742564
 20
556.23277049952696
 30
0.0
  0
VERTEX
  5
1A14
  8
0
 10
281.97781016228367
 20
554.31408861978093
 30
0.0
  0
VERTEX
  5
1A15
  8
0
 10
282.19370740902917
 20
552.73800520252746
 30
0.0
  0
VERTEX
  5
1A16
  8
0
 10
282.20714292339289
 20
552.63953110249645
 30
0.0
  0
SEQEND
  5
1A17
  8
0
  0
POLYLINE
  5
15B2
  8
0
 66
     1
 10
0.0
 20
0.0
 30
0.0
 70
   128
  0
VERTEX
  5
1A18
  8
0
 10
280.76340754457033
 20
563.55293269404433
 30
0.0
  0
VERTEX
  5
1A19
  8
0
 10
280.86629267073749
 20
562.37666489733715
 30
0.0
  0
VERTEX
  5
1A1A
  8
0
 10
280.97782810427589
 20
561.4502669817814
 30
0.0
  0
SEQEND
  5
1A1B
  8
0
  0
POLYLINE
  5
15B3
  8
0
 66
     1
 10
0.0
 20
0.0
 30
0.0
 70
   128
  0
VERTEX
  5
1A1C
  8
0
 10
305.02533523277822
 20
563.55293266900594
 30
0.0
  0
VERTEX
  5
1A1D
  8
0
 10
304.86019446965889
 20
564.88702708054745
 30
0.0
  0
VERTEX
  5
1A1E
  8
0
 10
304.4446915041845
 20
565.86331898833407
 30
0.0
  0
VERTEX
  5
1A1F
  8
0
 10
303.74704513084822
 20
566.60648125006276
 30
0.0
  0
VERTEX
  5
1A20
  8
0
 10
302.96700419514269
 20
566.96442268336364
 30
0.0
  0
VERTEX
  5
1A21
  8
0
 10
302.20628706770822
 20
567.0583559027375
 30
0.0
  0
SEQEND
  5
1A22
  8
0
  0
POLYLINE
  5
15B4
  8
0
 66
     1
 10
0.0
 20
0.0
 30
0.0
 70
   128
  0
VERTEX
  5
1A23
  8
0
 10
303.58159973520242
 20
552.6395311047811
 30
0.0
  0
VERTEX
  5
1A24
  8
0
 10
303.59504109334381
 20
552.738048032964
 30
0.0
  0
VERTEX
  5
1A25
  8
0
 10
303.8109218500868
 20
554.314010171782
 30
0.0
  0
VERTEX
  5
1A26
  8
0
 10
304.07530782300859
 20
556.23289081744599
 30
0.0
  0
VERTEX
  5
1A27
  8
0
 10
304.30999441640142
 20
557.92209087178094
 30
0.0
  0
VERTEX
  5
1A28
  8
0
 10
304.57948798700232
 20
559.8372765284231
 30
0.0
  0
VERTEX
  5
1A29
  8
0
 10
304.81091467920533
 20
561.4502669817814
 30
0.0
  0
SEQEND
  5
1A2A
  8
0
  0
POLYLINE
  5
15B5
  8
0
 66
     1
 10
0.0
 20
0.0
 30
0.0
 70
   128
  0
VERTEX
  5
1A2B
  8
0
 10
305.02533523893999
 20
563.55293269424624
 30
0.0
  0
VERTEX
  5
1A2C
  8
0
 10
304.92245011642359
 20
562.37666493380596
 30
0.0
  0
VERTEX
  5
1A2D
  8
0
 10
304.81091467920533
 20
561.4502669817814
 30
0.0
  0
SEQEND
  5
1A2E
  8
0
  0
ARC
  5
15BD
  8
2
 10
292.89437139174038
 20
108.6395311047811
 30
0.0
 40
22.0
 50
338.72003353158271
 51
25.635774451661948
  0
LINE
  5
15BF
  8
0
 10
347.42958265934612
 20
116.6395311047816
 30
0.0
 11
317.75447458175091
 21
104.09826519103579
 31
0.0
  0
ARC
  5
15C0
  8
0
 10
321.45265581257991
 20
95.347639180061194
 30
0.0
 40
9.5
 50
112.9098453291692
 51
148.0208053328561
  0
LINE
  5
15C1
  8
0
 10
320.70975600712882
 20
116.63953110478251
 30
0.0
 11
318.9030965015163
 21
115.9405259389207
 31
0.0
  0
ARC
  5
15C2
  8
0
 10
317.0989047113635
 20
120.6036677965469
 30
0.0
 40
5.0
 50
232.45052126479359
 51
291.15169138346562
  0
LINE
  5
15C3
  8
0
 10
273.89437139174129
 20
86.639531104781611
 30
0.0
 11
273.89437139174129
 21
97.639531104781625
 31
0.0
  0
ARC
  5
15C5
  8
0
 10
274.89437139174078
 20
86.639531104781611
 30
0.0
 40
1.0
 50
180.0
 51
270.0
  0
LINE
  5
15C6
  8
0
 10
273.89437139174129
 20
97.639531104781625
 30
0.0
 11
272.39437139174112
 21
98.505556508565917
 31
0.0
  0
LINE
  5
15C7
  8
0
 10
313.39437139173992
 20
98.505556508566144
 30
0.0
 11
272.39437139174061
 21
98.505556508565917
 31
0.0
  0
LINE
  5
15C8
  8
0
 10
311.89437139173992
 20
97.639531104781625
 30
0.0
 11
313.39437139173992
 21
98.505556508565917
 31
0.0
  0
ARC
  5
15C9
  8
0
 10
310.89437139173992
 20
86.639531104781611
 30
0.0
 40
1.0
 50
270.0
 51
0.0
  0
LINE
  5
15CA
  8
0
 10
311.89437139173992
 20
97.639531104781625
 30
0.0
 11
273.89437139174112
 21
97.639531104781625
 31
0.0
  0
LINE
  5
15CB
  8
0
 10
311.89437139173992
 20
86.639531104781611
 30
0.0
 11
311.89437139173992
 21
97.639531104781625
 31
0.0
  0
LINE
  5
15CC
  8
0
 10
363.89437139174038
 20
134.63953110478161
 30
0.0
 11
221.89437139174041
 21
134.6395311047809
 31
0.0
  0
ARC
  5
15CD
  8
0
 10
221.89437139174041
 20
125.6395311047815
 30
0.0
 40
9.0
 50
90.000000000000028
 51
270.0
  0
ARC
  5
15CE
  8
0
 10
363.89437139174038
 20
125.6395311047815
 30
0.0
 40
9.0
 50
270.0
 51
90.000000000000028
  0
LINE
  5
15CF
  8
0
 10
310.89437139173992
 20
85.639531104781611
 30
0.0
 11
274.89437139174112
 21
85.639531104781611
 31
0.0
  0
LINE
  5
15D1
  8
0
 10
265.07898677635171
 20
116.63953110478251
 30
0.0
 11
266.88564628196423
 21
115.9405259389207
 31
0.0
  0
LINE
  5
15D2
  8
0
 10
238.97934883058201
 20
116.37742754431861
 30
0.0
 11
268.03426820172967
 21
104.09826519103579
 31
0.0
  0
ARC
  5
15D3
  8
0
 10
232.7508330733969
 20
101.63953110478251
 30
0.0
 40
16.0
 50
67.090154670830486
 51
69.635865193682207
  0
ARC
  5
15D4
  8
0
 10
268.68983807211703
 20
120.6036677965469
 30
0.0
 40
5.0
 50
248.84830861653441
 51
307.54947873520638
  0
ARC
  5
15D5
  8
0
 10
264.33608697090062
 20
95.347639180061194
 30
0.0
 40
9.5
 50
31.979194667143869
 51
67.090154670830799
  0
LINE
  5
15D7
  8
0
 10
313.3943713917397
 20
98.505556508565917
 30
0.0
 11
313.39437139173992
 21
100.3789463852362
 31
0.0
  0
LINE
  5
15D8
  8
2
 10
311.89437139174038
 20
118.6395311047818
 30
0.0
 11
273.89437139174038
 21
118.6395311047818
 31
0.0
  0
LINE
  5
15D9
  8
2
 10
311.89437139174038
 20
118.6395311047818
 30
0.0
 11
312.72874780151773
 21
118.1578036599915
 31
0.0
  0
LINE
  5
15DA
  8
2
 10
273.89437139174038
 20
118.6395311047818
 30
0.0
 11
273.0599949819636
 21
118.1578036599917
 31
0.0
  0
LINE
  5
15DB
  8
0
 10
221.89437139174041
 20
116.6395311047816
 30
0.0
 11
363.89437139174038
 21
116.6395311047816
 31
0.0
  0
LINE
  5
15DC
  8
1
 10
292.89437139174038
 20
144.63953110478141
 30
0.0
 11
292.89437139174038
 21
75.639531104781611
 31
0.0
  0
POLYLINE
  5
161F
  8
0
  6
CONTINUOUS
 62
     7
 66
     1
 10
0.0
 20
0.0
 30
0.0
 70
   128
  0
VERTEX
  5
1A2F
  8
0
  6
CONTINUOUS
 62
     7
 10
305.9769633843166
 20
116.1159028940598
 30
0.0
  0
VERTEX
  5
1A30
  8
0
  6
CONTINUOUS
 62
     7
 10
304.76591882481853
 20
115.89844382189921
 30
0.0
  0
VERTEX
  5
1A31
  8
0
  6
CONTINUOUS
 62
     7
 10
303.86942505580282
 20
115.37173614885489
 30
0.0
  0
VERTEX
  5
1A32
  8
0
  6
CONTINUOUS
 62
     7
 10
303.1666998336222
 20
114.5061204696473
 30
0.0
  0
VERTEX
  5
1A33
  8
0
  6
CONTINUOUS
 62
     7
 10
302.81239466283711
 20
113.5407720436957
 30
0.0
  0
VERTEX
  5
1A34
  8
0
  6
CONTINUOUS
 62
     7
 10
302.72322139132848
 20
112.67190119476859
 30
0.0
  0
SEQEND
  5
1A35
  8
0
  6
CONTINUOUS
 62
     7
  0
LINE
  5
1620
  8
0
 10
302.72322139178033
 20
112.6719011390677
 30
0.0
 11
302.72322139178033
 21
105.726129582154
 31
0.0
  0
POLYLINE
  5
1621
  8
0
 66
     1
 10
0.0
 20
0.0
 30
0.0
 70
   128
  0
VERTEX
  5
1A36
  8
0
 10
305.5001102849879
 20
102.22070630639401
 30
0.0
  0
VERTEX
  5
1A37
  8
0
 10
304.61048662340448
 20
102.3742807359219
 30
0.0
  0
VERTEX
  5
1A38
  8
0
 10
303.78571432617679
 20
102.8788611573743
 30
0.0
  0
VERTEX
  5
1A39
  8
0
 10
303.21886421428371
 20
103.6083211167258
 30
0.0
  0
VERTEX
  5
1A3A
  8
0
 10
302.8701294307798
 20
104.5006123193649
 30
0.0
  0
VERTEX
  5
1A3B
  8
0
 10
302.72322139142898
 20
105.7261295538143
 30
0.0
  0
SEQEND
  5
1A3C
  8
0
  0
POLYLINE
  5
1622
  8
0
 66
     1
 10
0.0
 20
0.0
 30
0.0
 70
   128
  0
VERTEX
  5
1A3D
  8
0
 10
280.28863249849269
 20
102.22070630639401
 30
0.0
  0
VERTEX
  5
1A3E
  8
0
 10
281.17825616007599
 20
102.3742807359219
 30
0.0
  0
VERTEX
  5
1A3F
  8
0
 10
282.0030284573038
 20
102.8788611573743
 30
0.0
  0
VERTEX
  5
1A40
  8
0
 10
282.56987856919682
 20
103.6083211167258
 30
0.0
  0
VERTEX
  5
1A41
  8
0
 10
282.91861335270067
 20
104.5006123193649
 30
0.0
  0
VERTEX
  5
1A42
  8
0
 10
283.06552139205161
 20
105.7261295538143
 30
0.0
  0
SEQEND
  5
1A43
  8
0
  0
LINE
  5
1623
  8
0
 10
283.06552139170032
 20
112.6719011390677
 30
0.0
 11
283.06552139170032
 21
105.726129582154
 31
0.0
  0
POLYLINE
  5
1624
  8
0
  6
CONTINUOUS
 62
     7
 66
     1
 10
0.0
 20
0.0
 30
0.0
 70
   128
  0
VERTEX
  5
1A44
  8
0
  6
CONTINUOUS
 62
     7
 10
279.81177939916392
 20
116.1159028940598
 30
0.0
  0
VERTEX
  5
1A45
  8
0
  6
CONTINUOUS
 62
     7
 10
281.022823958662
 20
115.89844382189921
 30
0.0
  0
VERTEX
  5
1A46
  8
0
  6
CONTINUOUS
 62
     7
 10
281.91931772767771
 20
115.37173614885489
 30
0.0
  0
VERTEX
  5
1A47
  8
0
  6
CONTINUOUS
 62
     7
 10
282.62204294985833
 20
114.5061204696473
 30
0.0
  0
VERTEX
  5
1A48
  8
0
  6
CONTINUOUS
 62
     7
 10
282.97634812064348
 20
113.5407720436957
 30
0.0
  0
VERTEX
  5
1A49
  8
0
  6
CONTINUOUS
 62
     7
 10
283.06552139215199
 20
112.67190119476859
 30
0.0
  0
SEQEND
  5
1A4A
  8
0
  6
CONTINUOUS
 62
     7
  0
LINE
  5
1626
  8
2
 10
313.3943713917397
 20
100.65517139344399
 30
0.0
 11
313.39437139173953
 21
100.37894638523581
 31
0.0
  0
ARC
  5
1627
  8
2
 10
292.89437139174089
 20
108.6395311047811
 30
0.0
 40
22.0
 50
154.364225548338
 51
201.27996646841731
  0
LINE
  5
1628
  8
0
 10
272.39437139174152
 20
98.505556508565917
 30
0.0
 11
272.39437139174129
 21
100.3789463852362
 31
0.0
  0
LINE
  5
1629
  8
2
 10
272.39437139174152
 20
100.65517139344399
 30
0.0
 11
272.39437139174169
 21
100.37894638523581
 31
0.0
  0
POLYLINE
  5
18AF
  8
0
 66
     1
 10
0.0
 20
0.0
 30
0.0
 70
   128
  0
VERTEX
  5
1A4B
  8
0
 10
510.89437139173981
 20
311.70337552573028
 30
0.0
  0
VERTEX
  5
1A4C
  8
0
 10
512.96925300088856
 20
314.45649402113781
 30
0.0
  0
VERTEX
  5
1A4D
  8
0
 10
515.92852457328149
 20
318.41302020561187
 30
0.0
  0
VERTEX
  5
1A4E
  8
0
 10
518.76483488321776
 20
322.24942882739902
 30
0.0
  0
VERTEX
  5
1A4F
  8
0
 10
521.6516743381959
 20
326.23269552173178
 30
0.0
  0
VERTEX
  5
1A50
  8
0
 10
525.44373674203064
 20
331.6659698519353
 30
0.0
  0
SEQEND
  5
1A51
  8
0
  0
POLYLINE
  5
18B0
  8
0
 66
     1
 10
0.0
 20
0.0
 30
0.0
 70
   128
  0
VERTEX
  5
1A52
  8
0
 10
308.95263806175728
 20
104.09826519172
 30
0.0
  0
VERTEX
  5
1A53
  8
0
 10
315.32663433570582
 20
106.88233329848229
 30
0.0
  0
VERTEX
  5
1A54
  8
0
 10
321.7335815593454
 20
109.7691826875442
 30
0.0
  0
VERTEX
  5
1A55
  8
0
 10
327.92790303177878
 20
112.60548116604861
 30
0.0
  0
VERTEX
  5
1A56
  8
0
 10
334.33070950007669
 20
115.5646899936071
 30
0.0
  0
VERTEX
  5
1A57
  8
0
 10
336.64238301760139
 20
116.6395311047811
 30
0.0
  0
SEQEND
  5
1A58
  8
0
  0
POLYLINE
  5
18B1
  8
0
 66
     1
 10
0.0
 20
0.0
 30
0.0
 70
   128
  0
VERTEX
  5
1A59
  8
0
 10
305.50010589034372
 20
102.2207022904297
 30
0.0
  0
VERTEX
  5
1A5A
  8
0
 10
307.17118676945182
 20
103.2856274018511
 30
0.0
  0
VERTEX
  5
1A5B
  8
0
 10
308.9526380617404
 20
104.0982651917809
 30
0.0
  0
SEQEND
  5
1A5C
  8
0
  0
POLYLINE
  5
18B2
  8
0
 66
     1
 10
0.0
 20
0.0
 30
0.0
 70
   128
  0
VERTEX
  5
1A5D
  8
0
 10
249.14635904648949
 20
116.6395311047812
 30
0.0
  0
VERTEX
  5
1A5E
  8
0
 10
251.45811926658681
 20
115.5646494916553
 30
0.0
  0
VERTEX
  5
1A5F
  8
0
 10
257.86106375515038
 20
112.60537792888751
 30
0.0
  0
VERTEX
  5
1A60
  8
0
 10
264.05541342558888
 20
109.769067609738
 30
0.0
  0
VERTEX
  5
1A61
  8
0
 10
270.46234565683761
 20
106.88222815459341
 30
0.0
  0
VERTEX
  5
1A62
  8
0
 10
276.8361047217237
 20
104.09826519172
 30
0.0
  0
SEQEND
  5
1A63
  8
0
  0
POLYLINE
  5
18B3
  8
0
 66
     1
 10
0.0
 20
0.0
 30
0.0
 70
   128
  0
VERTEX
  5
1A64
  8
0
 10
276.83610472174053
 20
104.0982651917809
 30
0.0
  0
VERTEX
  5
1A65
  8
0
 10
278.61755599970559
 20
103.2856273868336
 30
0.0
  0
VERTEX
  5
1A66
  8
0
 10
280.28863656625879
 20
102.22070200691979
 30
0.0
  0
SEQEND
  5
1A67
  8
0
  0
TEXT
  5
1969
  8
0
 62
     3
 10
0.0
 20
0.0
 30
0.0
 40
10.0
  1
NV160
  7
STANDARD1
  0
LINE
  5
19B2
  8
1
 10
501.89437139174009
 20
244.6395311047813
 30
0.0
 11
501.89437139174009
 21
424.6395311047811
 31
0.0
  0
LINE
  5
19B3
  8
1
 10
382.89437139174032
 20
543.63953110478099
 30
0.0
 11
202.89437139174049
 21
543.63953110478099
 31
0.0
  0
LINE
  5
19B4
  8
1
 10
382.89367431757478
 20
125.6395311047815
 30
0.0
 11
202.89367431757501
 21
125.6395311047815
 31
0.0
  0
LINE
  5
19BC
  8
2
 10
526.87873110307737
 20
355.1395311047807
 30
0.0
 11
527.15495611128574
 21
355.13953110478059
 31
0.0
  0
ENDSEC
  0
EOF
