  0
SECTION
  2
HEADER
  9
$ACADVER
  1
AC1009
  9
$INSBASE
 10
0.0
 20
0.0
 30
0.0
  9
$EXTMIN
 10
0.0
 20
-1.4802182810368341
 30
0.0
  9
$EXTMAX
 10
107.0
 20
124.0
 30
0.0
  9
$LIMMIN
 10
0.0
 20
0.0
  9
$LIMMAX
 10
375.0
 20
270.0
  9
$ORTHOMODE
 70
     1
  9
$REGENMODE
 70
     1
  9
$FILLMODE
 70
     1
  9
$QTEXTMODE
 70
     0
  9
$MIRRTEXT
 70
     0
  9
$DRAGMODE
 70
     2
  9
$LTSCALE
 40
10.0
  9
$OSMODE
 70
    37
  9
$ATTMODE
 70
     1
  9
$TEXTSIZE
 40
0.2
  9
$TRACEWID
 40
0.05
  9
$TEXTSTYLE
  7
STANDARD
  9
$CLAYER
  8
0
  9
$CELTYPE
  6
BYLAYER
  9
$CECOLOR
 62
   256
  9
$DIMSCALE
 40
1.0
  9
$DIMASZ
 40
3.0
  9
$DIMEXO
 40
2.0
  9
$DIMDLI
 40
0.38
  9
$DIMRND
 40
0.0
  9
$DIMDLE
 40
0.0
  9
$DIMEXE
 40
2.0
  9
$DIMTP
 40
0.0
  9
$DIMTM
 40
0.0
  9
$DIMTXT
 40
3.0
  9
$DIMCEN
 40
0.0
  9
$DIMTSZ
 40
0.0
  9
$DIMTOL
 70
     0
  9
$DIMLIM
 70
     0
  9
$DIMTIH
 70
     0
  9
$DIMTOH
 70
     0
  9
$DIMSE1
 70
     0
  9
$DIMSE2
 70
     0
  9
$DIMTAD
 70
     1
  9
$DIMZIN
 70
     8
  9
$DIMBLK
  1

  9
$DIMASO
 70
     0
  9
$DIMSHO
 70
     0
  9
$DIMPOST
  1

  9
$DIMAPOST
  1

  9
$DIMALT
 70
     0
  9
$DIMALTD
 70
     2
  9
$DIMALTF
 40
25.399999999999999
  9
$DIMLFAC
 40
1.0
  9
$DIMTOFL
 70
     1
  9
$DIMTVP
 40
1.6000000000000001
  9
$DIMTIX
 70
     1
  9
$DIMSOXD
 70
     0
  9
$DIMSAH
 70
     0
  9
$DIMBLK1
  1

  9
$DIMBLK2
  1

  9
$DIMSTYLE
  2
STANDARD
  9
$DIMCLRD
 70
     0
  9
$DIMCLRE
 70
     0
  9
$DIMCLRT
 70
     0
  9
$DIMTFAC
 40
1.0
  9
$DIMGAP
 40
0.09
  9
$LUNITS
 70
     2
  9
$LUPREC
 70
     1
  9
$SKETCHINC
 40
0.1
  9
$FILLETRAD
 40
0.0
  9
$AUNITS
 70
     0
  9
$AUPREC
 70
     1
  9
$MENU
  1
E:\r13\win\SUPPORT\ACAD
  9
$ELEVATION
 40
0.0
  9
$PELEVATION
 40
0.0
  9
$THICKNESS
 40
0.0
  9
$LIMCHECK
 70
     0
  9
$BLIPMODE
 70
     0
  9
$CHAMFERA
 40
0.0
  9
$CHAMFERB
 40
0.0
  9
$SKPOLY
 70
     0
  9
$TDCREATE
 40
2449840.353356482
  9
$TDUPDATE
 40
2459783.4176224652
  9
$TDINDWG
 40
0.0827389699
  9
$TDUSRTIMER
 40
2456693.1458702078
  9
$USRTIMER
 70
     1
  9
$ANGBASE
 50
0.0
  9
$ANGDIR
 70
     0
  9
$PDMODE
 70
     0
  9
$PDSIZE
 40
0.0
  9
$PLINEWID
 40
0.0
  9
$COORDS
 70
     1
  9
$SPLFRAME
 70
     0
  9
$SPLINETYPE
 70
     6
  9
$SPLINESEGS
 70
     8
  9
$ATTDIA
 70
     0
  9
$ATTREQ
 70
     1
  9
$HANDLING
 70
     1
  9
$HANDSEED
  5
B7A
  9
$SURFTAB1
 70
     6
  9
$SURFTAB2
 70
     6
  9
$SURFTYPE
 70
     6
  9
$SURFU
 70
     6
  9
$SURFV
 70
     6
  9
$UCSNAME
  2

  9
$UCSORG
 10
0.0
 20
0.0
 30
0.0
  9
$UCSXDIR
 10
1.0
 20
0.0
 30
0.0
  9
$UCSYDIR
 10
0.0
 20
1.0
 30
0.0
  9
$PUCSNAME
  2

  9
$PUCSORG
 10
0.0
 20
0.0
 30
0.0
  9
$PUCSXDIR
 10
1.0
 20
0.0
 30
0.0
  9
$PUCSYDIR
 10
0.0
 20
1.0
 30
0.0
  9
$USERI1
 70
     3
  9
$USERI2
 70
     1
  9
$USERI3
 70
     0
  9
$USERI4
 70
     0
  9
$USERI5
 70
     0
  9
$USERR1
 40
1.0
  9
$USERR2
 40
3.0
  9
$USERR3
 40
3.0
  9
$USERR4
 40
3.0
  9
$USERR5
 40
10.0
  9
$WORLDVIEW
 70
     1
  9
$SHADEDGE
 70
     3
  9
$SHADEDIF
 70
    70
  9
$TILEMODE
 70
     1
  9
$MAXACTVP
 70
    16
  9
$PLIMCHECK
 70
     0
  9
$PEXTMIN
 10
1.0000000000000000E+020
 20
1.0000000000000000E+020
 30
1.0000000000000000E+020
  9
$PEXTMAX
 10
-1.0000000000000000E+020
 20
-1.0000000000000000E+020
 30
-1.0000000000000000E+020
  9
$PLIMMIN
 10
0.0
 20
0.0
  9
$PLIMMAX
 10
0.0
 20
0.0
  9
$UNITMODE
 70
     0
  9
$VISRETAIN
 70
     0
  9
$PLINEGEN
 70
     0
  9
$PSLTSCALE
 70
     0
  0
ENDSEC
  0
SECTION
  2
TABLES
  0
TABLE
  2
VPORT
 70
     1
  0
VPORT
  2
*ACTIVE
 70
     0
 10
0.0
 20
0.0
 11
1.0
 21
1.0
 12
227.76442307692309
 22
100.0
 13
0.0
 23
0.0
 14
5.0
 24
5.0
 15
10.0
 25
10.0
 16
0.0
 26
0.0
 36
1.0
 17
0.0
 27
0.0
 37
0.0
 40
200.0
 41
2.2776442307692299
 42
50.0
 43
0.0
 44
0.0
 50
0.0
 51
0.0
 71
    16
 72
   100
 73
     1
 74
     0
 75
     0
 76
     0
 77
     0
 78
     2
  0
ENDTAB
  0
TABLE
  2
LTYPE
 70
     3
  0
LTYPE
  2
CONTINUOUS
 70
     0
  3
Solid Line
 72
    65
 73
     0
 40
0.0
  0
LTYPE
  2
CENTER
 70
     0
  3
____ _ ____ _ ____ _ ____ _ ____ _ ____ _ ____
 72
    65
 73
     4
 40
2.0
 49
1.25
 49
-0.25
 49
0.25
 49
-0.25
  0
LTYPE
  2
PHANTOM2
 70
     0
  3
___ _ _ ___ _ _ ___ _ _ ___ _ _
 72
    65
 73
     6
 40
1.25
 49
0.625
 49
-0.125
 49
0.125
 49
-0.125
 49
0.125
 49
-0.125
  0
ENDTAB
  0
TABLE
  2
LAYER
 70
     4
  0
LAYER
  2
0
 70
     0
 62
     7
  6
CONTINUOUS
  0
LAYER
  2
1
 70
     0
 62
     1
  6
CENTER
  0
LAYER
  2
3
 70
     0
 62
     3
  6
CONTINUOUS
  0
LAYER
  2
DEFPOINTS
 70
     0
 62
     7
  6
CONTINUOUS
  0
ENDTAB
  0
TABLE
  2
STYLE
 70
     2
  0
STYLE
  2
STANDARD
 70
     0
 40
0.0
 41
1.0
 50
0.0
 71
     0
 42
0.2
  3
TXT
  4
BIGFONT
  0
STYLE
  2
STANDARD1
 70
     0
 40
0.0
 41
1.0
 50
0.0
 71
     0
 42
3.0
  3
txt
  4

  0
ENDTAB
  0
TABLE
  2
VIEW
 70
     0
  0
ENDTAB
  0
TABLE
  2
UCS
 70
     0
  0
ENDTAB
  0
TABLE
  2
APPID
 70
     6
  0
APPID
  2
ACAD
 70
     0
  0
APPID
  2
ACAD_MLEADERVER
 70
     0
  0
APPID
  2
ACAD_EXEMPT_FROM_CAD_STANDARDS
 70
     0
  0
APPID
  2
ACAD_NAV_VCDISPLAY
 70
     0
  0
APPID
  2
ACAD_DSTYLE_DIMJAG
 70
     0
  0
APPID
  2
ACAD_DSTYLE_DIMTALN
 70
     0
  0
ENDTAB
  0
TABLE
  2
DIMSTYLE
 70
     1
  0
DIMSTYLE
  2
STANDARD
 70
     0
  3

  4

  5

  6

  7

 40
1.0
 41
0.18
 42
0.0625
 43
0.38
 44
0.18
 45
0.0
 46
0.0
 47
0.0
 48
0.0
140
0.18
141
0.09
142
0.0
143
25.399999999999999
144
1.0
145
0.0
146
1.0
147
0.09
 71
     0
 72
     0
 73
     1
 74
     1
 75
     0
 76
     0
 77
     0
 78
     0
170
     0
171
     2
172
     0
173
     0
174
     0
175
     0
176
     0
177
     0
178
     0
  0
ENDTAB
  0
ENDSEC
  0
SECTION
  2
BLOCKS
  0
BLOCK
  8
0
  2
$MODEL_SPACE
 70
     0
 10
0.0
 20
0.0
 30
0.0
  3
$MODEL_SPACE
  1

  0
ENDBLK
  5
FD
  8
0
  0
BLOCK
 67
     1
  8
0
  2
$PAPER_SPACE
 70
     0
 10
0.0
 20
0.0
 30
0.0
  3
$PAPER_SPACE
  1

  0
ENDBLK
  5
FB
 67
     1
  8
0
  0
ENDSEC
  0
SECTION
  2
ENTITIES
  0
TEXT
  5
1B6
  8
0
 62
     3
 10
0.0
 20
0.0
 30
0.0
 40
5.0
  1
NUT-G3/4-NK
  7
STANDARD1
  0
CIRCLE
  5
8B0
  8
0
 10
50.0
 20
104.0
 30
0.0
 40
12.0585
  0
CIRCLE
  5
8B7
  8
3
 10
50.0
 20
104.0
 30
0.0
 40
13.220000000000001
  0
LINE
  5
8B9
  8
1
 10
30.0
 20
104.0
 30
0.0
 11
70.0
 21
104.0
 31
0.0
  0
LINE
  5
8BA
  8
1
 10
50.0
 20
84.0
 30
0.0
 11
50.0
 21
124.0
 31
0.0
  0
CIRCLE
  5
8BB
  8
0
 10
50.0
 20
104.0
 30
0.0
 40
14.999999999999989
  0
LINE
  5
A86
  8
0
 10
36.547059550168512
 20
113.5534492856395
 30
0.0
 11
48.452940449900012
 21
120.427312828
 31
0.0
  0
ARC
  5
A87
  8
0
 10
50.0
 20
104.0
 30
0.0
 40
16.5
 50
84.619977328699747
 51
95.380022671300253
  0
LINE
  5
A89
  8
0
 10
35.0
 20
97.126136457566218
 30
0.0
 11
35.0
 21
110.8738635425
 31
0.0
  0
ARC
  5
A8A
  8
0
 10
50.0
 20
104.0
 30
0.0
 40
16.499999999999989
 50
144.6199773286998
 51
155.38002267129951
  0
ARC
  5
A8C
  8
0
 10
50.0
 20
104.0
 30
0.0
 40
16.5
 50
24.619977328700521
 51
35.380022671300132
  0
LINE
  5
A8E
  8
0
 10
51.547059550133262
 20
120.4273128279807
 30
0.0
 11
63.452940449900012
 21
113.5534492856
 31
0.0
  0
LINE
  5
A91
  8
0
 10
48.452940449954163
 20
87.572687172011001
 30
0.0
 11
36.547059550200011
 21
94.446550714500006
 31
0.0
  0
ARC
  5
A92
  8
0
 10
50.0
 20
104.0
 30
0.0
 40
16.500000000000011
 50
204.61997732870049
 51
215.3800226713002
  0
LINE
  5
A95
  8
0
 10
63.452940450072333
 20
94.446550714699526
 30
0.0
 11
51.547059550100009
 21
87.572687172000002
 31
0.0
  0
ARC
  5
A96
  8
0
 10
50.0
 20
104.0
 30
0.0
 40
16.5
 50
264.6199773286998
 51
275.38002267130031
  0
ARC
  5
A98
  8
0
 10
50.0
 20
104.0
 30
0.0
 40
16.500000000000011
 50
324.61997732869992
 51
335.38002267129951
  0
LINE
  5
A9B
  8
0
 10
65.0
 20
110.8738635424337
 30
0.0
 11
65.0
 21
97.126136457600012
 31
0.0
  0
LINE
  5
AD1
  8
0
 10
100.9373040278999
 20
120.5
 30
0.0
 11
100.0
 21
119.0
 31
0.0
  0
LINE
  5
AD2
  8
0
 10
100.0
 20
89.0
 30
0.0
 11
100.9373040278999
 21
87.5
 31
0.0
  0
LINE
  5
AD3
  8
0
 10
104.0
 20
120.5
 30
0.0
 11
100.9373040278999
 21
120.5
 31
0.0
  0
LINE
  5
AD4
  8
0
 10
100.9373040278999
 20
87.5
 30
0.0
 11
104.0
 21
87.5
 31
0.0
  0
LINE
  5
AD5
  8
0
 10
104.0
 20
110.8738635425
 30
0.0
 11
100.9373040278999
 21
110.8738635425
 31
0.0
  0
LINE
  5
AD6
  8
0
 10
100.9373040278999
 20
113.5534492856
 30
0.0
 11
100.9373040278999
 21
110.8738635425
 31
0.0
  0
LINE
  5
AD7
  8
0
 10
104.0
 20
113.5534492856
 30
0.0
 11
100.9373040278999
 21
113.5534492856
 31
0.0
  0
LINE
  5
AD9
  8
0
 10
104.0
 20
94.446550714500006
 30
0.0
 11
100.9373040278999
 21
94.446550714500006
 31
0.0
  0
LINE
  5
ADA
  8
0
 10
100.9373040278999
 20
97.126136457600012
 30
0.0
 11
100.9373040278999
 21
94.446550714500006
 31
0.0
  0
LINE
  5
ADB
  8
0
 10
104.0
 20
97.126136457600012
 30
0.0
 11
100.9373040278999
 21
97.126136457600012
 31
0.0
  0
ARC
  5
ADD
  8
0
 10
126.8553487879
 20
103.83890323670001
 30
0.0
 40
26.855831967848061
 50
164.8140341715
 51
179.65630482060001
  0
ARC
  5
ADF
  8
0
 10
107.4254188245
 20
117.1691322201
 30
0.0
 40
7.4275700399194626
 50
181.37900767749991
 51
209.12995735170031
  0
ARC
  5
AE0
  8
0
 10
107.31362403590001
 20
90.861355933999988
 30
0.0
 40
7.3151266878335237
 50
150.65238551989961
 51
178.83864945089999
  0
ARC
  5
AE1
  8
0
 10
127.1376997860999
 20
104.1995974881
 30
0.0
 40
27.13843379480517
 50
180.42140223920021
 51
195.1082587687003
  0
LINE
  5
AE4
  8
0
 10
104.0
 20
87.572687172000002
 30
0.0
 11
100.9373040278999
 21
87.572687172000002
 31
0.0
  0
ARC
  5
AE5
  8
0
 10
107.4254188245
 20
91.188370106600004
 30
0.0
 40
7.427570039919356
 50
181.37900767749991
 51
209.12995735170031
  0
ARC
  5
AE7
  8
0
 10
107.31362403590001
 20
116.8421180476
 30
0.0
 40
7.3151266878342467
 50
150.65238551989961
 51
178.83864945089999
  0
LINE
  5
AE8
  8
0
 10
104.0
 20
120.427312828
 30
0.0
 11
100.9373040278999
 21
120.427312828
 31
0.0
  0
LINE
  5
AEA
  8
0
 10
100.9373040278999
 20
120.5
 30
0.0
 11
100.9373040278999
 21
120.427312828
 31
0.0
  0
LINE
  5
AEB
  8
0
 10
100.0
 20
119.0
 30
0.0
 11
100.0
 21
89.000000000000028
 31
0.0
  0
LINE
  5
AEC
  8
0
 10
100.9373040278999
 20
87.572687172000002
 30
0.0
 11
100.9373040278999
 21
87.5
 31
0.0
  0
LINE
  5
AEE
  8
0
 10
104.0
 20
87.5
 30
0.0
 11
104.0
 21
120.5
 31
0.0
  0
LINE
  5
AF0
  8
1
 10
97.0
 20
104.0
 30
0.0
 11
107.0
 21
104.0
 31
0.0
  0
LINE
  5
B0E
  8
0
 10
48.452940449900012
 20
50.0
 30
0.0
 11
48.452940449900012
 21
53.06269597219999
 31
0.0
  0
LINE
  5
B0F
  8
0
 10
51.547059550100009
 20
53.06269597219999
 30
0.0
 11
48.452940449900012
 21
53.06269597219999
 31
0.0
  0
LINE
  5
B10
  8
0
 10
51.547059550100009
 20
50.0
 30
0.0
 11
51.547059550100009
 21
53.06269597219999
 31
0.0
  0
ARC
  5
B13
  8
0
 10
57.683907190000014
 20
33.4593777491
 30
0.0
 40
20.54144552627389
 50
90.512974929999075
 51
107.38280604810051
  0
ARC
  5
B14
  8
0
 10
42.347454424400013
 20
33.658559462800021
 30
0.0
 40
20.3420125180002
 50
72.533886419900625
 51
89.57033260200059
  0
LINE
  5
B15
  8
0
 10
36.547059550200011
 20
50.0
 30
0.0
 11
36.547059550200011
 21
53.06269597219999
 31
0.0
  0
ARC
  5
B16
  8
0
 10
42.683907190000014
 20
33.4593777491
 30
0.0
 40
20.54144552627368
 50
90.512974929999075
 51
107.38280604810051
  0
ARC
  5
B18
  8
0
 10
57.347454424400013
 20
33.658559462800021
 30
0.0
 40
20.342012517997031
 50
72.533886419900625
 51
89.57033260200059
  0
LINE
  5
B19
  8
0
 10
63.452940449900012
 20
50.0
 30
0.0
 11
63.452940449900012
 21
53.06269597219999
 31
0.0
  0
LINE
  5
B1B
  8
0
 10
65.0
 20
53.06269597219999
 30
0.0
 11
63.452940449900012
 21
53.06269597219999
 31
0.0
  0
LINE
  5
B1C
  8
0
 10
65.0
 20
54.0
 30
0.0
 11
65.0
 21
50.0
 31
0.0
  0
LINE
  5
B1E
  8
0
 10
36.547059550200011
 20
53.06269597219999
 30
0.0
 11
35.0
 21
53.06269597219999
 31
0.0
  0
LINE
  5
B20
  8
0
 10
65.0
 20
54.0
 30
0.0
 11
35.0
 21
54.0
 31
0.0
  0
LINE
  5
B21
  8
0
 10
35.0
 20
50.0
 30
0.0
 11
35.0
 21
54.0
 31
0.0
  0
LINE
  5
B24
  8
0
 10
35.0
 20
50.0
 30
0.0
 11
65.0
 21
50.0
 31
0.0
  0
LINE
  5
B25
  8
1
 10
50.0
 20
57.0
 30
0.0
 11
50.0
 21
47.0
 31
0.0
  0
ENDSEC
  0
EOF
