  0
SECTION
  2
HEADER
  9
$ACADVER
  1
AC1009
  9
$INSBASE
 10
0.0
 20
0.0
 30
0.0
  9
$EXTMIN
 10
0.0
 20
-2.960436562073669
 30
0.0
  9
$EXTMAX
 10
809.55385884950283
 20
756.24458270600906
 30
0.0
  9
$LIMMIN
 10
0.0
 20
0.0
  9
$LIMMAX
 10
375.0
 20
270.0
  9
$ORTHOMODE
 70
     1
  9
$REGENMODE
 70
     1
  9
$FILLMODE
 70
     1
  9
$QTEXTMODE
 70
     0
  9
$MIRRTEXT
 70
     0
  9
$DRAGMODE
 70
     2
  9
$LTSCALE
 40
10.0
  9
$OSMODE
 70
  3071
  9
$ATTMODE
 70
     1
  9
$TEXTSIZE
 40
0.2
  9
$TRACEWID
 40
0.05
  9
$TEXTSTYLE
  7
STANDARD
  9
$CLAYER
  8
0
  9
$CELTYPE
  6
BYLAYER
  9
$CECOLOR
 62
   256
  9
$DIMSCALE
 40
1.0
  9
$DIMASZ
 40
3.0
  9
$DIMEXO
 40
2.0
  9
$DIMDLI
 40
0.38
  9
$DIMRND
 40
0.0
  9
$DIMDLE
 40
0.0
  9
$DIMEXE
 40
2.0
  9
$DIMTP
 40
0.0
  9
$DIMTM
 40
0.0
  9
$DIMTXT
 40
3.2000000000000002
  9
$DIMCEN
 40
0.0
  9
$DIMTSZ
 40
0.0
  9
$DIMTOL
 70
     0
  9
$DIMLIM
 70
     0
  9
$DIMTIH
 70
     0
  9
$DIMTOH
 70
     0
  9
$DIMSE1
 70
     0
  9
$DIMSE2
 70
     0
  9
$DIMTAD
 70
     1
  9
$DIMZIN
 70
     8
  9
$DIMBLK
  1

  9
$DIMASO
 70
     1
  9
$DIMSHO
 70
     0
  9
$DIMPOST
  1

  9
$DIMAPOST
  1

  9
$DIMALT
 70
     0
  9
$DIMALTD
 70
     2
  9
$DIMALTF
 40
25.399999999999999
  9
$DIMLFAC
 40
1.0
  9
$DIMTOFL
 70
     1
  9
$DIMTVP
 40
1.6000000000000001
  9
$DIMTIX
 70
     1
  9
$DIMSOXD
 70
     0
  9
$DIMSAH
 70
     0
  9
$DIMBLK1
  1

  9
$DIMBLK2
  1

  9
$DIMSTYLE
  2
STANDARD
  9
$DIMCLRD
 70
     0
  9
$DIMCLRE
 70
     0
  9
$DIMCLRT
 70
     0
  9
$DIMTFAC
 40
1.0
  9
$DIMGAP
 40
1.5
  9
$LUNITS
 70
     2
  9
$LUPREC
 70
     4
  9
$SKETCHINC
 40
0.1
  9
$FILLETRAD
 40
0.0
  9
$AUNITS
 70
     1
  9
$AUPREC
 70
     4
  9
$MENU
  1
E:\r13\win\SUPPORT\ACAD
  9
$ELEVATION
 40
0.0
  9
$PELEVATION
 40
0.0
  9
$THICKNESS
 40
0.0
  9
$LIMCHECK
 70
     0
  9
$BLIPMODE
 70
     0
  9
$CHAMFERA
 40
0.0
  9
$CHAMFERB
 40
0.0
  9
$SKPOLY
 70
     0
  9
$TDCREATE
 40
2449839.7800462958
  9
$TDUPDATE
 40
2456597.700980417
  9
$TDINDWG
 40
1.0125546296000001
  9
$TDUSRTIMER
 40
1.0125546296000001
  9
$USRTIMER
 70
     1
  9
$ANGBASE
 50
0.0
  9
$ANGDIR
 70
     0
  9
$PDMODE
 70
     0
  9
$PDSIZE
 40
0.0
  9
$PLINEWID
 40
0.0
  9
$COORDS
 70
     1
  9
$SPLFRAME
 70
     0
  9
$SPLINETYPE
 70
     6
  9
$SPLINESEGS
 70
     8
  9
$ATTDIA
 70
     0
  9
$ATTREQ
 70
     1
  9
$HANDLING
 70
     1
  9
$HANDSEED
  5
9914
  9
$SURFTAB1
 70
     6
  9
$SURFTAB2
 70
     6
  9
$SURFTYPE
 70
     6
  9
$SURFU
 70
     6
  9
$SURFV
 70
     6
  9
$UCSNAME
  2

  9
$UCSORG
 10
0.0
 20
0.0
 30
0.0
  9
$UCSXDIR
 10
1.0
 20
0.0
 30
0.0
  9
$UCSYDIR
 10
0.0
 20
1.0
 30
0.0
  9
$PUCSNAME
  2

  9
$PUCSORG
 10
0.0
 20
0.0
 30
0.0
  9
$PUCSXDIR
 10
1.0
 20
0.0
 30
0.0
  9
$PUCSYDIR
 10
0.0
 20
1.0
 30
0.0
  9
$USERI1
 70
     0
  9
$USERI2
 70
     1
  9
$USERI3
 70
     1
  9
$USERI4
 70
     0
  9
$USERI5
 70
     0
  9
$USERR1
 40
0.0
  9
$USERR2
 40
0.0
  9
$USERR3
 40
0.0
  9
$USERR4
 40
0.0
  9
$USERR5
 40
0.0
  9
$WORLDVIEW
 70
     1
  9
$SHADEDGE
 70
     3
  9
$SHADEDIF
 70
    70
  9
$TILEMODE
 70
     1
  9
$MAXACTVP
 70
    16
  9
$PLIMCHECK
 70
     0
  9
$PEXTMIN
 10
1.0000000000000000E+020
 20
1.0000000000000000E+020
 30
1.0000000000000000E+020
  9
$PEXTMAX
 10
-1.0000000000000000E+020
 20
-1.0000000000000000E+020
 30
-1.0000000000000000E+020
  9
$PLIMMIN
 10
0.0
 20
0.0
  9
$PLIMMAX
 10
12.0
 20
9.0
  9
$UNITMODE
 70
     0
  9
$VISRETAIN
 70
     0
  9
$PLINEGEN
 70
     0
  9
$PSLTSCALE
 70
     0
  0
ENDSEC
  0
SECTION
  2
TABLES
  0
TABLE
  2
VPORT
 70
     1
  0
VPORT
  2
*ACTIVE
 70
     0
 10
0.0
 20
0.0
 11
1.0
 21
1.0
 12
404.77693130964082
 22
378.29461496655381
 13
0.0
 23
0.0
 14
10.0
 24
10.0
 15
10.0
 25
10.0
 16
0.0
 26
0.0
 36
1.0
 17
0.0
 27
0.0
 37
0.0
 40
771.24728529860147
 41
2.304913294797688
 42
50.0
 43
0.0
 44
0.0
 50
0.0
 51
0.0
 71
     0
 72
   500
 73
     1
 74
     0
 75
     0
 76
     0
 77
     0
 78
     2
  0
ENDTAB
  0
TABLE
  2
LTYPE
 70
     4
  0
LTYPE
  2
CONTINUOUS
 70
     0
  3
Solid Line
 72
    65
 73
     0
 40
0.0
  0
LTYPE
  2
CENTER
 70
     0
  3
____ _ ____ _ ____ _ ____ _ ____ _ ____ _ ____
 72
    65
 73
     4
 40
2.0
 49
1.25
 49
-0.25
 49
0.25
 49
-0.25
  0
LTYPE
  2
HIDDEN
 70
     0
  3
_ _ _ _ _ _ _ _ _ _ _ _ _ _ _ _ _ _ _ _ _ _ _
 72
    65
 73
     2
 40
0.375
 49
0.25
 49
-0.125
  0
LTYPE
  2
PHANTOM2
 70
     0
  3
___ _ _ ___ _ _ ___ _ _ ___ _ _
 72
    65
 73
     6
 40
1.25
 49
0.625
 49
-0.125
 49
0.125
 49
-0.125
 49
0.125
 49
-0.125
  0
ENDTAB
  0
TABLE
  2
LAYER
 70
     4
  0
LAYER
  2
0
 70
     0
 62
     7
  6
CONTINUOUS
  0
LAYER
  2
1
 70
     0
 62
     1
  6
CENTER
  0
LAYER
  2
2
 70
     0
 62
     2
  6
HIDDEN
  0
LAYER
  2
DEFPOINTS
 70
     0
 62
     7
  6
CONTINUOUS
  0
ENDTAB
  0
TABLE
  2
STYLE
 70
     2
  0
STYLE
  2
STANDARD
 70
     0
 40
0.0
 41
1.0
 50
0.0
 71
     0
 42
0.2
  3
TXT
  4
BIGFONT
  0
STYLE
  2
STANDARD1
 70
     0
 40
0.0
 41
1.0
 50
0.0
 71
     0
 42
3.0
  3
txt
  4

  0
ENDTAB
  0
TABLE
  2
VIEW
 70
     1
  0
VIEW
  2
ALL
 70
     0
 40
270.0
 10
220.99159663865549
 20
135.0
 41
0.0
 11
0.0
 21
0.0
 31
1.0
 12
0.0
 22
0.0
 32
0.0
 42
0.0
 43
0.0
 44
0.0
 50
0.0
 71
     0
  0
ENDTAB
  0
TABLE
  2
UCS
 70
     0
  0
ENDTAB
  0
TABLE
  2
APPID
 70
     8
  0
APPID
  2
ACAD
 70
     0
  0
APPID
  2
ACAD_MLEADERVER
 70
     0
  0
APPID
  2
ACAD_EXEMPT_FROM_CAD_STANDARDS
 70
     0
  0
APPID
  2
ACAD_DSTYLE_DIMJAG
 70
     0
  0
APPID
  2
ACAD_DSTYLE_DIMTALN
 70
     0
  0
APPID
  2
ACAD_DSTYLE_DIMRADIAL_EXTENSION
 70
     0
  0
APPID
  2
ACAD_PSEXT
 70
     0
  0
APPID
  2
ACAD_NAV_VCDISPLAY
 70
     0
  0
ENDTAB
  0
TABLE
  2
DIMSTYLE
 70
     1
  0
DIMSTYLE
  2
STANDARD
 70
     0
  3

  4

  5

  6

  7

 40
1.0
 41
0.18
 42
0.0625
 43
0.38
 44
0.18
 45
0.0
 46
0.0
 47
0.0
 48
0.0
140
0.18
141
0.09
142
0.0
143
25.399999999999999
144
1.0
145
0.0
146
1.0
147
0.09
 71
     0
 72
     0
 73
     1
 74
     1
 75
     0
 76
     0
 77
     0
 78
     0
170
     0
171
     2
172
     0
173
     0
174
     0
175
     0
176
     0
177
     0
178
     0
  0
ENDTAB
  0
ENDSEC
  0
SECTION
  2
BLOCKS
  0
BLOCK
  8
0
  2
$MODEL_SPACE
 70
     0
 10
0.0
 20
0.0
 30
0.0
  3
$MODEL_SPACE
  1

  0
ENDBLK
  5
11B
  8
0
  0
BLOCK
 67
     1
  8
0
  2
$PAPER_SPACE
 70
     0
 10
0.0
 20
0.0
 30
0.0
  3
$PAPER_SPACE
  1

  0
ENDBLK
  5
119
 67
     1
  8
0
  0
ENDSEC
  0
SECTION
  2
ENTITIES
  0
CIRCLE
  5
493E
  8
0
 10
309.11530662936087
 20
589.71077176377605
 30
0.0
 40
149.0
  0
CIRCLE
  5
4941
  8
0
 10
309.11530662936087
 20
589.71077176377605
 30
0.0
 40
143.02223253410219
  0
CIRCLE
  5
4947
  8
0
 10
309.11530662936087
 20
589.71077176377605
 30
0.0
 40
33.0
  0
POLYLINE
  5
4948
  8
0
 66
     1
 10
0.0
 20
0.0
 30
0.0
  0
VERTEX
  5
95E0
  8
0
 10
263.2364465585415
 20
681.65893283642936
 30
0.0
  0
VERTEX
  5
95E1
  8
0
 10
263.29036421084862
 20
681.68553082985056
 30
0.0
  0
VERTEX
  5
95E2
  8
0
 10
263.39938064382659
 20
681.737470590459
 30
0.0
  0
VERTEX
  5
95E3
  8
0
 10
263.50992352666981
 20
681.78767869637215
 30
0.0
  0
VERTEX
  5
95E4
  8
0
 10
263.56574866962183
 20
681.81211277675766
 30
0.0
  0
VERTEX
  5
95E5
  8
0
 10
263.62193268441109
 20
681.83608958646312
 30
0.0
  0
VERTEX
  5
95E6
  8
0
 10
263.73534578896579
 20
681.88264067162299
 30
0.0
  0
VERTEX
  5
95E7
  8
0
 10
263.85009865310531
 20
681.92727248419169
 30
0.0
  0
VERTEX
  5
95E8
  8
0
 10
263.96612553364503
 20
681.9699287998352
 30
0.0
  0
VERTEX
  5
95E9
  8
0
 10
264.08335944457031
 20
682.01055673221845
 30
0.0
  0
VERTEX
  5
95EA
  8
0
 10
264.20173248076571
 20
682.04910680052808
 30
0.0
  0
VERTEX
  5
95EB
  8
0
 10
264.26132478132791
 20
682.06758811453756
 30
0.0
  0
VERTEX
  5
95EC
  8
0
 10
264.321176152791
 20
682.08553296958189
 30
0.0
  0
VERTEX
  5
95ED
  8
0
 10
264.4416217330072
 20
682.11979266206492
 30
0.0
  0
VERTEX
  5
95EE
  8
0
 10
264.56300059290328
 20
682.15184673699662
 30
0.0
  0
VERTEX
  5
95EF
  8
0
 10
264.68524379273907
 20
682.18165926363474
 30
0.0
  0
VERTEX
  5
95F0
  8
0
 10
264.80828079033739
 20
682.20919716745414
 30
0.0
  0
VERTEX
  5
95F1
  8
0
 10
264.93203939443993
 20
682.23443028133772
 30
0.0
  0
VERTEX
  5
95F2
  8
0
 10
264.99416636105713
 20
682.24617394081599
 30
0.0
  0
VERTEX
  5
95F3
  8
0
 10
265.0564460608457
 20
682.2573314692487
 30
0.0
  0
VERTEX
  5
95F4
  8
0
 10
265.18142619148972
 20
682.2778767227752
 30
0.0
  0
VERTEX
  5
95F5
  8
0
 10
265.3069044364147
 20
682.29604523089586
 30
0.0
  0
VERTEX
  5
95F6
  8
0
 10
265.36980667433272
 20
682.30423258746725
 30
0.0
  0
VERTEX
  5
95F7
  8
0
 10
265.43280499906177
 20
682.31181942327623
 30
0.0
  0
VERTEX
  5
95F8
  8
0
 10
265.55905194517982
 20
682.32518498717639
 30
0.0
  0
VERTEX
  5
95F9
  8
0
 10
265.68556951568098
 20
682.33613085788738
 30
0.0
  0
VERTEX
  5
95FA
  8
0
 10
265.74890623619649
 20
682.3406938303275
 30
0.0
  0
VERTEX
  5
95FB
  8
0
 10
265.81228244370681
 20
682.34464918242122
 30
0.0
  0
VERTEX
  5
95FC
  8
0
 10
265.93912747967443
 20
682.35073568599239
 30
0.0
  0
VERTEX
  5
95FD
  8
0
 10
266.06605825143021
 20
682.35438859285171
 30
0.0
  0
VERTEX
  5
95FE
  8
0
 10
266.19300091165678
 20
682.35560699969722
 30
0.0
  0
VERTEX
  5
95FF
  8
0
 10
266.31987934726931
 20
682.35439302476016
 30
0.0
  0
VERTEX
  5
9600
  8
0
 10
266.446616791407
 20
682.35075196523076
 30
0.0
  0
VERTEX
  5
9601
  8
0
 10
266.50990854983502
 20
682.34802381751854
 30
0.0
  0
VERTEX
  5
9602
  8
0
 10
266.57313613443148
 20
682.34469235253493
 30
0.0
  0
VERTEX
  5
9603
  8
0
 10
266.69936023313682
 20
682.33622598073418
 30
0.0
  0
VERTEX
  5
9604
  8
0
 10
266.82521221847861
 20
682.32536790833694
 30
0.0
  0
VERTEX
  5
9605
  8
0
 10
266.95061580210859
 20
682.31213643360707
 30
0.0
  0
VERTEX
  5
9606
  8
0
 10
267.07549558215578
 20
682.29655304330618
 30
0.0
  0
VERTEX
  5
9607
  8
0
 10
267.19977734864727
 20
682.27864233458467
 30
0.0
  0
VERTEX
  5
9608
  8
0
 10
267.2616711861865
 20
682.26882274772788
 30
0.0
  0
VERTEX
  5
9609
  8
0
 10
267.32338833673572
 20
682.25843191861486
 30
0.0
  0
VERTEX
  5
960A
  8
0
 10
267.44625652173642
 20
682.23595248712127
 30
0.0
  0
VERTEX
  5
960B
  8
0
 10
267.56830946265472
 20
682.21123806494563
 30
0.0
  0
VERTEX
  5
960C
  8
0
 10
267.6894744370602
 20
682.18432610767161
 30
0.0
  0
VERTEX
  5
960D
  8
0
 10
267.8096787891082
 20
682.15525753948396
 30
0.0
  0
VERTEX
  5
960E
  8
0
 10
267.92885026869948
 20
682.12407676199894
 30
0.0
  0
VERTEX
  5
960F
  8
0
 10
267.98802629559759
 20
682.10770911690588
 30
0.0
  0
VERTEX
  5
9610
  8
0
 10
268.04691736188209
 20
682.090831634751
 30
0.0
  0
VERTEX
  5
9611
  8
0
 10
268.16380961287001
 20
682.05557342782743
 30
0.0
  0
VERTEX
  5
9612
  8
0
 10
268.2794579382462
 20
682.0183567468481
 30
0.0
  0
VERTEX
  5
9613
  8
0
 10
268.39379493410712
 20
681.97923943024807
 30
0.0
  0
VERTEX
  5
9614
  8
0
 10
268.50675517704798
 20
681.93828241849189
 30
0.0
  0
VERTEX
  5
9615
  8
0
 10
268.61893287436209
 20
681.89529084467961
 30
0.0
  0
VERTEX
  5
9616
  8
0
 10
268.67495817149029
 20
681.87293930404905
 30
0.0
  0
VERTEX
  5
9617
  8
0
 10
268.73092639178873
 20
681.8500166307
 30
0.0
  0
VERTEX
  5
9618
  8
0
 10
268.84264758179779
 20
681.80245737140331
 30
0.0
  0
VERTEX
  5
9619
  8
0
 10
268.95400880843408
 20
681.75261426447435
 30
0.0
  0
VERTEX
  5
961A
  8
0
 10
269.06492329611319
 20
681.70049199643336
 30
0.0
  0
VERTEX
  5
961B
  8
0
 10
269.17530542420542
 20
681.64609861902727
 30
0.0
  0
VERTEX
  5
961C
  8
0
 10
269.28507100820212
 20
681.58944540092364
 30
0.0
  0
VERTEX
  5
961D
  8
0
 10
269.33969674750369
 20
681.56027571056222
 30
0.0
  0
VERTEX
  5
961E
  8
0
 10
269.39413756812058
 20
681.53054665439095
 30
0.0
  0
VERTEX
  5
961F
  8
0
 10
269.50242458446883
 20
681.46941953654334
 30
0.0
  0
VERTEX
  5
9620
  8
0
 10
269.60985374185287
 20
681.40608382465007
 30
0.0
  0
VERTEX
  5
9621
  8
0
 10
269.66322280966602
 20
681.37359458152753
 30
0.0
  0
VERTEX
  5
9622
  8
0
 10
269.71634915994042
 20
681.34056166500579
 30
0.0
  0
VERTEX
  5
9623
  8
0
 10
269.82183745271499
 20
681.27287739869507
 30
0.0
  0
VERTEX
  5
9624
  8
0
 10
269.92624674503168
 20
681.20305808812066
 30
0.0
  0
VERTEX
  5
9625
  8
0
 10
269.97802454267372
 20
681.16735711238982
 30
0.0
  0
VERTEX
  5
9626
  8
0
 10
270.02950605288061
 20
681.13113394932998
 30
0.0
  0
VERTEX
  5
9627
  8
0
 10
270.13154552259948
 20
681.05713826614146
 30
0.0
  0
VERTEX
  5
9628
  8
0
 10
270.23229670623732
 20
680.98110725192294
 30
0.0
  0
VERTEX
  5
9629
  8
0
 10
270.33169281945987
 20
680.90307989183066
 30
0.0
  0
VERTEX
  5
962A
  8
0
 10
270.42966898262421
 20
680.82309776551347
 30
0.0
  0
VERTEX
  5
962B
  8
0
 10
270.52616244535778
 20
680.74120485016886
 30
0.0
  0
VERTEX
  5
962C
  8
0
 10
270.57383418841709
 20
680.69955619211089
 30
0.0
  0
VERTEX
  5
962D
  8
0
 10
270.6211127949864
 20
680.65744730369136
 30
0.0
  0
VERTEX
  5
962E
  8
0
 10
270.71446214886419
 20
680.5718732276224
 30
0.0
  0
VERTEX
  5
962F
  8
0
 10
270.80615578881412
 20
680.48453196452976
 30
0.0
  0
VERTEX
  5
9630
  8
0
 10
270.89615921837321
 20
680.39545668654284
 30
0.0
  0
VERTEX
  5
9631
  8
0
 10
270.9844299839769
 20
680.30469035997567
 30
0.0
  0
VERTEX
  5
9632
  8
0
 10
271.07091739897987
 20
680.21228782050957
 30
0.0
  0
VERTEX
  5
9633
  8
0
 10
271.1134769678938
 20
680.16549084719236
 30
0.0
  0
VERTEX
  5
9634
  8
0
 10
271.15557247586912
 20
680.11830659351892
 30
0.0
  0
VERTEX
  5
9635
  8
0
 10
271.23834818237452
 20
680.02280672026575
 30
0.0
  0
VERTEX
  5
9636
  8
0
 10
271.31919967729482
 20
679.92585056767223
 30
0.0
  0
VERTEX
  5
9637
  8
0
 10
271.39808452646503
 20
679.82750262172488
 30
0.0
  0
VERTEX
  5
9638
  8
0
 10
271.47496289925402
 20
679.72782926441278
 30
0.0
  0
VERTEX
  5
9639
  8
0
 10
271.54979774582722
 20
679.62689853392976
 30
0.0
  0
VERTEX
  5
963A
  8
0
 10
271.58643806841428
 20
679.57598330567589
 30
0.0
  0
VERTEX
  5
963B
  8
0
 10
271.62255495538562
 20
679.52477986770236
 30
0.0
  0
VERTEX
  5
963C
  8
0
 10
271.6932034952697
 20
679.42154382783485
 30
0.0
  0
VERTEX
  5
963D
  8
0
 10
271.76171539278039
 20
679.31726202286211
 30
0.0
  0
VERTEX
  5
963E
  8
0
 10
271.82806505712318
 20
679.2120081026502
 30
0.0
  0
VERTEX
  5
963F
  8
0
 10
271.89222903026172
 20
679.10585831017363
 30
0.0
  0
VERTEX
  5
9640
  8
0
 10
271.9541862376791
 20
678.99889130205565
 30
0.0
  0
VERTEX
  5
9641
  8
0
 10
271.98433143156763
 20
678.94512652704054
 30
0.0
  0
VERTEX
  5
9642
  8
0
 10
272.01391823558879
 20
678.89118792292038
 30
0.0
  0
VERTEX
  5
9643
  8
0
 10
272.07140943228302
 20
678.78283096694361
 30
0.0
  0
VERTEX
  5
9644
  8
0
 10
272.12664728413438
 20
678.67390492675486
 30
0.0
  0
VERTEX
  5
9645
  8
0
 10
272.1796224668505
 20
678.56449572957229
 30
0.0
  0
VERTEX
  5
9646
  8
0
 10
272.23032902242812
 20
678.45469046013977
 30
0.0
  0
VERTEX
  5
9647
  8
0
 10
272.2787644822111
 20
678.34457706972216
 30
0.0
  0
VERTEX
  5
9648
  8
0
 10
272.3021307587897
 20
678.28943247588586
 30
0.0
  0
VERTEX
  5
9649
  8
0
 10
272.32497018207499
 20
678.2341454629983
 30
0.0
  0
VERTEX
  5
964A
  8
0
 10
272.36936083527689
 20
678.12240898125094
 30
0.0
  0
VERTEX
  5
964B
  8
0
 10
272.41198602609438
 20
678.00914614823387
 30
0.0
  0
VERTEX
  5
964C
  8
0
 10
272.43261411568352
 20
677.95196454367635
 30
0.0
  0
VERTEX
  5
964D
  8
0
 10
272.4527743495201
 20
677.89442827264304
 30
0.0
  0
VERTEX
  5
964E
  8
0
 10
272.49165812017782
 20
677.77832887060833
 30
0.0
  0
VERTEX
  5
964F
  8
0
 10
272.52857352390669
 20
677.66092331504706
 30
0.0
  0
VERTEX
  5
9650
  8
0
 10
272.54627423465718
 20
677.60175470283014
 30
0.0
  0
VERTEX
  5
9651
  8
0
 10
272.56346073643732
 20
677.54228847460456
 30
0.0
  0
VERTEX
  5
9652
  8
0
 10
272.596264009484
 20
677.42250234069581
 30
0.0
  0
VERTEX
  5
9653
  8
0
 10
272.62693172409848
 20
677.30164364136783
 30
0.0
  0
VERTEX
  5
9654
  8
0
 10
272.65541641082382
 20
677.17979144094863
 30
0.0
  0
VERTEX
  5
9655
  8
0
 10
272.68167473477843
 20
677.05702472925395
 30
0.0
  0
VERTEX
  5
9656
  8
0
 10
272.70566735064858
 20
676.9334225125682
 30
0.0
  0
VERTEX
  5
9657
  8
0
 10
272.71680272229611
 20
676.87133315334859
 30
0.0
  0
VERTEX
  5
9658
  8
0
 10
272.72735856233339
 20
676.80906522554835
 30
0.0
  0
VERTEX
  5
9659
  8
0
 10
272.7467163173169
 20
676.68403505353444
 30
0.0
  0
VERTEX
  5
965A
  8
0
 10
272.7637123323384
 20
676.55841558292605
 30
0.0
  0
VERTEX
  5
965B
  8
0
 10
272.77832218881122
 20
676.43229143794406
 30
0.0
  0
VERTEX
  5
965C
  8
0
 10
272.79052539587241
 20
676.30574791506172
 30
0.0
  0
VERTEX
  5
965D
  8
0
 10
272.80030542133142
 20
676.178870614022
 30
0.0
  0
VERTEX
  5
965E
  8
0
 10
272.80428265748742
 20
676.11533353775633
 30
0.0
  0
VERTEX
  5
965F
  8
0
 10
272.80764969054871
 20
676.05174506445894
 30
0.0
  0
VERTEX
  5
9660
  8
0
 10
272.81254955289842
 20
675.92445634720525
 30
0.0
  0
VERTEX
  5
9661
  8
0
 10
272.8150002507773
 20
675.79708501541211
 30
0.0
  0
VERTEX
  5
9662
  8
0
 10
272.81530662935978
 20
675.73338477800155
 30
0.0
  0
SEQEND
  5
9663
  8
0
  0
ARC
  5
4949
  8
0
 10
309.11530662936087
 20
589.71077176377605
 30
0.0
 40
102.7586206896552
 50
116.5175636329726
 51
243.48243649992611
  0
POLYLINE
  5
494A
  8
0
 66
     1
 10
0.0
 20
0.0
 30
0.0
  0
VERTEX
  5
9664
  8
0
 10
272.81530662935978
 20
503.6881587495505
 30
0.0
  0
VERTEX
  5
9665
  8
0
 10
272.8150002507773
 20
503.62445851214
 30
0.0
  0
VERTEX
  5
9666
  8
0
 10
272.81254955289842
 20
503.49708718034668
 30
0.0
  0
VERTEX
  5
9667
  8
0
 10
272.80764969054871
 20
503.3697984630931
 30
0.0
  0
VERTEX
  5
9668
  8
0
 10
272.80428265748742
 20
503.30620998979572
 30
0.0
  0
VERTEX
  5
9669
  8
0
 10
272.80030542133142
 20
503.2426729135301
 30
0.0
  0
VERTEX
  5
966A
  8
0
 10
272.79052539587241
 20
503.11579561249039
 30
0.0
  0
VERTEX
  5
966B
  8
0
 10
272.77832218881122
 20
502.98925208960787
 30
0.0
  0
VERTEX
  5
966C
  8
0
 10
272.7637123323384
 20
502.86312794462589
 30
0.0
  0
VERTEX
  5
966D
  8
0
 10
272.7467163173169
 20
502.73750847401749
 30
0.0
  0
VERTEX
  5
966E
  8
0
 10
272.72735856233339
 20
502.61247830200369
 30
0.0
  0
VERTEX
  5
966F
  8
0
 10
272.71680272229611
 20
502.55021037420329
 30
0.0
  0
VERTEX
  5
9670
  8
0
 10
272.70566735064858
 20
502.4881210149839
 30
0.0
  0
VERTEX
  5
9671
  8
0
 10
272.68167473477843
 20
502.36451879829798
 30
0.0
  0
VERTEX
  5
9672
  8
0
 10
272.65541641082382
 20
502.24175208660341
 30
0.0
  0
VERTEX
  5
9673
  8
0
 10
272.62693172409848
 20
502.11989988618433
 30
0.0
  0
VERTEX
  5
9674
  8
0
 10
272.596264009484
 20
501.99904118685629
 30
0.0
  0
VERTEX
  5
9675
  8
0
 10
272.56346073643732
 20
501.87925505294749
 30
0.0
  0
VERTEX
  5
9676
  8
0
 10
272.54627423465718
 20
501.81978882472191
 30
0.0
  0
VERTEX
  5
9677
  8
0
 10
272.52857352390669
 20
501.76062021250488
 30
0.0
  0
VERTEX
  5
9678
  8
0
 10
272.49165812017782
 20
501.64321465694371
 30
0.0
  0
VERTEX
  5
9679
  8
0
 10
272.4527743495201
 20
501.52711525490901
 30
0.0
  0
VERTEX
  5
967A
  8
0
 10
272.43261411568352
 20
501.46957898387569
 30
0.0
  0
VERTEX
  5
967B
  8
0
 10
272.41198602609438
 20
501.41239737931812
 30
0.0
  0
VERTEX
  5
967C
  8
0
 10
272.36936083527689
 20
501.2991345463011
 30
0.0
  0
VERTEX
  5
967D
  8
0
 10
272.32497018207499
 20
501.1873980645538
 30
0.0
  0
VERTEX
  5
967E
  8
0
 10
272.3021307587897
 20
501.13211105166607
 30
0.0
  0
VERTEX
  5
967F
  8
0
 10
272.2787644822111
 20
501.07696645782971
 30
0.0
  0
VERTEX
  5
9680
  8
0
 10
272.23032902242812
 20
500.9668530674121
 30
0.0
  0
VERTEX
  5
9681
  8
0
 10
272.1796224668505
 20
500.85704779797982
 30
0.0
  0
VERTEX
  5
9682
  8
0
 10
272.12664728413438
 20
500.74763860079707
 30
0.0
  0
VERTEX
  5
9683
  8
0
 10
272.07140943228302
 20
500.63871256060838
 30
0.0
  0
VERTEX
  5
9684
  8
0
 10
272.01391823558879
 20
500.53035560463161
 30
0.0
  0
VERTEX
  5
9685
  8
0
 10
271.98433143156763
 20
500.4764170005115
 30
0.0
  0
VERTEX
  5
9686
  8
0
 10
271.9541862376791
 20
500.42265222549628
 30
0.0
  0
VERTEX
  5
9687
  8
0
 10
271.89222903026172
 20
500.31568521737842
 30
0.0
  0
VERTEX
  5
9688
  8
0
 10
271.82806505712318
 20
500.2095354249019
 30
0.0
  0
VERTEX
  5
9689
  8
0
 10
271.76171539278221
 20
500.10428150468999
 30
0.0
  0
VERTEX
  5
968A
  8
0
 10
271.6932034952697
 20
499.99999969971719
 30
0.0
  0
VERTEX
  5
968B
  8
0
 10
271.62255495538562
 20
499.89676365984963
 30
0.0
  0
VERTEX
  5
968C
  8
0
 10
271.58643806841428
 20
499.84556022187599
 30
0.0
  0
VERTEX
  5
968D
  8
0
 10
271.54979774582722
 20
499.79464499362223
 30
0.0
  0
VERTEX
  5
968E
  8
0
 10
271.47496289925402
 20
499.6937142631391
 30
0.0
  0
VERTEX
  5
968F
  8
0
 10
271.39808452646503
 20
499.59404090582723
 30
0.0
  0
VERTEX
  5
9690
  8
0
 10
271.31919967729482
 20
499.49569295987988
 30
0.0
  0
VERTEX
  5
9691
  8
0
 10
271.23834818237452
 20
499.3987368072863
 30
0.0
  0
VERTEX
  5
9692
  8
0
 10
271.15557247586912
 20
499.30323693403318
 30
0.0
  0
VERTEX
  5
9693
  8
0
 10
271.1134769678938
 20
499.25605268035957
 30
0.0
  0
VERTEX
  5
9694
  8
0
 10
271.07091739897987
 20
499.2092557070423
 30
0.0
  0
VERTEX
  5
9695
  8
0
 10
270.9844299839769
 20
499.11685316757632
 30
0.0
  0
VERTEX
  5
9696
  8
0
 10
270.89615921837321
 20
499.0260868410092
 30
0.0
  0
VERTEX
  5
9697
  8
0
 10
270.80615578881412
 20
498.93701156302228
 30
0.0
  0
VERTEX
  5
9698
  8
0
 10
270.71446214886419
 20
498.8496702999297
 30
0.0
  0
VERTEX
  5
9699
  8
0
 10
270.6211127949864
 20
498.76409622386069
 30
0.0
  0
VERTEX
  5
969A
  8
0
 10
270.57383418841709
 20
498.72198733544121
 30
0.0
  0
VERTEX
  5
969B
  8
0
 10
270.52616244535778
 20
498.68033867738319
 30
0.0
  0
VERTEX
  5
969C
  8
0
 10
270.42966898262421
 20
498.59844576203852
 30
0.0
  0
VERTEX
  5
969D
  8
0
 10
270.33169281945987
 20
498.51846363572128
 30
0.0
  0
VERTEX
  5
969E
  8
0
 10
270.23229670623732
 20
498.44043627562922
 30
0.0
  0
VERTEX
  5
969F
  8
0
 10
270.13154552259948
 20
498.36440526141052
 30
0.0
  0
VERTEX
  5
96A0
  8
0
 10
270.02950605288061
 20
498.2904095782219
 30
0.0
  0
VERTEX
  5
96A1
  8
0
 10
269.97802454267372
 20
498.25418641516222
 30
0.0
  0
VERTEX
  5
96A2
  8
0
 10
269.92624674503168
 20
498.21848543943139
 30
0.0
  0
VERTEX
  5
96A3
  8
0
 10
269.82183745271499
 20
498.14866612885692
 30
0.0
  0
VERTEX
  5
96A4
  8
0
 10
269.71634915994042
 20
498.08098186254631
 30
0.0
  0
VERTEX
  5
96A5
  8
0
 10
269.66322280966602
 20
498.04794894602452
 30
0.0
  0
VERTEX
  5
96A6
  8
0
 10
269.60985374185287
 20
498.01545970290192
 30
0.0
  0
VERTEX
  5
96A7
  8
0
 10
269.50242458446883
 20
497.9521239910087
 30
0.0
  0
VERTEX
  5
96A8
  8
0
 10
269.39413756812058
 20
497.89099687316099
 30
0.0
  0
VERTEX
  5
96A9
  8
0
 10
269.33969674750369
 20
497.86126781698982
 30
0.0
  0
VERTEX
  5
96AA
  8
0
 10
269.28507100820212
 20
497.83209812662852
 30
0.0
  0
VERTEX
  5
96AB
  8
0
 10
269.17530542420542
 20
497.77544490852472
 30
0.0
  0
VERTEX
  5
96AC
  8
0
 10
269.06492329611319
 20
497.72105153111858
 30
0.0
  0
VERTEX
  5
96AD
  8
0
 10
268.95400880843408
 20
497.6689292630777
 30
0.0
  0
VERTEX
  5
96AE
  8
0
 10
268.84264758179779
 20
497.61908615614863
 30
0.0
  0
VERTEX
  5
96AF
  8
0
 10
268.73092639178873
 20
497.57152689685211
 30
0.0
  0
VERTEX
  5
96B0
  8
0
 10
268.67495817149029
 20
497.54860422350299
 30
0.0
  0
VERTEX
  5
96B1
  8
0
 10
268.61893287436209
 20
497.5262526828725
 30
0.0
  0
VERTEX
  5
96B2
  8
0
 10
268.50675517704798
 20
497.48326110906021
 30
0.0
  0
VERTEX
  5
96B3
  8
0
 10
268.39379493410712
 20
497.44230409730392
 30
0.0
  0
VERTEX
  5
96B4
  8
0
 10
268.2794579382462
 20
497.403186780704
 30
0.0
  0
VERTEX
  5
96B5
  8
0
 10
268.16380961287001
 20
497.36597009972462
 30
0.0
  0
VERTEX
  5
96B6
  8
0
 10
268.04691736188209
 20
497.33071189280111
 30
0.0
  0
VERTEX
  5
96B7
  8
0
 10
267.98802629559759
 20
497.31383441064611
 30
0.0
  0
VERTEX
  5
96B8
  8
0
 10
267.92885026869948
 20
497.29746676555311
 30
0.0
  0
VERTEX
  5
96B9
  8
0
 10
267.8096787891082
 20
497.26628598806798
 30
0.0
  0
VERTEX
  5
96BA
  8
0
 10
267.6894744370602
 20
497.23721741988038
 30
0.0
  0
VERTEX
  5
96BB
  8
0
 10
267.56830946265472
 20
497.21030546260653
 30
0.0
  0
VERTEX
  5
96BC
  8
0
 10
267.44625652173642
 20
497.18559104043072
 30
0.0
  0
VERTEX
  5
96BD
  8
0
 10
267.32338833673572
 20
497.16311160893707
 30
0.0
  0
VERTEX
  5
96BE
  8
0
 10
267.2616711861865
 20
497.15272077982399
 30
0.0
  0
VERTEX
  5
96BF
  8
0
 10
267.19977734864727
 20
497.1429011929672
 30
0.0
  0
VERTEX
  5
96C0
  8
0
 10
267.07549558215578
 20
497.12499048424581
 30
0.0
  0
VERTEX
  5
96C1
  8
0
 10
266.95061580210859
 20
497.10940709394492
 30
0.0
  0
VERTEX
  5
96C2
  8
0
 10
266.82521221847861
 20
497.0961756192151
 30
0.0
  0
VERTEX
  5
96C3
  8
0
 10
266.69936023313682
 20
497.08531754681792
 30
0.0
  0
VERTEX
  5
96C4
  8
0
 10
266.57313613443148
 20
497.07685117501711
 30
0.0
  0
VERTEX
  5
96C5
  8
0
 10
266.50990854983502
 20
497.07351971003351
 30
0.0
  0
VERTEX
  5
96C6
  8
0
 10
266.446616791407
 20
497.07079156232118
 30
0.0
  0
VERTEX
  5
96C7
  8
0
 10
266.31987934726931
 20
497.06715050279178
 30
0.0
  0
VERTEX
  5
96C8
  8
0
 10
266.19300091165678
 20
497.06593652785489
 30
0.0
  0
VERTEX
  5
96C9
  8
0
 10
266.06605825143021
 20
497.06715493470028
 30
0.0
  0
VERTEX
  5
96CA
  8
0
 10
265.93912747967443
 20
497.0708078415596
 30
0.0
  0
VERTEX
  5
96CB
  8
0
 10
265.81228244370681
 20
497.07689434513082
 30
0.0
  0
VERTEX
  5
96CC
  8
0
 10
265.74890623619649
 20
497.08084969722461
 30
0.0
  0
VERTEX
  5
96CD
  8
0
 10
265.68556951568098
 20
497.08541266966461
 30
0.0
  0
VERTEX
  5
96CE
  8
0
 10
265.55905194517982
 20
497.09635854037572
 30
0.0
  0
VERTEX
  5
96CF
  8
0
 10
265.43280499906177
 20
497.10972410427581
 30
0.0
  0
VERTEX
  5
96D0
  8
0
 10
265.36980667433272
 20
497.11731094008479
 30
0.0
  0
VERTEX
  5
96D1
  8
0
 10
265.3069044364147
 20
497.12549829665619
 30
0.0
  0
VERTEX
  5
96D2
  8
0
 10
265.18142619148972
 20
497.14366680477679
 30
0.0
  0
VERTEX
  5
96D3
  8
0
 10
265.05644606084752
 20
497.16421205830341
 30
0.0
  0
VERTEX
  5
96D4
  8
0
 10
264.99416636105713
 20
497.17536958673611
 30
0.0
  0
VERTEX
  5
96D5
  8
0
 10
264.93203939443993
 20
497.18711324621432
 30
0.0
  0
VERTEX
  5
96D6
  8
0
 10
264.80828079033739
 20
497.212346360097
 30
0.0
  0
VERTEX
  5
96D7
  8
0
 10
264.68524379273907
 20
497.2398842639173
 30
0.0
  0
VERTEX
  5
96D8
  8
0
 10
264.56300059290328
 20
497.26969679055537
 30
0.0
  0
VERTEX
  5
96D9
  8
0
 10
264.44162173381119
 20
497.30175086526702
 30
0.0
  0
VERTEX
  5
96DA
  8
0
 10
264.3211761628117
 20
497.33601055501691
 30
0.0
  0
VERTEX
  5
96DB
  8
0
 10
264.26132479929038
 20
497.35395540753649
 30
0.0
  0
VERTEX
  5
96DC
  8
0
 10
264.20173250851258
 20
497.37243671827548
 30
0.0
  0
VERTEX
  5
96DD
  8
0
 10
264.083359496306
 20
497.41098677794491
 30
0.0
  0
VERTEX
  5
96DE
  8
0
 10
263.9661256133968
 20
497.45161469923971
 30
0.0
  0
VERTEX
  5
96DF
  8
0
 10
263.8500987626976
 20
497.49427100190462
 30
0.0
  0
VERTEX
  5
96E0
  8
0
 10
263.73534592806391
 20
497.53890280033431
 30
0.0
  0
VERTEX
  5
96E1
  8
0
 10
263.62193285058493
 20
497.5854538710779
 30
0.0
  0
VERTEX
  5
96E2
  8
0
 10
263.56574884778462
 20
497.60943067378918
 30
0.0
  0
VERTEX
  5
96E3
  8
0
 10
263.50992371545908
 20
497.63386474751189
 30
0.0
  0
VERTEX
  5
96E4
  8
0
 10
263.39938084883403
 20
497.6840728417024
 30
0.0
  0
VERTEX
  5
96E5
  8
0
 10
263.29036442383222
 20
497.73601259383361
 30
0.0
  0
VERTEX
  5
96E6
  8
0
 10
263.23644677187798
 20
497.76261058467531
 30
0.0
  0
SEQEND
  5
96E7
  8
0
  0
POLYLINE
  5
494C
  8
0
 66
     1
 10
0.0
 20
0.0
 30
0.0
  0
VERTEX
  5
96E8
  8
0
 10
345.4153066293602
 20
675.73338477800155
 30
0.0
  0
VERTEX
  5
96E9
  8
0
 10
345.41561300794268
 20
675.79708501541211
 30
0.0
  0
VERTEX
  5
96EA
  8
0
 10
345.41806370582162
 20
675.92445634720525
 30
0.0
  0
VERTEX
  5
96EB
  8
0
 10
345.42296356817133
 20
676.05174506445894
 30
0.0
  0
VERTEX
  5
96EC
  8
0
 10
345.42633060123262
 20
676.11533353775633
 30
0.0
  0
VERTEX
  5
96ED
  8
0
 10
345.43030783738868
 20
676.178870614022
 30
0.0
  0
VERTEX
  5
96EE
  8
0
 10
345.44008786284758
 20
676.30574791506172
 30
0.0
  0
VERTEX
  5
96EF
  8
0
 10
345.45229106990882
 20
676.43229143794406
 30
0.0
  0
VERTEX
  5
96F0
  8
0
 10
345.46690092638158
 20
676.55841558292605
 30
0.0
  0
VERTEX
  5
96F1
  8
0
 10
345.48389694140309
 20
676.68403505353444
 30
0.0
  0
VERTEX
  5
96F2
  8
0
 10
345.5032546963867
 20
676.80906522554835
 30
0.0
  0
VERTEX
  5
96F3
  8
0
 10
345.51381053642399
 20
676.87133315334859
 30
0.0
  0
VERTEX
  5
96F4
  8
0
 10
345.52494590807152
 20
676.9334225125682
 30
0.0
  0
VERTEX
  5
96F5
  8
0
 10
345.54893852394162
 20
677.05702472925395
 30
0.0
  0
VERTEX
  5
96F6
  8
0
 10
345.57519684789622
 20
677.17979144094863
 30
0.0
  0
VERTEX
  5
96F7
  8
0
 10
345.6036815346215
 20
677.30164364136783
 30
0.0
  0
VERTEX
  5
96F8
  8
0
 10
345.63434924923791
 20
677.42250234069581
 30
0.0
  0
VERTEX
  5
96F9
  8
0
 10
345.66715252228278
 20
677.54228847460456
 30
0.0
  0
VERTEX
  5
96FA
  8
0
 10
345.68433902406292
 20
677.60175470283014
 30
0.0
  0
VERTEX
  5
96FB
  8
0
 10
345.7020397348133
 20
677.66092331504706
 30
0.0
  0
VERTEX
  5
96FC
  8
0
 10
345.73895513854222
 20
677.77832887060833
 30
0.0
  0
VERTEX
  5
96FD
  8
0
 10
345.7778389092
 20
677.89442827264304
 30
0.0
  0
VERTEX
  5
96FE
  8
0
 10
345.79799914303658
 20
677.95196454367635
 30
0.0
  0
VERTEX
  5
96FF
  8
0
 10
345.81862723262572
 20
678.00914614823387
 30
0.0
  0
VERTEX
  5
9700
  8
0
 10
345.86125242344309
 20
678.12240898125094
 30
0.0
  0
VERTEX
  5
9701
  8
0
 10
345.90564307664499
 20
678.2341454629983
 30
0.0
  0
VERTEX
  5
9702
  8
0
 10
345.9284824999304
 20
678.28943247588586
 30
0.0
  0
VERTEX
  5
9703
  8
0
 10
345.951848776509
 20
678.34457706972216
 30
0.0
  0
VERTEX
  5
9704
  8
0
 10
346.00028423629192
 20
678.45469046013977
 30
0.0
  0
VERTEX
  5
9705
  8
0
 10
346.05099079186948
 20
678.56449572957229
 30
0.0
  0
VERTEX
  5
9706
  8
0
 10
346.10396597458572
 20
678.67390492675486
 30
0.0
  0
VERTEX
  5
9707
  8
0
 10
346.15920382643708
 20
678.78283096694361
 30
0.0
  0
VERTEX
  5
9708
  8
0
 10
346.21669502313131
 20
678.89118792292038
 30
0.0
  0
VERTEX
  5
9709
  8
0
 10
346.24628182715242
 20
678.94512652704054
 30
0.0
  0
VERTEX
  5
970A
  8
0
 10
346.276427021041
 20
678.99889130205486
 30
0.0
  0
VERTEX
  5
970B
  8
0
 10
346.33838422845838
 20
679.10585831017363
 30
0.0
  0
VERTEX
  5
970C
  8
0
 10
346.4025482015968
 20
679.2120081026502
 30
0.0
  0
VERTEX
  5
970D
  8
0
 10
346.4688978659396
 20
679.31726202286211
 30
0.0
  0
VERTEX
  5
970E
  8
0
 10
346.53740976345028
 20
679.42154382783485
 30
0.0
  0
VERTEX
  5
970F
  8
0
 10
346.60805830333447
 20
679.52477986770236
 30
0.0
  0
VERTEX
  5
9710
  8
0
 10
346.64417519030582
 20
679.57598330567589
 30
0.0
  0
VERTEX
  5
9711
  8
0
 10
346.68081551289288
 20
679.62689853392976
 30
0.0
  0
VERTEX
  5
9712
  8
0
 10
346.75565035946602
 20
679.72782926441278
 30
0.0
  0
VERTEX
  5
9713
  8
0
 10
346.83252873225501
 20
679.82750262172488
 30
0.0
  0
VERTEX
  5
9714
  8
0
 10
346.91141358142522
 20
679.92585056767223
 30
0.0
  0
VERTEX
  5
9715
  8
0
 10
346.99226507634557
 20
680.02280672026575
 30
0.0
  0
VERTEX
  5
9716
  8
0
 10
347.07504078285092
 20
680.11830659351892
 30
0.0
  0
VERTEX
  5
9717
  8
0
 10
347.11713629082811
 20
680.16549084719236
 30
0.0
  0
VERTEX
  5
9718
  8
0
 10
347.15969585974022
 20
680.21228782050957
 30
0.0
  0
VERTEX
  5
9719
  8
0
 10
347.24618327474309
 20
680.30469035997567
 30
0.0
  0
VERTEX
  5
971A
  8
0
 10
347.33445404034683
 20
680.39545668654284
 30
0.0
  0
VERTEX
  5
971B
  8
0
 10
347.42445746990597
 20
680.48453196452976
 30
0.0
  0
VERTEX
  5
971C
  8
0
 10
347.5161511098558
 20
680.5718732276224
 30
0.0
  0
VERTEX
  5
971D
  8
0
 10
347.6095004637337
 20
680.65744730369136
 30
0.0
  0
VERTEX
  5
971E
  8
0
 10
347.65677907030289
 20
680.69955619211089
 30
0.0
  0
VERTEX
  5
971F
  8
0
 10
347.70445081336402
 20
680.74120485016886
 30
0.0
  0
VERTEX
  5
9720
  8
0
 10
347.80094427609578
 20
680.82309776551347
 30
0.0
  0
VERTEX
  5
9721
  8
0
 10
347.89892043926011
 20
680.90307989183066
 30
0.0
  0
VERTEX
  5
9722
  8
0
 10
347.99831655248272
 20
680.98110725192294
 30
0.0
  0
VERTEX
  5
9723
  8
0
 10
348.09906773612062
 20
681.05713826614146
 30
0.0
  0
VERTEX
  5
9724
  8
0
 10
348.20110720583938
 20
681.13113394932998
 30
0.0
  0
VERTEX
  5
9725
  8
0
 10
348.25258871604638
 20
681.16735711238982
 30
0.0
  0
VERTEX
  5
9726
  8
0
 10
348.30436651368842
 20
681.20305808812066
 30
0.0
  0
VERTEX
  5
9727
  8
0
 10
348.40877580600682
 20
681.27287739869507
 30
0.0
  0
VERTEX
  5
9728
  8
0
 10
348.51426409877968
 20
681.34056166500579
 30
0.0
  0
VERTEX
  5
9729
  8
0
 10
348.56739044905407
 20
681.37359458152753
 30
0.0
  0
VERTEX
  5
972A
  8
0
 10
348.62075951686711
 20
681.40608382465007
 30
0.0
  0
VERTEX
  5
972B
  8
0
 10
348.72818867425121
 20
681.46941953654334
 30
0.0
  0
VERTEX
  5
972C
  8
0
 10
348.83647569060122
 20
681.53054665439095
 30
0.0
  0
VERTEX
  5
972D
  8
0
 10
348.89091651121629
 20
681.56027571056222
 30
0.0
  0
VERTEX
  5
972E
  8
0
 10
348.94554225051797
 20
681.58944540092364
 30
0.0
  0
VERTEX
  5
972F
  8
0
 10
349.05530783451468
 20
681.64609861902727
 30
0.0
  0
VERTEX
  5
9730
  8
0
 10
349.1656899626069
 20
681.70049199643336
 30
0.0
  0
VERTEX
  5
9731
  8
0
 10
349.27660445028602
 20
681.75261426447435
 30
0.0
  0
VERTEX
  5
9732
  8
0
 10
349.38796567692231
 20
681.80245737140331
 30
0.0
  0
VERTEX
  5
9733
  8
0
 10
349.49968686693143
 20
681.8500166307
 30
0.0
  0
VERTEX
  5
9734
  8
0
 10
349.55565508722981
 20
681.87293930404905
 30
0.0
  0
VERTEX
  5
9735
  8
0
 10
349.6116803843579
 20
681.89529084467961
 30
0.0
  0
VERTEX
  5
9736
  8
0
 10
349.72385808167201
 20
681.93828241849189
 30
0.0
  0
VERTEX
  5
9737
  8
0
 10
349.83681832461298
 20
681.97923943024807
 30
0.0
  0
VERTEX
  5
9738
  8
0
 10
349.95115532047379
 20
682.0183567468481
 30
0.0
  0
VERTEX
  5
9739
  8
0
 10
350.06680364585009
 20
682.05557342782743
 30
0.0
  0
VERTEX
  5
973A
  8
0
 10
350.18369589683789
 20
682.090831634751
 30
0.0
  0
VERTEX
  5
973B
  8
0
 10
350.24258696312239
 20
682.10770911690588
 30
0.0
  0
VERTEX
  5
973C
  8
0
 10
350.30176299002051
 20
682.12407676199894
 30
0.0
  0
VERTEX
  5
973D
  8
0
 10
350.42093446961189
 20
682.15525753948396
 30
0.0
  0
VERTEX
  5
973E
  8
0
 10
350.54113882165979
 20
682.18432610767161
 30
0.0
  0
VERTEX
  5
973F
  8
0
 10
350.66230379606532
 20
682.21123806494563
 30
0.0
  0
VERTEX
  5
9740
  8
0
 10
350.78435673698368
 20
682.23595248712127
 30
0.0
  0
VERTEX
  5
9741
  8
0
 10
350.90722492198438
 20
682.25843191861486
 30
0.0
  0
VERTEX
  5
9742
  8
0
 10
350.96894207253348
 20
682.26882274772788
 30
0.0
  0
VERTEX
  5
9743
  8
0
 10
351.03083591007271
 20
682.27864233458467
 30
0.0
  0
VERTEX
  5
9744
  8
0
 10
351.15511767656432
 20
682.29655304330618
 30
0.0
  0
VERTEX
  5
9745
  8
0
 10
351.27999745661151
 20
682.31213643360707
 30
0.0
  0
VERTEX
  5
9746
  8
0
 10
351.40540104024149
 20
682.32536790833694
 30
0.0
  0
VERTEX
  5
9747
  8
0
 10
351.53125302558328
 20
682.33622598073418
 30
0.0
  0
VERTEX
  5
9748
  8
0
 10
351.65747712428862
 20
682.34469235253493
 30
0.0
  0
VERTEX
  5
9749
  8
0
 10
351.72070470888502
 20
682.34802381751854
 30
0.0
  0
VERTEX
  5
974A
  8
0
 10
351.7839964673131
 20
682.35075196523076
 30
0.0
  0
VERTEX
  5
974B
  8
0
 10
351.91073391145079
 20
682.35439302476016
 30
0.0
  0
VERTEX
  5
974C
  8
0
 10
352.03761234706508
 20
682.35560699969722
 30
0.0
  0
VERTEX
  5
974D
  8
0
 10
352.16455500729171
 20
682.35438859285171
 30
0.0
  0
VERTEX
  5
974E
  8
0
 10
352.29148577904562
 20
682.35073568599239
 30
0.0
  0
VERTEX
  5
974F
  8
0
 10
352.41833081501318
 20
682.34464918242122
 30
0.0
  0
VERTEX
  5
9750
  8
0
 10
352.48170702252349
 20
682.3406938303275
 30
0.0
  0
VERTEX
  5
9751
  8
0
 10
352.54504374303912
 20
682.33613085788738
 30
0.0
  0
VERTEX
  5
9752
  8
0
 10
352.67156131354022
 20
682.32518498717639
 30
0.0
  0
VERTEX
  5
9753
  8
0
 10
352.79780825965832
 20
682.31181942327623
 30
0.0
  0
VERTEX
  5
9754
  8
0
 10
352.86080658438732
 20
682.30423258746725
 30
0.0
  0
VERTEX
  5
9755
  8
0
 10
352.92370882230529
 20
682.29604523089586
 30
0.0
  0
VERTEX
  5
9756
  8
0
 10
353.04918706723038
 20
682.2778767227752
 30
0.0
  0
VERTEX
  5
9757
  8
0
 10
353.1741671978744
 20
682.2573314692487
 30
0.0
  0
VERTEX
  5
9758
  8
0
 10
353.23644689766297
 20
682.24617394081599
 30
0.0
  0
VERTEX
  5
9759
  8
0
 10
353.29857386428012
 20
682.23443028133772
 30
0.0
  0
VERTEX
  5
975A
  8
0
 10
353.42233246838259
 20
682.20919716745414
 30
0.0
  0
VERTEX
  5
975B
  8
0
 10
353.54536946598091
 20
682.18165926363474
 30
0.0
  0
VERTEX
  5
975C
  8
0
 10
353.6676126658167
 20
682.15184673699662
 30
0.0
  0
VERTEX
  5
975D
  8
0
 10
353.78899152490891
 20
682.11979266228502
 30
0.0
  0
VERTEX
  5
975E
  8
0
 10
353.90943709591011
 20
682.08553297253513
 30
0.0
  0
VERTEX
  5
975F
  8
0
 10
353.96928845943148
 20
682.06758812001544
 30
0.0
  0
VERTEX
  5
9760
  8
0
 10
354.02888075020752
 20
682.04910680927662
 30
0.0
  0
VERTEX
  5
9761
  8
0
 10
354.14725376241591
 20
682.01055674960719
 30
0.0
  0
VERTEX
  5
9762
  8
0
 10
354.264487645325
 20
681.96992882831239
 30
0.0
  0
VERTEX
  5
9763
  8
0
 10
354.3805144960225
 20
681.92727252564748
 30
0.0
  0
VERTEX
  5
9764
  8
0
 10
354.49526733065608
 20
681.88264072721779
 30
0.0
  0
VERTEX
  5
9765
  8
0
 10
354.60868040813511
 20
681.83608965647409
 30
0.0
  0
VERTEX
  5
9766
  8
0
 10
354.66486441093548
 20
681.81211285376287
 30
0.0
  0
VERTEX
  5
9767
  8
0
 10
354.7206895432609
 20
681.7876787800401
 30
0.0
  0
VERTEX
  5
9768
  8
0
 10
354.83123240988613
 20
681.73747068584964
 30
0.0
  0
VERTEX
  5
9769
  8
0
 10
354.94024883488783
 20
681.6855309337185
 30
0.0
  0
VERTEX
  5
976A
  8
0
 10
354.994166486842
 20
681.65893294287673
 30
0.0
  0
SEQEND
  5
976B
  8
0
  0
POLYLINE
  5
494E
  8
0
 66
     1
 10
0.0
 20
0.0
 30
0.0
  0
VERTEX
  5
976C
  8
0
 10
354.99416670017848
 20
497.76261069112257
 30
0.0
  0
VERTEX
  5
976D
  8
0
 10
354.94024904787329
 20
497.73601269770148
 30
0.0
  0
VERTEX
  5
976E
  8
0
 10
354.83123261489351
 20
497.68407293709299
 30
0.0
  0
VERTEX
  5
976F
  8
0
 10
354.72068973205018
 20
497.63386483117989
 30
0.0
  0
VERTEX
  5
9770
  8
0
 10
354.66486458909822
 20
497.60943075079427
 30
0.0
  0
VERTEX
  5
9771
  8
0
 10
354.60868057430889
 20
497.58545394108899
 30
0.0
  0
VERTEX
  5
9772
  8
0
 10
354.49526746975431
 20
497.53890285592888
 30
0.0
  0
VERTEX
  5
9773
  8
0
 10
354.38051460561468
 20
497.4942710433603
 30
0.0
  0
VERTEX
  5
9774
  8
0
 10
354.26448772507501
 20
497.4516147277169
 30
0.0
  0
VERTEX
  5
9775
  8
0
 10
354.14725381414968
 20
497.41098679533349
 30
0.0
  0
VERTEX
  5
9776
  8
0
 10
354.02888077795433
 20
497.3724367270238
 30
0.0
  0
VERTEX
  5
9777
  8
0
 10
353.96928847739218
 20
497.35395541301438
 30
0.0
  0
VERTEX
  5
9778
  8
0
 10
353.9094371059291
 20
497.33601055796998
 30
0.0
  0
VERTEX
  5
9779
  8
0
 10
353.7889915257129
 20
497.30175086548712
 30
0.0
  0
VERTEX
  5
977A
  8
0
 10
353.6676126658167
 20
497.26969679055537
 30
0.0
  0
VERTEX
  5
977B
  8
0
 10
353.54536946598091
 20
497.2398842639173
 30
0.0
  0
VERTEX
  5
977C
  8
0
 10
353.42233246838259
 20
497.212346360097
 30
0.0
  0
VERTEX
  5
977D
  8
0
 10
353.29857386428012
 20
497.18711324621432
 30
0.0
  0
VERTEX
  5
977E
  8
0
 10
353.23644689766297
 20
497.17536958673611
 30
0.0
  0
VERTEX
  5
977F
  8
0
 10
353.1741671978744
 20
497.16421205830341
 30
0.0
  0
VERTEX
  5
9780
  8
0
 10
353.04918706723038
 20
497.14366680477679
 30
0.0
  0
VERTEX
  5
9781
  8
0
 10
352.92370882230529
 20
497.12549829665619
 30
0.0
  0
VERTEX
  5
9782
  8
0
 10
352.86080658438732
 20
497.11731094008479
 30
0.0
  0
VERTEX
  5
9783
  8
0
 10
352.79780825965832
 20
497.10972410427581
 30
0.0
  0
VERTEX
  5
9784
  8
0
 10
352.67156131354022
 20
497.09635854037572
 30
0.0
  0
VERTEX
  5
9785
  8
0
 10
352.54504374303912
 20
497.08541266966461
 30
0.0
  0
VERTEX
  5
9786
  8
0
 10
352.48170702252349
 20
497.08084969722461
 30
0.0
  0
VERTEX
  5
9787
  8
0
 10
352.41833081501318
 20
497.07689434513082
 30
0.0
  0
VERTEX
  5
9788
  8
0
 10
352.29148577904562
 20
497.0708078415596
 30
0.0
  0
VERTEX
  5
9789
  8
0
 10
352.16455500729171
 20
497.06715493470028
 30
0.0
  0
VERTEX
  5
978A
  8
0
 10
352.03761234706508
 20
497.06593652785489
 30
0.0
  0
VERTEX
  5
978B
  8
0
 10
351.91073391145079
 20
497.06715050279178
 30
0.0
  0
VERTEX
  5
978C
  8
0
 10
351.7839964673131
 20
497.07079156232118
 30
0.0
  0
VERTEX
  5
978D
  8
0
 10
351.72070470888502
 20
497.07351971003351
 30
0.0
  0
VERTEX
  5
978E
  8
0
 10
351.65747712428862
 20
497.07685117501711
 30
0.0
  0
VERTEX
  5
978F
  8
0
 10
351.53125302558328
 20
497.08531754681792
 30
0.0
  0
VERTEX
  5
9790
  8
0
 10
351.40540104024149
 20
497.0961756192151
 30
0.0
  0
VERTEX
  5
9791
  8
0
 10
351.27999745661151
 20
497.10940709394492
 30
0.0
  0
VERTEX
  5
9792
  8
0
 10
351.15511767656432
 20
497.12499048424581
 30
0.0
  0
VERTEX
  5
9793
  8
0
 10
351.03083591007271
 20
497.1429011929672
 30
0.0
  0
VERTEX
  5
9794
  8
0
 10
350.96894207253348
 20
497.15272077982399
 30
0.0
  0
VERTEX
  5
9795
  8
0
 10
350.90722492198438
 20
497.16311160893707
 30
0.0
  0
VERTEX
  5
9796
  8
0
 10
350.78435673698368
 20
497.18559104043072
 30
0.0
  0
VERTEX
  5
9797
  8
0
 10
350.66230379606532
 20
497.21030546260653
 30
0.0
  0
VERTEX
  5
9798
  8
0
 10
350.54113882165979
 20
497.23721741988038
 30
0.0
  0
VERTEX
  5
9799
  8
0
 10
350.42093446961189
 20
497.26628598806798
 30
0.0
  0
VERTEX
  5
979A
  8
0
 10
350.30176299002051
 20
497.29746676555311
 30
0.0
  0
VERTEX
  5
979B
  8
0
 10
350.24258696312239
 20
497.31383441064611
 30
0.0
  0
VERTEX
  5
979C
  8
0
 10
350.18369589683789
 20
497.33071189280111
 30
0.0
  0
VERTEX
  5
979D
  8
0
 10
350.06680364585009
 20
497.36597009972462
 30
0.0
  0
VERTEX
  5
979E
  8
0
 10
349.95115532047379
 20
497.403186780704
 30
0.0
  0
VERTEX
  5
979F
  8
0
 10
349.83681832461298
 20
497.44230409730392
 30
0.0
  0
VERTEX
  5
97A0
  8
0
 10
349.72385808167201
 20
497.48326110906021
 30
0.0
  0
VERTEX
  5
97A1
  8
0
 10
349.6116803843579
 20
497.5262526828725
 30
0.0
  0
VERTEX
  5
97A2
  8
0
 10
349.55565508722981
 20
497.54860422350299
 30
0.0
  0
VERTEX
  5
97A3
  8
0
 10
349.49968686693143
 20
497.57152689685211
 30
0.0
  0
VERTEX
  5
97A4
  8
0
 10
349.38796567692231
 20
497.61908615614863
 30
0.0
  0
VERTEX
  5
97A5
  8
0
 10
349.27660445028602
 20
497.6689292630777
 30
0.0
  0
VERTEX
  5
97A6
  8
0
 10
349.1656899626069
 20
497.72105153111858
 30
0.0
  0
VERTEX
  5
97A7
  8
0
 10
349.05530783451468
 20
497.77544490852472
 30
0.0
  0
VERTEX
  5
97A8
  8
0
 10
348.94554225051797
 20
497.83209812662852
 30
0.0
  0
VERTEX
  5
97A9
  8
0
 10
348.89091651121629
 20
497.86126781698982
 30
0.0
  0
VERTEX
  5
97AA
  8
0
 10
348.83647569060122
 20
497.89099687316099
 30
0.0
  0
VERTEX
  5
97AB
  8
0
 10
348.72818867425121
 20
497.9521239910087
 30
0.0
  0
VERTEX
  5
97AC
  8
0
 10
348.62075951686711
 20
498.01545970290192
 30
0.0
  0
VERTEX
  5
97AD
  8
0
 10
348.56739044905407
 20
498.04794894602452
 30
0.0
  0
VERTEX
  5
97AE
  8
0
 10
348.51426409877968
 20
498.08098186254631
 30
0.0
  0
VERTEX
  5
97AF
  8
0
 10
348.40877580600682
 20
498.14866612885692
 30
0.0
  0
VERTEX
  5
97B0
  8
0
 10
348.30436651368842
 20
498.21848543943139
 30
0.0
  0
VERTEX
  5
97B1
  8
0
 10
348.25258871604638
 20
498.25418641516222
 30
0.0
  0
VERTEX
  5
97B2
  8
0
 10
348.20110720583938
 20
498.2904095782219
 30
0.0
  0
VERTEX
  5
97B3
  8
0
 10
348.09906773612062
 20
498.36440526141052
 30
0.0
  0
VERTEX
  5
97B4
  8
0
 10
347.99831655248272
 20
498.44043627562922
 30
0.0
  0
VERTEX
  5
97B5
  8
0
 10
347.89892043926011
 20
498.51846363572128
 30
0.0
  0
VERTEX
  5
97B6
  8
0
 10
347.80094427609578
 20
498.59844576203852
 30
0.0
  0
VERTEX
  5
97B7
  8
0
 10
347.70445081336402
 20
498.68033867738319
 30
0.0
  0
VERTEX
  5
97B8
  8
0
 10
347.65677907030289
 20
498.72198733544121
 30
0.0
  0
VERTEX
  5
97B9
  8
0
 10
347.6095004637337
 20
498.76409622386069
 30
0.0
  0
VERTEX
  5
97BA
  8
0
 10
347.5161511098558
 20
498.8496702999297
 30
0.0
  0
VERTEX
  5
97BB
  8
0
 10
347.42445746990597
 20
498.93701156302319
 30
0.0
  0
VERTEX
  5
97BC
  8
0
 10
347.33445404034683
 20
499.0260868410092
 30
0.0
  0
VERTEX
  5
97BD
  8
0
 10
347.24618327474309
 20
499.11685316757632
 30
0.0
  0
VERTEX
  5
97BE
  8
0
 10
347.15969585974022
 20
499.2092557070423
 30
0.0
  0
VERTEX
  5
97BF
  8
0
 10
347.11713629082811
 20
499.25605268035957
 30
0.0
  0
VERTEX
  5
97C0
  8
0
 10
347.07504078285092
 20
499.30323693403318
 30
0.0
  0
VERTEX
  5
97C1
  8
0
 10
346.99226507634557
 20
499.3987368072863
 30
0.0
  0
VERTEX
  5
97C2
  8
0
 10
346.91141358142522
 20
499.49569295987988
 30
0.0
  0
VERTEX
  5
97C3
  8
0
 10
346.83252873225501
 20
499.59404090582723
 30
0.0
  0
VERTEX
  5
97C4
  8
0
 10
346.75565035946602
 20
499.6937142631391
 30
0.0
  0
VERTEX
  5
97C5
  8
0
 10
346.68081551289288
 20
499.79464499362223
 30
0.0
  0
VERTEX
  5
97C6
  8
0
 10
346.64417519030582
 20
499.84556022187599
 30
0.0
  0
VERTEX
  5
97C7
  8
0
 10
346.60805830333447
 20
499.89676365984963
 30
0.0
  0
VERTEX
  5
97C8
  8
0
 10
346.53740976345028
 20
499.99999969971719
 30
0.0
  0
VERTEX
  5
97C9
  8
0
 10
346.4688978659396
 20
500.10428150468999
 30
0.0
  0
VERTEX
  5
97CA
  8
0
 10
346.4025482015968
 20
500.2095354249019
 30
0.0
  0
VERTEX
  5
97CB
  8
0
 10
346.33838422845838
 20
500.31568521737842
 30
0.0
  0
VERTEX
  5
97CC
  8
0
 10
346.276427021041
 20
500.42265222549628
 30
0.0
  0
VERTEX
  5
97CD
  8
0
 10
346.24628182715242
 20
500.4764170005115
 30
0.0
  0
VERTEX
  5
97CE
  8
0
 10
346.21669502313131
 20
500.53035560463161
 30
0.0
  0
VERTEX
  5
97CF
  8
0
 10
346.15920382643708
 20
500.63871256060838
 30
0.0
  0
VERTEX
  5
97D0
  8
0
 10
346.10396597458572
 20
500.74763860079707
 30
0.0
  0
VERTEX
  5
97D1
  8
0
 10
346.05099079186948
 20
500.85704779797982
 30
0.0
  0
VERTEX
  5
97D2
  8
0
 10
346.00028423629192
 20
500.9668530674121
 30
0.0
  0
VERTEX
  5
97D3
  8
0
 10
345.951848776509
 20
501.07696645782971
 30
0.0
  0
VERTEX
  5
97D4
  8
0
 10
345.9284824999304
 20
501.13211105166607
 30
0.0
  0
VERTEX
  5
97D5
  8
0
 10
345.90564307664499
 20
501.1873980645538
 30
0.0
  0
VERTEX
  5
97D6
  8
0
 10
345.86125242344309
 20
501.2991345463011
 30
0.0
  0
VERTEX
  5
97D7
  8
0
 10
345.81862723262572
 20
501.41239737931812
 30
0.0
  0
VERTEX
  5
97D8
  8
0
 10
345.79799914303658
 20
501.46957898387569
 30
0.0
  0
VERTEX
  5
97D9
  8
0
 10
345.7778389092
 20
501.52711525490901
 30
0.0
  0
VERTEX
  5
97DA
  8
0
 10
345.73895513854222
 20
501.64321465694371
 30
0.0
  0
VERTEX
  5
97DB
  8
0
 10
345.7020397348133
 20
501.76062021250488
 30
0.0
  0
VERTEX
  5
97DC
  8
0
 10
345.68433902406292
 20
501.81978882472191
 30
0.0
  0
VERTEX
  5
97DD
  8
0
 10
345.66715252228278
 20
501.87925505294749
 30
0.0
  0
VERTEX
  5
97DE
  8
0
 10
345.63434924923791
 20
501.99904118685629
 30
0.0
  0
VERTEX
  5
97DF
  8
0
 10
345.6036815346215
 20
502.11989988618433
 30
0.0
  0
VERTEX
  5
97E0
  8
0
 10
345.57519684789622
 20
502.24175208660341
 30
0.0
  0
VERTEX
  5
97E1
  8
0
 10
345.54893852394162
 20
502.36451879829798
 30
0.0
  0
VERTEX
  5
97E2
  8
0
 10
345.52494590807152
 20
502.4881210149839
 30
0.0
  0
VERTEX
  5
97E3
  8
0
 10
345.51381053642399
 20
502.55021037420329
 30
0.0
  0
VERTEX
  5
97E4
  8
0
 10
345.5032546963867
 20
502.61247830200369
 30
0.0
  0
VERTEX
  5
97E5
  8
0
 10
345.48389694140309
 20
502.73750847401749
 30
0.0
  0
VERTEX
  5
97E6
  8
0
 10
345.46690092638158
 20
502.86312794462589
 30
0.0
  0
VERTEX
  5
97E7
  8
0
 10
345.45229106990882
 20
502.98925208960787
 30
0.0
  0
VERTEX
  5
97E8
  8
0
 10
345.44008786284758
 20
503.11579561249039
 30
0.0
  0
VERTEX
  5
97E9
  8
0
 10
345.43030783738868
 20
503.2426729135301
 30
0.0
  0
VERTEX
  5
97EA
  8
0
 10
345.42633060123262
 20
503.30620998979572
 30
0.0
  0
VERTEX
  5
97EB
  8
0
 10
345.42296356817133
 20
503.3697984630931
 30
0.0
  0
VERTEX
  5
97EC
  8
0
 10
345.41806370582162
 20
503.49708718034668
 30
0.0
  0
VERTEX
  5
97ED
  8
0
 10
345.41561300794268
 20
503.62445851214
 30
0.0
  0
VERTEX
  5
97EE
  8
0
 10
345.4153066293602
 20
503.6881587495505
 30
0.0
  0
SEQEND
  5
97EF
  8
0
  0
ARC
  5
494F
  8
0
 10
309.11530662936087
 20
589.71077176377605
 30
0.0
 40
102.7586206896552
 50
296.51756363297261
 51
63.482436499924539
  0
LINE
  5
495C
  8
1
 10
309.11530662936138
 20
423.17696082154288
 30
0.0
 11
309.11530662936048
 21
756.24458270600906
 31
0.0
  0
LINE
  5
495D
  8
1
 10
475.64911757159229
 20
589.71077176377605
 30
0.0
 11
142.58149568712591
 21
589.71077176377605
 31
0.0
  0
LINE
  5
4988
  8
0
 10
791.82004790726933
 20
569.7107717637756
 30
0.0
 11
792.02004790727005
 21
569.7107717637756
 31
0.0
  0
LINE
  5
4989
  8
0
 10
792.02004790727005
 20
609.71077176377548
 30
0.0
 11
791.82004790726933
 21
609.71077176377548
 31
0.0
  0
ARC
  5
498A
  8
0
 10
791.32004790726933
 20
622.21077176377548
 30
0.0
 40
0.4999999999999791
 50
0.0
 51
90.0
  0
ARC
  5
498B
  8
0
 10
791.32004790726933
 20
557.2107717637756
 30
0.0
 40
0.5000000000000071
 50
270.0
 51
0.0
  0
LINE
  5
498C
  8
0
 10
786.02004790727005
 20
556.7107717637756
 30
0.0
 11
791.32004790726933
 21
556.7107717637756
 31
0.0
  0
LINE
  5
498D
  8
0
 10
791.32004790726933
 20
622.7107717637756
 30
0.0
 11
786.02004790727005
 21
622.7107717637756
 31
0.0
  0
LINE
  5
498E
  8
0
 10
749.52004790727028
 20
482.20711621697347
 30
0.0
 11
786.02004790727005
 21
556.7107717637756
 31
0.0
  0
LINE
  5
498F
  8
0
 10
786.02004790727005
 20
622.7107717637756
 30
0.0
 11
749.52004790727028
 21
697.21442731057471
 31
0.0
  0
ARC
  5
4992
  8
0
 10
738.02004790727005
 20
726.7107717637756
 30
0.0
 40
12.000000000000011
 50
16.59784213586266
 51
90.0
  0
ARC
  5
4993
  8
0
 10
738.02004790727005
 20
452.7107717637756
 30
0.0
 40
12.00000000000003
 50
270.0
 51
343.40215786413728
  0
LINE
  5
4994
  8
0
 10
730.75953782041688
 20
440.7107717637756
 30
0.0
 11
738.02004790727005
 21
440.7107717637756
 31
0.0
  0
LINE
  5
4995
  8
0
 10
738.02004790727005
 20
738.71077176377548
 30
0.0
 11
730.75953782041688
 21
738.71077176377548
 31
0.0
  0
ARC
  5
4996
  8
0
 10
730.75953782041688
 20
702.71077176377651
 30
0.0
 40
35.999999999998437
 50
90.0
 51
104.9999999999944
  0
ARC
  5
4997
  8
0
 10
730.75953782041688
 20
476.71077176377293
 30
0.0
 40
35.99999999999806
 50
255.0000000000056
 51
270.0
  0
LINE
  5
4998
  8
0
 10
716.68829934490157
 20
443.21120625503238
 30
0.0
 11
721.44205219672585
 21
441.93744201736899
 31
0.0
  0
LINE
  5
4999
  8
0
 10
721.44205219672585
 20
737.48410151018118
 30
0.0
 11
716.68829934490157
 21
736.2103372725179
 31
0.0
  0
ARC
  5
499A
  8
0
 10
717.62004790727042
 20
732.73300429787753
 30
0.0
 40
3.600000000000092
 50
104.9999999999944
 51
180.0
  0
ARC
  5
499B
  8
0
 10
717.62004790727042
 20
446.6885392296727
 30
0.0
 40
3.6000000000000929
 50
180.0
 51
255.0000000000056
  0
LINE
  5
49B2
  8
0
 10
792.02004790727005
 20
609.71077176377548
 30
0.0
 11
792.02004790727005
 21
569.7107717637756
 31
0.0
  0
LINE
  5
49B3
  8
0
 10
791.82004790726933
 20
622.21077176377548
 30
0.0
 11
791.82004790726933
 21
557.2107717637756
 31
0.0
  0
LINE
  5
49B5
  8
0
 10
786.02004790727005
 20
622.7107717637756
 30
0.0
 11
786.02004790727005
 21
556.7107717637756
 31
0.0
  0
LINE
  5
49B7
  8
0
 10
749.52004790727017
 20
730.13859906397545
 30
0.0
 11
749.52004790727017
 21
449.28294446357569
 31
0.0
  0
LINE
  5
49BC
  8
0
 10
714.02004790727005
 20
732.73300429787753
 30
0.0
 11
714.02004790727005
 21
446.6885392296727
 31
0.0
  0
POLYLINE
  5
49D3
  8
0
 66
     1
 10
0.0
 20
0.0
 30
0.0
  0
VERTEX
  5
97F0
  8
0
 10
749.52004790727017
 20
691.41676359228791
 30
0.0
  0
VERTEX
  5
97F1
  8
0
 10
759.91344908419876
 20
664.59558701068102
 30
0.0
  0
VERTEX
  5
97F2
  8
0
 10
766.27707455646305
 20
647.51303889906751
 30
0.0
  0
VERTEX
  5
97F3
  8
0
 10
770.66717602204506
 20
634.85997462099488
 30
0.0
  0
VERTEX
  5
97F4
  8
0
 10
772.35896776418303
 20
629.62752607512175
 30
0.0
  0
VERTEX
  5
97F5
  8
0
 10
773.79397322474506
 20
624.93311503510085
 30
0.0
  0
VERTEX
  5
97F6
  8
0
 10
776.04966086824425
 20
616.7696467300857
 30
0.0
  0
VERTEX
  5
97F7
  8
0
 10
777.66513794165076
 20
609.77652428562953
 30
0.0
  0
VERTEX
  5
97F8
  8
0
 10
778.78134115514331
 20
603.55977245384759
 30
0.0
  0
VERTEX
  5
97F9
  8
0
 10
779.48454407852842
 20
597.83734258403194
 30
0.0
  0
VERTEX
  5
97FA
  8
0
 10
779.82466751979155
 20
592.39015184943946
 30
0.0
  0
VERTEX
  5
97FB
  8
0
 10
779.86666318877178
 20
589.7107717637756
 30
0.0
  0
VERTEX
  5
97FC
  8
0
 10
779.82466751979155
 20
587.03139167811071
 30
0.0
  0
VERTEX
  5
97FD
  8
0
 10
779.48454407852842
 20
581.58420094351834
 30
0.0
  0
VERTEX
  5
97FE
  8
0
 10
778.78134115514331
 20
575.86177107370258
 30
0.0
  0
VERTEX
  5
97FF
  8
0
 10
777.66513794165076
 20
569.64501924192075
 30
0.0
  0
VERTEX
  5
9800
  8
0
 10
776.04966086824425
 20
562.65189679746447
 30
0.0
  0
VERTEX
  5
9801
  8
0
 10
773.79397322474506
 20
554.48842849244932
 30
0.0
  0
VERTEX
  5
9802
  8
0
 10
772.35896776418122
 20
549.79401745242842
 30
0.0
  0
VERTEX
  5
9803
  8
0
 10
770.66717602204506
 20
544.5615689065545
 30
0.0
  0
VERTEX
  5
9804
  8
0
 10
766.27707455646305
 20
531.90850462848266
 30
0.0
  0
VERTEX
  5
9805
  8
0
 10
759.91344908419876
 20
514.82595651686825
 30
0.0
  0
VERTEX
  5
9806
  8
0
 10
749.52004790727017
 20
488.00477993526368
 30
0.0
  0
SEQEND
  5
9807
  8
0
  0
LINE
  5
49E8
  8
1
 10
696.48623696503716
 20
589.71077176377514
 30
0.0
 11
809.55385884950283
 21
589.71077176377571
 31
0.0
  0
LINE
  5
4CA9
  8
2
 10
296.11530662936087
 20
163.72713414486981
 30
0.0
 11
296.11530662936087
 21
120.72713414486979
 31
0.0
  0
LINE
  5
4CAA
  8
2
 10
322.11530662936087
 20
120.72713414486979
 30
0.0
 11
322.11530662936087
 21
163.72713414486981
 31
0.0
  0
LINE
  5
4CAD
  8
0
 10
289.11530662936087
 20
120.9271341448699
 30
0.0
 11
289.11530662936087
 21
120.72713414486979
 31
0.0
  0
LINE
  5
4CAE
  8
0
 10
329.11530662936087
 20
120.72713414486979
 30
0.0
 11
329.11530662936087
 21
120.9271341448699
 31
0.0
  0
ARC
  5
4CAF
  8
0
 10
341.61530662936087
 20
121.4271341448699
 30
0.0
 40
0.4999999999999791
 50
270.0
 51
0.0
  0
ARC
  5
4CB0
  8
0
 10
276.61530662936087
 20
121.4271341448699
 30
0.0
 40
0.4999999999999787
 50
180.0
 51
270.0
  0
LINE
  5
4CB1
  8
0
 10
276.11530662936087
 20
126.72713414486979
 30
0.0
 11
276.11530662936087
 21
121.4271341448699
 31
0.0
  0
LINE
  5
4CB2
  8
0
 10
342.11530662936087
 20
121.4271341448699
 30
0.0
 11
342.11530662936087
 21
126.72713414486979
 31
0.0
  0
LINE
  5
4CB4
  8
0
 10
203.98259023420769
 20
162.6528771426743
 30
0.0
 11
206.35668593970561
 21
161.6432499810538
 31
0.0
  0
LINE
  5
4CB5
  8
0
 10
411.87392731901531
 20
161.6432499810538
 30
0.0
 11
414.2480230245132
 21
162.6528771426743
 31
0.0
  0
ARC
  5
4CB7
  8
0
 10
417.06574013718489
 20
156.02713414486959
 30
0.0
 40
7.2000000000004141
 50
90.0
 51
113.0385014875671
  0
ARC
  5
4CB8
  8
0
 10
201.16487312153589
 20
156.02713414486959
 30
0.0
 40
7.2000000000004079
 50
66.961498512432868
 51
90.0
  0
ARC
  5
4CB9
  8
0
 10
446.11530662936087
 20
174.72713414486981
 30
0.0
 40
12.000000000000011
 50
286.59784213586448
 51
0.0
  0
ARC
  5
4CBA
  8
0
 10
172.1153066293609
 20
174.72713414486981
 30
0.0
 40
12.00000000000003
 50
180.0
 51
253.40215786413549
  0
LINE
  5
4CBB
  8
0
 10
160.1153066293609
 20
181.98764423172369
 30
0.0
 11
160.1153066293609
 21
174.72713414486981
 31
0.0
  0
LINE
  5
4CBC
  8
0
 10
458.11530662936087
 20
174.72713414486981
 30
0.0
 11
458.11530662936087
 21
181.98764423172369
 31
0.0
  0
ARC
  5
4CBD
  8
0
 10
422.11530662936269
 20
181.98764423172369
 30
0.0
 40
35.999999999998437
 50
0.0
 51
14.99999999999446
  0
ARC
  5
4CBE
  8
0
 10
196.11530662935911
 20
181.98764423172369
 30
0.0
 40
35.99999999999806
 50
165.00000000000551
 51
180.0
  0
LINE
  5
4CBF
  8
0
 10
162.6157411206168
 20
196.05888270723889
 30
0.0
 11
161.3419768829535
 21
191.30512985541449
 31
0.0
  0
LINE
  5
4CC0
  8
0
 10
456.8886363757664
 20
191.30512985541449
 30
0.0
 11
455.61487213810318
 21
196.05888270723889
 31
0.0
  0
ARC
  5
4CC1
  8
0
 10
452.1375391634628
 20
195.1271341448697
 30
0.0
 40
3.600000000000092
 50
14.99999999999446
 51
90.0
  0
ARC
  5
4CC2
  8
0
 10
166.093074095259
 20
195.1271341448697
 30
0.0
 40
3.6000000000000929
 50
90.0
 51
165.00000000000551
  0
LINE
  5
4CDD
  8
0
 10
329.11530662936087
 20
120.72713414486979
 30
0.0
 11
289.11530662936087
 21
120.72713414486979
 31
0.0
  0
LINE
  5
4CDE
  8
0
 10
341.61530662936087
 20
120.9271341448699
 30
0.0
 11
276.61530662936087
 21
120.9271341448699
 31
0.0
  0
LINE
  5
4CE0
  8
0
 10
345.41530662936248
 20
126.72713414486979
 30
0.0
 11
272.81530662935978
 21
126.72713414486979
 31
0.0
  0
LINE
  5
4CE2
  8
0
 10
449.54313392956141
 20
163.22713414486981
 30
0.0
 11
168.6874793291604
 21
163.22713414486981
 31
0.0
  0
LINE
  5
4CE7
  8
0
 10
452.1375391634628
 20
198.72713414486981
 30
0.0
 11
166.093074095259
 21
198.72713414486981
 31
0.0
  0
LINE
  5
4CED
  8
0
 10
354.99416670017899
 20
161.6432499810536
 30
0.0
 11
411.87392731901531
 21
161.6432499810536
 31
0.0
  0
POLYLINE
  5
4CF5
  8
0
 66
     1
 10
0.0
 20
0.0
 30
0.0
  0
VERTEX
  5
9808
  8
0
 10
263.23644677187849
 20
161.6432499810536
 30
0.0
  0
VERTEX
  5
9809
  8
0
 10
263.29292347742779
 20
161.64313087327639
 30
0.0
  0
VERTEX
  5
980A
  8
0
 10
263.40710352979522
 20
161.64217248854729
 30
0.0
  0
VERTEX
  5
980B
  8
0
 10
263.52286256385418
 20
161.64024244802101
 30
0.0
  0
VERTEX
  5
980C
  8
0
 10
263.5813122806635
 20
161.6389091539321
 30
0.0
  0
VERTEX
  5
980D
  8
0
 10
263.64013009439668
 20
161.6373284688469
 30
0.0
  0
VERTEX
  5
980E
  8
0
 10
263.75883298839881
 20
161.6334199224537
 30
0.0
  0
VERTEX
  5
980F
  8
0
 10
263.87889588389271
 20
161.62850783682541
 30
0.0
  0
VERTEX
  5
9810
  8
0
 10
264.00024162239112
 20
161.6225848818996
 30
0.0
  0
VERTEX
  5
9811
  8
0
 10
264.12279169502148
 20
161.61564533814371
 30
0.0
  0
VERTEX
  5
9812
  8
0
 10
264.24646670243459
 20
161.60768504826399
 30
0.0
  0
VERTEX
  5
9813
  8
0
 10
264.30870111712511
 20
161.60332123583851
 30
0.0
  0
VERTEX
  5
9814
  8
0
 10
264.37118682818658
 20
161.59870135194529
 30
0.0
  0
VERTEX
  5
9815
  8
0
 10
264.49687232508268
 20
161.58869300345751
 30
0.0
  0
VERTEX
  5
9816
  8
0
 10
264.62344386617451
 20
161.57766008534151
 30
0.0
  0
VERTEX
  5
9817
  8
0
 10
264.75082133142541
 20
161.56560406611891
 30
0.0
  0
VERTEX
  5
9818
  8
0
 10
264.8789224963171
 20
161.55252792806471
 30
0.0
  0
VERTEX
  5
9819
  8
0
 10
265.00766329238701
 20
161.53843617969861
 30
0.0
  0
VERTEX
  5
981A
  8
0
 10
265.07224688091668
 20
161.53101127451771
 30
0.0
  0
VERTEX
  5
981B
  8
0
 10
265.13695823153148
 20
161.52333484084059
 30
0.0
  0
VERTEX
  5
981C
  8
0
 10
265.26672083099987
 20
161.50723141302799
 30
0.0
  0
VERTEX
  5
981D
  8
0
 10
265.3968640387161
 20
161.490134835666
 30
0.0
  0
VERTEX
  5
981E
  8
0
 10
265.46205111591053
 20
161.48121728868711
 30
0.0
  0
VERTEX
  5
981F
  8
0
 10
265.527300658689
 20
161.4720554282008
 30
0.0
  0
VERTEX
  5
9820
  8
0
 10
265.6579437763034
 20
161.45300481853101
 30
0.0
  0
VERTEX
  5
9821
  8
0
 10
265.78870718327789
 20
161.4329958577826
 30
0.0
  0
VERTEX
  5
9822
  8
0
 10
265.85410735279629
 20
161.42263632217501
 30
0.0
  0
VERTEX
  5
9823
  8
0
 10
265.91950932808732
 20
161.4120419440379
 30
0.0
  0
VERTEX
  5
9824
  8
0
 10
266.05030239801141
 20
161.39015188465811
 30
0.0
  0
VERTEX
  5
9825
  8
0
 10
266.181011397894
 20
161.36733954386781
 30
0.0
  0
VERTEX
  5
9826
  8
0
 10
266.31155072373667
 20
161.34362175434521
 30
0.0
  0
VERTEX
  5
9827
  8
0
 10
266.44183404773361
 20
161.3190168062423
 30
0.0
  0
VERTEX
  5
9828
  8
0
 10
266.57177474280479
 20
161.29354440374669
 30
0.0
  0
VERTEX
  5
9829
  8
0
 10
266.63658955394612
 20
161.2804894379118
 30
0.0
  0
VERTEX
  5
982A
  8
0
 10
266.7012862972465
 20
161.267225609669
 30
0.0
  0
VERTEX
  5
982B
  8
0
 10
266.83028271946432
 20
161.2400827785012
 30
0.0
  0
VERTEX
  5
982C
  8
0
 10
266.95867893302278
 20
161.21213947826649
 30
0.0
  0
VERTEX
  5
982D
  8
0
 10
267.08639116250419
 20
161.1834204013486
 30
0.0
  0
VERTEX
  5
982E
  8
0
 10
267.2133373107049
 20
161.1539512643686
 30
0.0
  0
VERTEX
  5
982F
  8
0
 10
267.3394372714597
 20
161.123758710787
 30
0.0
  0
VERTEX
  5
9830
  8
0
 10
267.4021452762122
 20
161.10839976606039
 30
0.0
  0
VERTEX
  5
9831
  8
0
 10
267.4646121248847
 20
161.09287048291191
 30
0.0
  0
VERTEX
  5
9832
  8
0
 10
267.58878273240629
 20
161.0613157872904
 30
0.0
  0
VERTEX
  5
9833
  8
0
 10
267.71186990095021
 20
161.0291253097692
 30
0.0
  0
VERTEX
  5
9834
  8
0
 10
267.8337948197136
 20
160.99633115301901
 30
0.0
  0
VERTEX
  5
9835
  8
0
 10
267.9544794755534
 20
160.96296676447071
 30
0.0
  0
VERTEX
  5
9836
  8
0
 10
268.073847047252
 20
160.92906685530019
 30
0.0
  0
VERTEX
  5
9837
  8
0
 10
268.13301333829298
 20
160.9119272514055
 30
0.0
  0
VERTEX
  5
9838
  8
0
 10
268.19182227961068
 20
160.8946673108438
 30
0.0
  0
VERTEX
  5
9839
  8
0
 10
268.3083318385747
 20
160.8598050926245
 30
0.0
  0
VERTEX
  5
983A
  8
0
 10
268.42330464895213
 20
160.82451813196181
 30
0.0
  0
VERTEX
  5
983B
  8
0
 10
268.53671771069321
 20
160.78883072178391
 30
0.0
  0
VERTEX
  5
983C
  8
0
 10
268.64944847501152
 20
160.7524734457528
 30
0.0
  0
VERTEX
  5
983D
  8
0
 10
268.76179576362529
 20
160.71534190327509
 30
0.0
  0
VERTEX
  5
983E
  8
0
 10
268.81780066367583
 20
160.6964902752328
 30
0.0
  0
VERTEX
  5
983F
  8
0
 10
268.87367985479108
 20
160.6774506029177
 30
0.0
  0
VERTEX
  5
9840
  8
0
 10
268.98502182316452
 20
160.6388150734852
 30
0.0
  0
VERTEX
  5
9841
  8
0
 10
269.09574381236462
 20
160.5994517804823
 30
0.0
  0
VERTEX
  5
9842
  8
0
 10
269.2057692891089
 20
160.5593780387054
 30
0.0
  0
VERTEX
  5
9843
  8
0
 10
269.31502328002938
 20
160.51861192089851
 30
0.0
  0
VERTEX
  5
9844
  8
0
 10
269.4234325920084
 20
160.47717216239641
 30
0.0
  0
VERTEX
  5
9845
  8
0
 10
269.47729815799948
 20
160.45620567946219
 30
0.0
  0
VERTEX
  5
9846
  8
0
 10
269.53092601678742
 20
160.4350780616615
 30
0.0
  0
VERTEX
  5
9847
  8
0
 10
269.63743452036442
 20
160.39234937662931
 30
0.0
  0
VERTEX
  5
9848
  8
0
 10
269.74289141726922
 20
160.34900621686111
 30
0.0
  0
VERTEX
  5
9849
  8
0
 10
269.7952053321992
 20
160.3271105717366
 30
0.0
  0
VERTEX
  5
984A
  8
0
 10
269.8472323398168
 20
160.3050690124727
 30
0.0
  0
VERTEX
  5
984B
  8
0
 10
269.95039432324887
 20
160.26055887036009
 30
0.0
  0
VERTEX
  5
984C
  8
0
 10
270.05231540714931
 20
160.2154977578451
 30
0.0
  0
VERTEX
  5
984D
  8
0
 10
270.10279157649569
 20
160.1927676713056
 30
0.0
  0
VERTEX
  5
984E
  8
0
 10
270.15293485089609
 20
160.16990843457171
 30
0.0
  0
VERTEX
  5
984F
  8
0
 10
270.25219335542209
 20
160.12381437226469
 30
0.0
  0
VERTEX
  5
9850
  8
0
 10
270.35003326728702
 20
160.07723967245721
 30
0.0
  0
VERTEX
  5
9851
  8
0
 10
270.44639876598598
 20
160.0302089821235
 30
0.0
  0
VERTEX
  5
9852
  8
0
 10
270.54123603526068
 20
159.9827474071013
 30
0.0
  0
VERTEX
  5
9853
  8
0
 10
270.63449341919892
 20
159.93488042316909
 30
0.0
  0
VERTEX
  5
9854
  8
0
 10
270.68051413751027
 20
159.91080294275099
 30
0.0
  0
VERTEX
  5
9855
  8
0
 10
270.72612156366489
 20
159.88663378461101
 30
0.0
  0
VERTEX
  5
9856
  8
0
 10
270.81607364765159
 20
159.8380333731314
 30
0.0
  0
VERTEX
  5
9857
  8
0
 10
270.90431841395957
 20
159.78909783550679
 30
0.0
  0
VERTEX
  5
9858
  8
0
 10
270.99082158944339
 20
159.73984827840479
 30
0.0
  0
VERTEX
  5
9859
  8
0
 10
271.07554078573457
 20
159.6903116028526
 30
0.0
  0
VERTEX
  5
985A
  8
0
 10
271.15843523241762
 20
159.6405153459306
 30
0.0
  0
VERTEX
  5
985B
  8
0
 10
271.19918592503609
 20
159.61552863341859
 30
0.0
  0
VERTEX
  5
985C
  8
0
 10
271.2394659735769
 20
159.5904875982072
 30
0.0
  0
VERTEX
  5
985D
  8
0
 10
271.3185960471551
 20
159.54025692002759
 30
0.0
  0
VERTEX
  5
985E
  8
0
 10
271.39579064788859
 20
159.48985225653371
 30
0.0
  0
VERTEX
  5
985F
  8
0
 10
271.4710172745913
 20
159.43930285124529
 30
0.0
  0
VERTEX
  5
9860
  8
0
 10
271.54424586240981
 20
159.3886381579874
 30
0.0
  0
VERTEX
  5
9861
  8
0
 10
271.61544890064079
 20
159.33788775089749
 30
0.0
  0
VERTEX
  5
9862
  8
0
 10
271.65028296579891
 20
159.31248965684139
 30
0.0
  0
VERTEX
  5
9863
  8
0
 10
271.68460153655587
 20
159.2870812322229
 30
0.0
  0
VERTEX
  5
9864
  8
0
 10
271.7516816253397
 20
159.23624816855551
 30
0.0
  0
VERTEX
  5
9865
  8
0
 10
271.81666933657522
 20
159.1854183720119
 30
0.0
  0
VERTEX
  5
9866
  8
0
 10
271.87954680275328
 20
159.13462220813551
 30
0.0
  0
VERTEX
  5
9867
  8
0
 10
271.94029827415261
 20
159.08389054052861
 30
0.0
  0
VERTEX
  5
9868
  8
0
 10
271.9989103082321
 20
159.03325463592171
 30
0.0
  0
VERTEX
  5
9869
  8
0
 10
272.02741050859231
 20
159.0079824524513
 30
0.0
  0
VERTEX
  5
986A
  8
0
 10
272.05537193971622
 20
158.98274606917209
 30
0.0
  0
VERTEX
  5
986B
  8
0
 10
272.1096748321329
 20
158.93239662804251
 30
0.0
  0
VERTEX
  5
986C
  8
0
 10
272.16181341152378
 20
158.88223821753749
 30
0.0
  0
VERTEX
  5
986D
  8
0
 10
272.21178498293779
 20
158.8323027634998
 30
0.0
  0
VERTEX
  5
986E
  8
0
 10
272.25958983024287
 20
158.7826221151098
 30
0.0
  0
VERTEX
  5
986F
  8
0
 10
272.30523129965559
 20
158.7332279458511
 30
0.0
  0
VERTEX
  5
9870
  8
0
 10
272.32729904378772
 20
158.70858448636491
 30
0.0
  0
VERTEX
  5
9871
  8
0
 10
272.34897192362808
 20
158.68385632436761
 30
0.0
  0
VERTEX
  5
9872
  8
0
 10
272.39110242168732
 20
158.63415865773081
 30
0.0
  0
VERTEX
  5
9873
  8
0
 10
272.4315563661134
 20
158.5841683884465
 30
0.0
  0
VERTEX
  5
9874
  8
0
 10
272.451134271711
 20
158.55907454264761
 30
0.0
  0
VERTEX
  5
9875
  8
0
 10
272.47026900055471
 20
158.53392079153019
 30
0.0
  0
VERTEX
  5
9876
  8
0
 10
272.50717873635449
 20
158.48345132987251
 30
0.0
  0
VERTEX
  5
9877
  8
0
 10
272.54222723710018
 20
158.43279554628441
 30
0.0
  0
VERTEX
  5
9878
  8
0
 10
272.55903619947321
 20
158.4074088862404
 30
0.0
  0
VERTEX
  5
9879
  8
0
 10
272.57535948183107
 20
158.38198895576841
 30
0.0
  0
VERTEX
  5
987A
  8
0
 10
272.6065238071028
 20
158.33106693751239
 30
0.0
  0
VERTEX
  5
987B
  8
0
 10
272.63567192775241
 20
158.28006462621059
 30
0.0
  0
VERTEX
  5
987C
  8
0
 10
272.6627589359818
 20
158.22901680241841
 30
0.0
  0
VERTEX
  5
987D
  8
0
 10
272.6877432754286
 20
158.17795778729541
 30
0.0
  0
VERTEX
  5
987E
  8
0
 10
272.71058659487841
 20
158.12692156685631
 30
0.0
  0
VERTEX
  5
987F
  8
0
 10
272.72119420088939
 20
158.10142264998819
 30
0.0
  0
VERTEX
  5
9880
  8
0
 10
272.73125351834688
 20
158.07594222547971
 30
0.0
  0
VERTEX
  5
9881
  8
0
 10
272.74971167168093
 20
158.02505396866951
 30
0.0
  0
VERTEX
  5
9882
  8
0
 10
272.76593176302998
 20
157.9742910129674
 30
0.0
  0
VERTEX
  5
9883
  8
0
 10
272.77988764333207
 20
157.92368747708031
 30
0.0
  0
VERTEX
  5
9884
  8
0
 10
272.79155634662362
 20
157.87327727453641
 30
0.0
  0
VERTEX
  5
9885
  8
0
 10
272.8009181101192
 20
157.8230940074919
 30
0.0
  0
VERTEX
  5
9886
  8
0
 10
272.80472858976509
 20
157.7980978643746
 30
0.0
  0
VERTEX
  5
9887
  8
0
 10
272.8079563737852
 20
157.7731708613756
 30
0.0
  0
VERTEX
  5
9888
  8
0
 10
272.81265775884322
 20
157.72354050013459
 30
0.0
  0
VERTEX
  5
9889
  8
0
 10
272.81501203185007
 20
157.6742346522916
 30
0.0
  0
VERTEX
  5
988A
  8
0
 10
272.81530662936029
 20
157.6497106832004
 30
0.0
  0
SEQEND
  5
988B
  8
0
  0
LINE
  5
4CFD
  8
0
 10
206.35668593970561
 20
161.6432499810536
 30
0.0
 11
263.23644677187849
 21
161.6432499810536
 31
0.0
  0
LINE
  5
4D0B
  8
1
 10
309.11530662936087
 20
216.26094508710301
 30
0.0
 11
309.11530662936087
 21
103.19332320263671
 31
0.0
  0
LINE
  5
76A2
  8
2
 10
335.11530662936087
 20
163.72713414486981
 30
0.0
 11
283.11530662936087
 21
163.72713414486981
 31
0.0
  0
LINE
  5
7713
  8
2
 10
329.11530662936087
 20
120.9271341448699
 30
0.0
 11
329.11530662936087
 21
162.22713414486981
 31
0.0
  0
LINE
  5
7715
  8
2
 10
335.11530662936087
 20
166.72713414486981
 30
0.0
 11
283.11530662936087
 21
166.72713414486981
 31
0.0
  0
LINE
  5
7728
  8
2
 10
335.11530662936087
 20
166.72713414486981
 30
0.0
 11
335.11530662936087
 21
163.72713414486981
 31
0.0
  0
LINE
  5
7729
  8
2
 10
283.11530662936087
 20
166.72713414486981
 30
0.0
 11
283.11530662936087
 21
163.72713414486981
 31
0.0
  0
LINE
  5
772A
  8
2
 10
329.11530662936087
 20
162.22713414486981
 30
0.0
 11
327.61530662936048
 21
162.22713414486981
 31
0.0
  0
LINE
  5
772C
  8
2
 10
327.61530662936099
 20
162.22713414486981
 30
0.0
 11
327.61530662936099
 21
163.72713414486981
 31
0.0
  0
LINE
  5
772D
  8
2
 10
289.11530662936087
 20
162.22713414486981
 30
0.0
 11
290.61530662936138
 21
162.22713414486981
 31
0.0
  0
LINE
  5
772E
  8
2
 10
289.11530662936087
 20
120.9271341448699
 30
0.0
 11
289.11530662936087
 21
162.22713414486981
 31
0.0
  0
LINE
  5
772F
  8
2
 10
290.61530662936099
 20
162.22713414486981
 30
0.0
 11
290.61530662936099
 21
163.72713414486981
 31
0.0
  0
LINE
  5
7779
  8
0
 10
272.81530662936029
 20
157.6497106832004
 30
0.0
 11
272.81530662935978
 21
126.72713414486979
 31
0.0
  0
POLYLINE
  5
777A
  8
0
 66
     1
 10
0.0
 20
0.0
 30
0.0
  0
VERTEX
  5
988C
  8
0
 10
354.99416648684428
 20
161.6432499810536
 30
0.0
  0
VERTEX
  5
988D
  8
0
 10
354.93768978129492
 20
161.64313087327639
 30
0.0
  0
VERTEX
  5
988E
  8
0
 10
354.82350972892749
 20
161.64217248854729
 30
0.0
  0
VERTEX
  5
988F
  8
0
 10
354.70775069486848
 20
161.64024244802101
 30
0.0
  0
VERTEX
  5
9890
  8
0
 10
354.64930097805927
 20
161.6389091539321
 30
0.0
  0
VERTEX
  5
9891
  8
0
 10
354.59048316432609
 20
161.6373284688469
 30
0.0
  0
VERTEX
  5
9892
  8
0
 10
354.47178027032402
 20
161.6334199224537
 30
0.0
  0
VERTEX
  5
9893
  8
0
 10
354.35171737483012
 20
161.62850783682541
 30
0.0
  0
VERTEX
  5
9894
  8
0
 10
354.23037163633171
 20
161.6225848818996
 30
0.0
  0
VERTEX
  5
9895
  8
0
 10
354.10782156370118
 20
161.61564533814371
 30
0.0
  0
VERTEX
  5
9896
  8
0
 10
353.98414655628812
 20
161.60768504826399
 30
0.0
  0
VERTEX
  5
9897
  8
0
 10
353.9219121415976
 20
161.60332123583851
 30
0.0
  0
VERTEX
  5
9898
  8
0
 10
353.85942643053608
 20
161.59870135194529
 30
0.0
  0
VERTEX
  5
9899
  8
0
 10
353.73374093364009
 20
161.58869300345751
 30
0.0
  0
VERTEX
  5
989A
  8
0
 10
353.60716939254831
 20
161.57766008534151
 30
0.0
  0
VERTEX
  5
989B
  8
0
 10
353.4797919272973
 20
161.56560406611891
 30
0.0
  0
VERTEX
  5
989C
  8
0
 10
353.35169076240572
 20
161.55252792806471
 30
0.0
  0
VERTEX
  5
989D
  8
0
 10
353.22294996633582
 20
161.53843617969861
 30
0.0
  0
VERTEX
  5
989E
  8
0
 10
353.15836637780598
 20
161.53101127451771
 30
0.0
  0
VERTEX
  5
989F
  8
0
 10
353.09365502719129
 20
161.52333484084059
 30
0.0
  0
VERTEX
  5
98A0
  8
0
 10
352.96389242772278
 20
161.50723141302799
 30
0.0
  0
VERTEX
  5
98A1
  8
0
 10
352.83374922000661
 20
161.490134835666
 30
0.0
  0
VERTEX
  5
98A2
  8
0
 10
352.7685621428123
 20
161.48121728868711
 30
0.0
  0
VERTEX
  5
98A3
  8
0
 10
352.70331260003383
 20
161.4720554282008
 30
0.0
  0
VERTEX
  5
98A4
  8
0
 10
352.57266948241931
 20
161.45300481853101
 30
0.0
  0
VERTEX
  5
98A5
  8
0
 10
352.44190607544488
 20
161.4329958577826
 30
0.0
  0
VERTEX
  5
98A6
  8
0
 10
352.37650590592648
 20
161.42263632217501
 30
0.0
  0
VERTEX
  5
98A7
  8
0
 10
352.31110393063551
 20
161.4120419440379
 30
0.0
  0
VERTEX
  5
98A8
  8
0
 10
352.18031086071142
 20
161.39015188465811
 30
0.0
  0
VERTEX
  5
98A9
  8
0
 10
352.04960186082872
 20
161.36733954386781
 30
0.0
  0
VERTEX
  5
98AA
  8
0
 10
351.9190625349861
 20
161.34362175434521
 30
0.0
  0
VERTEX
  5
98AB
  8
0
 10
351.78877921098911
 20
161.3190168062423
 30
0.0
  0
VERTEX
  5
98AC
  8
0
 10
351.65883851591798
 20
161.29354440374669
 30
0.0
  0
VERTEX
  5
98AD
  8
0
 10
351.59402370477659
 20
161.2804894379118
 30
0.0
  0
VERTEX
  5
98AE
  8
0
 10
351.52932696147627
 20
161.267225609669
 30
0.0
  0
VERTEX
  5
98AF
  8
0
 10
351.4003305392585
 20
161.2400827785012
 30
0.0
  0
VERTEX
  5
98B0
  8
0
 10
351.27193432569987
 20
161.21213947826649
 30
0.0
  0
VERTEX
  5
98B1
  8
0
 10
351.14422209621853
 20
161.1834204013486
 30
0.0
  0
VERTEX
  5
98B2
  8
0
 10
351.01727594801793
 20
161.1539512643686
 30
0.0
  0
VERTEX
  5
98B3
  8
0
 10
350.89117598726313
 20
161.123758710787
 30
0.0
  0
VERTEX
  5
98B4
  8
0
 10
350.82846798251057
 20
161.10839976606039
 30
0.0
  0
VERTEX
  5
98B5
  8
0
 10
350.76600113383802
 20
161.09287048291191
 30
0.0
  0
VERTEX
  5
98B6
  8
0
 10
350.64183052631643
 20
161.0613157872904
 30
0.0
  0
VERTEX
  5
98B7
  8
0
 10
350.51874335777251
 20
161.0291253097692
 30
0.0
  0
VERTEX
  5
98B8
  8
0
 10
350.39681843900922
 20
160.99633115301901
 30
0.0
  0
VERTEX
  5
98B9
  8
0
 10
350.27613378316943
 20
160.96296676447071
 30
0.0
  0
VERTEX
  5
98BA
  8
0
 10
350.15676621147082
 20
160.92906685530019
 30
0.0
  0
VERTEX
  5
98BB
  8
0
 10
350.09759992042967
 20
160.9119272514055
 30
0.0
  0
VERTEX
  5
98BC
  8
0
 10
350.03879097911209
 20
160.8946673108438
 30
0.0
  0
VERTEX
  5
98BD
  8
0
 10
349.92228142014801
 20
160.8598050926245
 30
0.0
  0
VERTEX
  5
98BE
  8
0
 10
349.80730860977059
 20
160.82451813196181
 30
0.0
  0
VERTEX
  5
98BF
  8
0
 10
349.69389554802962
 20
160.78883072178391
 30
0.0
  0
VERTEX
  5
98C0
  8
0
 10
349.5811647837113
 20
160.7524734457528
 30
0.0
  0
VERTEX
  5
98C1
  8
0
 10
349.46881749509748
 20
160.71534190327509
 30
0.0
  0
VERTEX
  5
98C2
  8
0
 10
349.41281259504689
 20
160.6964902752328
 30
0.0
  0
VERTEX
  5
98C3
  8
0
 10
349.35693340393169
 20
160.6774506029177
 30
0.0
  0
VERTEX
  5
98C4
  8
0
 10
349.2455914355582
 20
160.6388150734852
 30
0.0
  0
VERTEX
  5
98C5
  8
0
 10
349.13486944635821
 20
160.5994517804823
 30
0.0
  0
VERTEX
  5
98C6
  8
0
 10
349.02484396961381
 20
160.5593780387054
 30
0.0
  0
VERTEX
  5
98C7
  8
0
 10
348.91558997869328
 20
160.51861192089851
 30
0.0
  0
VERTEX
  5
98C8
  8
0
 10
348.80718066671437
 20
160.47717216239641
 30
0.0
  0
VERTEX
  5
98C9
  8
0
 10
348.75331510072328
 20
160.45620567946219
 30
0.0
  0
VERTEX
  5
98CA
  8
0
 10
348.69968724193541
 20
160.4350780616615
 30
0.0
  0
VERTEX
  5
98CB
  8
0
 10
348.5931787383584
 20
160.39234937662931
 30
0.0
  0
VERTEX
  5
98CC
  8
0
 10
348.48772184145349
 20
160.34900621686111
 30
0.0
  0
VERTEX
  5
98CD
  8
0
 10
348.43540792652362
 20
160.3271105717366
 30
0.0
  0
VERTEX
  5
98CE
  8
0
 10
348.38338091890591
 20
160.3050690124727
 30
0.0
  0
VERTEX
  5
98CF
  8
0
 10
348.28021893547378
 20
160.26055887036009
 30
0.0
  0
VERTEX
  5
98D0
  8
0
 10
348.17829785157352
 20
160.2154977578451
 30
0.0
  0
VERTEX
  5
98D1
  8
0
 10
348.12782168222702
 20
160.1927676713056
 30
0.0
  0
VERTEX
  5
98D2
  8
0
 10
348.07767840782662
 20
160.16990843457171
 30
0.0
  0
VERTEX
  5
98D3
  8
0
 10
347.97841990330062
 20
160.12381437226469
 30
0.0
  0
VERTEX
  5
98D4
  8
0
 10
347.88057999143581
 20
160.07723967245721
 30
0.0
  0
VERTEX
  5
98D5
  8
0
 10
347.78421449273668
 20
160.0302089821235
 30
0.0
  0
VERTEX
  5
98D6
  8
0
 10
347.68937722346209
 20
159.9827474071013
 30
0.0
  0
VERTEX
  5
98D7
  8
0
 10
347.59611983952391
 20
159.93488042316909
 30
0.0
  0
VERTEX
  5
98D8
  8
0
 10
347.5500991212125
 20
159.91080294275099
 30
0.0
  0
VERTEX
  5
98D9
  8
0
 10
347.50449169505782
 20
159.88663378461101
 30
0.0
  0
VERTEX
  5
98DA
  8
0
 10
347.41453961107118
 20
159.8380333731314
 30
0.0
  0
VERTEX
  5
98DB
  8
0
 10
347.3262948447632
 20
159.78909783550679
 30
0.0
  0
VERTEX
  5
98DC
  8
0
 10
347.23979166927938
 20
159.73984827840479
 30
0.0
  0
VERTEX
  5
98DD
  8
0
 10
347.15507247298819
 20
159.6903116028526
 30
0.0
  0
VERTEX
  5
98DE
  8
0
 10
347.07217802630521
 20
159.6405153459306
 30
0.0
  0
VERTEX
  5
98DF
  8
0
 10
347.03142733368668
 20
159.61552863341859
 30
0.0
  0
VERTEX
  5
98E0
  8
0
 10
346.99114728514593
 20
159.5904875982072
 30
0.0
  0
VERTEX
  5
98E1
  8
0
 10
346.91201721156767
 20
159.54025692002759
 30
0.0
  0
VERTEX
  5
98E2
  8
0
 10
346.83482261083418
 20
159.48985225653371
 30
0.0
  0
VERTEX
  5
98E3
  8
0
 10
346.75959598413152
 20
159.43930285124529
 30
0.0
  0
VERTEX
  5
98E4
  8
0
 10
346.68636739631302
 20
159.3886381579874
 30
0.0
  0
VERTEX
  5
98E5
  8
0
 10
346.61516435808198
 20
159.33788775089749
 30
0.0
  0
VERTEX
  5
98E6
  8
0
 10
346.58033029292392
 20
159.31248965684139
 30
0.0
  0
VERTEX
  5
98E7
  8
0
 10
346.5460117221669
 20
159.2870812322229
 30
0.0
  0
VERTEX
  5
98E8
  8
0
 10
346.47893163338313
 20
159.23624816855551
 30
0.0
  0
VERTEX
  5
98E9
  8
0
 10
346.41394392214761
 20
159.1854183720119
 30
0.0
  0
VERTEX
  5
98EA
  8
0
 10
346.35106645596937
 20
159.13462220813551
 30
0.0
  0
VERTEX
  5
98EB
  8
0
 10
346.2903149845701
 20
159.08389054052861
 30
0.0
  0
VERTEX
  5
98EC
  8
0
 10
346.23170295049073
 20
159.03325463592171
 30
0.0
  0
VERTEX
  5
98ED
  8
0
 10
346.20320275013052
 20
159.0079824524513
 30
0.0
  0
VERTEX
  5
98EE
  8
0
 10
346.17524131900649
 20
158.98274606917209
 30
0.0
  0
VERTEX
  5
98EF
  8
0
 10
346.12093842658987
 20
158.93239662804251
 30
0.0
  0
VERTEX
  5
98F0
  8
0
 10
346.06879984719899
 20
158.88223821753749
 30
0.0
  0
VERTEX
  5
98F1
  8
0
 10
346.01882827578493
 20
158.8323027634998
 30
0.0
  0
VERTEX
  5
98F2
  8
0
 10
345.97102342847978
 20
158.7826221151098
 30
0.0
  0
VERTEX
  5
98F3
  8
0
 10
345.92538195906718
 20
158.7332279458511
 30
0.0
  0
VERTEX
  5
98F4
  8
0
 10
345.90331421493511
 20
158.70858448636491
 30
0.0
  0
VERTEX
  5
98F5
  8
0
 10
345.88164133509463
 20
158.68385632436761
 30
0.0
  0
VERTEX
  5
98F6
  8
0
 10
345.8395108370355
 20
158.63415865773081
 30
0.0
  0
VERTEX
  5
98F7
  8
0
 10
345.79905689260931
 20
158.5841683884465
 30
0.0
  0
VERTEX
  5
98F8
  8
0
 10
345.77947898701183
 20
158.55907454264761
 30
0.0
  0
VERTEX
  5
98F9
  8
0
 10
345.76034425816812
 20
158.53392079153019
 30
0.0
  0
VERTEX
  5
98FA
  8
0
 10
345.72343452236828
 20
158.48345132987251
 30
0.0
  0
VERTEX
  5
98FB
  8
0
 10
345.68838602162259
 20
158.43279554628441
 30
0.0
  0
VERTEX
  5
98FC
  8
0
 10
345.67157705924961
 20
158.4074088862404
 30
0.0
  0
VERTEX
  5
98FD
  8
0
 10
345.65525377689158
 20
158.38198895576841
 30
0.0
  0
VERTEX
  5
98FE
  8
0
 10
345.62408945161991
 20
158.33106693751239
 30
0.0
  0
VERTEX
  5
98FF
  8
0
 10
345.59494133097041
 20
158.28006462621059
 30
0.0
  0
VERTEX
  5
9900
  8
0
 10
345.56785432274091
 20
158.22901680241841
 30
0.0
  0
VERTEX
  5
9901
  8
0
 10
345.54286998329422
 20
158.17795778729541
 30
0.0
  0
VERTEX
  5
9902
  8
0
 10
345.52002666384442
 20
158.12692156685631
 30
0.0
  0
VERTEX
  5
9903
  8
0
 10
345.50941905783338
 20
158.10142264998819
 30
0.0
  0
VERTEX
  5
9904
  8
0
 10
345.49935974037589
 20
158.07594222547971
 30
0.0
  0
VERTEX
  5
9905
  8
0
 10
345.4809015870419
 20
158.02505396866951
 30
0.0
  0
VERTEX
  5
9906
  8
0
 10
345.46468149569267
 20
157.9742910129674
 30
0.0
  0
VERTEX
  5
9907
  8
0
 10
345.45072561539058
 20
157.92368747708031
 30
0.0
  0
VERTEX
  5
9908
  8
0
 10
345.4390569120992
 20
157.87327727453641
 30
0.0
  0
VERTEX
  5
9909
  8
0
 10
345.42969514860351
 20
157.8230940074919
 30
0.0
  0
VERTEX
  5
990A
  8
0
 10
345.42588466895768
 20
157.7980978643746
 30
0.0
  0
VERTEX
  5
990B
  8
0
 10
345.42265688493762
 20
157.7731708613756
 30
0.0
  0
VERTEX
  5
990C
  8
0
 10
345.41795549987961
 20
157.72354050013459
 30
0.0
  0
VERTEX
  5
990D
  8
0
 10
345.4156012268727
 20
157.6742346522916
 30
0.0
  0
VERTEX
  5
990E
  8
0
 10
345.41530662936248
 20
157.6497106832004
 30
0.0
  0
SEQEND
  5
990F
  8
0
  0
LINE
  5
777B
  8
0
 10
345.41530662936248
 20
157.6497106832004
 30
0.0
 11
345.41530662936202
 21
126.72713414486979
 31
0.0
  0
LINE
  5
77E6
  8
2
 10
749.02004790727005
 20
576.71077176377548
 30
0.0
 11
792.02004790727005
 21
576.71077176377548
 31
0.0
  0
LINE
  5
77E7
  8
2
 10
792.02004790727005
 20
602.7107717637756
 30
0.0
 11
749.02004790727005
 21
602.7107717637756
 31
0.0
  0
LINE
  5
7811
  8
2
 10
749.02004790727005
 20
615.7107717637756
 30
0.0
 11
749.02004790727005
 21
563.71077176377548
 31
0.0
  0
LINE
  5
7812
  8
2
 10
750.52004790727005
 20
609.71077176377548
 30
0.0
 11
750.52004790727005
 21
608.2107717637756
 31
0.0
  0
LINE
  5
7814
  8
2
 10
791.82004790727024
 20
609.71077176377548
 30
0.0
 11
750.52004790727005
 21
609.71077176377548
 31
0.0
  0
LINE
  5
7815
  8
2
 10
746.02004790727005
 20
615.7107717637756
 30
0.0
 11
746.02004790727005
 21
563.71077176377548
 31
0.0
  0
LINE
  5
7816
  8
2
 10
746.02004790727005
 20
615.7107717637756
 30
0.0
 11
749.02004790727005
 21
615.7107717637756
 31
0.0
  0
LINE
  5
7817
  8
2
 10
746.02004790727005
 20
563.71077176377548
 30
0.0
 11
749.02004790727005
 21
563.71077176377548
 31
0.0
  0
LINE
  5
7818
  8
2
 10
750.52004790727005
 20
608.2107717637756
 30
0.0
 11
749.02004790727005
 21
608.2107717637756
 31
0.0
  0
LINE
  5
7819
  8
2
 10
750.52004790727005
 20
569.7107717637756
 30
0.0
 11
750.52004790727005
 21
571.21077176377548
 31
0.0
  0
LINE
  5
781A
  8
2
 10
791.82004790727024
 20
569.7107717637756
 30
0.0
 11
750.52004790727005
 21
569.7107717637756
 31
0.0
  0
LINE
  5
781B
  8
2
 10
750.52004790727005
 20
571.21077176377548
 30
0.0
 11
749.02004790727005
 21
571.21077176377548
 31
0.0
  0
LINE
  5
7DE2
  8
0
 10
339.41530662936162
 20
163.22713414486981
 30
0.0
 11
339.41530662936202
 21
126.72713414486979
 31
0.0
  0
LINE
  5
7DE3
  8
0
 10
278.81530662936029
 20
163.22713414486981
 30
0.0
 11
278.81530662935978
 21
126.72713414486979
 31
0.0
  0
CIRCLE
  5
94D8
  8
0
 10
309.11530662936087
 20
589.71077176377605
 30
0.0
 40
110.8805118983194
  0
LINE
  5
951D
  8
0
 10
272.81530662935978
 20
675.73338477800155
 30
0.0
 11
272.81530662935978
 21
503.6881587495505
 31
0.0
  0
LINE
  5
951E
  8
0
 10
345.4153066293614
 20
675.73338477800166
 30
0.0
 11
345.41530662936259
 21
503.68815874955078
 31
0.0
  0
TEXT
  5
957E
  8
0
 62
     3
 10
0.0
 20
0.0
 30
0.0
 40
10.0
  1
NTWN300
  7
STANDARD1
  0
ENDSEC
  0
EOF
