  0
SECTION
  2
HEADER
  9
$ACADVER
  1
AC1009
  9
$INSBASE
 10
0.0
 20
0.0
 30
0.0
  9
$EXTMIN
 10
0.0
 20
-2.960436562073669
 30
0.0
  9
$EXTMAX
 10
583.62769915415674
 20
545.51479646209157
 30
0.0
  9
$LIMMIN
 10
0.0
 20
0.0
  9
$LIMMAX
 10
375.0
 20
270.0
  9
$ORTHOMODE
 70
     1
  9
$REGENMODE
 70
     1
  9
$FILLMODE
 70
     1
  9
$QTEXTMODE
 70
     0
  9
$MIRRTEXT
 70
     0
  9
$DRAGMODE
 70
     2
  9
$LTSCALE
 40
10.0
  9
$OSMODE
 70
  3071
  9
$ATTMODE
 70
     1
  9
$TEXTSIZE
 40
0.2
  9
$TRACEWID
 40
0.05
  9
$TEXTSTYLE
  7
STANDARD
  9
$CLAYER
  8
0
  9
$CELTYPE
  6
BYLAYER
  9
$CECOLOR
 62
   256
  9
$DIMSCALE
 40
1.0
  9
$DIMASZ
 40
3.0
  9
$DIMEXO
 40
2.0
  9
$DIMDLI
 40
0.38
  9
$DIMRND
 40
0.0
  9
$DIMDLE
 40
0.0
  9
$DIMEXE
 40
2.0
  9
$DIMTP
 40
0.0
  9
$DIMTM
 40
0.0
  9
$DIMTXT
 40
3.2000000000000002
  9
$DIMCEN
 40
0.0
  9
$DIMTSZ
 40
0.0
  9
$DIMTOL
 70
     0
  9
$DIMLIM
 70
     0
  9
$DIMTIH
 70
     0
  9
$DIMTOH
 70
     0
  9
$DIMSE1
 70
     0
  9
$DIMSE2
 70
     0
  9
$DIMTAD
 70
     1
  9
$DIMZIN
 70
     8
  9
$DIMBLK
  1

  9
$DIMASO
 70
     1
  9
$DIMSHO
 70
     0
  9
$DIMPOST
  1

  9
$DIMAPOST
  1

  9
$DIMALT
 70
     0
  9
$DIMALTD
 70
     2
  9
$DIMALTF
 40
25.399999999999999
  9
$DIMLFAC
 40
1.0
  9
$DIMTOFL
 70
     1
  9
$DIMTVP
 40
1.6000000000000001
  9
$DIMTIX
 70
     1
  9
$DIMSOXD
 70
     0
  9
$DIMSAH
 70
     0
  9
$DIMBLK1
  1

  9
$DIMBLK2
  1

  9
$DIMSTYLE
  2
STANDARD
  9
$DIMCLRD
 70
     0
  9
$DIMCLRE
 70
     0
  9
$DIMCLRT
 70
     0
  9
$DIMTFAC
 40
1.0
  9
$DIMGAP
 40
1.5
  9
$LUNITS
 70
     2
  9
$LUPREC
 70
     4
  9
$SKETCHINC
 40
0.1
  9
$FILLETRAD
 40
0.0
  9
$AUNITS
 70
     1
  9
$AUPREC
 70
     4
  9
$MENU
  1
E:\r13\win\SUPPORT\ACAD
  9
$ELEVATION
 40
0.0
  9
$PELEVATION
 40
0.0
  9
$THICKNESS
 40
0.0
  9
$LIMCHECK
 70
     0
  9
$BLIPMODE
 70
     0
  9
$CHAMFERA
 40
0.0
  9
$CHAMFERB
 40
0.0
  9
$SKPOLY
 70
     0
  9
$TDCREATE
 40
2449839.7800462958
  9
$TDUPDATE
 40
2456597.7009318871
  9
$TDINDWG
 40
1.0105280324000001
  9
$TDUSRTIMER
 40
1.0105280324000001
  9
$USRTIMER
 70
     1
  9
$ANGBASE
 50
0.0
  9
$ANGDIR
 70
     0
  9
$PDMODE
 70
     0
  9
$PDSIZE
 40
0.0
  9
$PLINEWID
 40
0.0
  9
$COORDS
 70
     1
  9
$SPLFRAME
 70
     0
  9
$SPLINETYPE
 70
     6
  9
$SPLINESEGS
 70
     8
  9
$ATTDIA
 70
     0
  9
$ATTREQ
 70
     1
  9
$HANDLING
 70
     1
  9
$HANDSEED
  5
9899
  9
$SURFTAB1
 70
     6
  9
$SURFTAB2
 70
     6
  9
$SURFTYPE
 70
     6
  9
$SURFU
 70
     6
  9
$SURFV
 70
     6
  9
$UCSNAME
  2

  9
$UCSORG
 10
0.0
 20
0.0
 30
0.0
  9
$UCSXDIR
 10
1.0
 20
0.0
 30
0.0
  9
$UCSYDIR
 10
0.0
 20
1.0
 30
0.0
  9
$PUCSNAME
  2

  9
$PUCSORG
 10
0.0
 20
0.0
 30
0.0
  9
$PUCSXDIR
 10
1.0
 20
0.0
 30
0.0
  9
$PUCSYDIR
 10
0.0
 20
1.0
 30
0.0
  9
$USERI1
 70
     0
  9
$USERI2
 70
     1
  9
$USERI3
 70
     1
  9
$USERI4
 70
     0
  9
$USERI5
 70
     0
  9
$USERR1
 40
0.0
  9
$USERR2
 40
0.0
  9
$USERR3
 40
0.0
  9
$USERR4
 40
0.0
  9
$USERR5
 40
0.0
  9
$WORLDVIEW
 70
     1
  9
$SHADEDGE
 70
     3
  9
$SHADEDIF
 70
    70
  9
$TILEMODE
 70
     1
  9
$MAXACTVP
 70
    16
  9
$PLIMCHECK
 70
     0
  9
$PEXTMIN
 10
1.0000000000000000E+020
 20
1.0000000000000000E+020
 30
1.0000000000000000E+020
  9
$PEXTMAX
 10
-1.0000000000000000E+020
 20
-1.0000000000000000E+020
 30
-1.0000000000000000E+020
  9
$PLIMMIN
 10
0.0
 20
0.0
  9
$PLIMMAX
 10
12.0
 20
9.0
  9
$UNITMODE
 70
     0
  9
$VISRETAIN
 70
     0
  9
$PLINEGEN
 70
     0
  9
$PSLTSCALE
 70
     0
  0
ENDSEC
  0
SECTION
  2
TABLES
  0
TABLE
  2
VPORT
 70
     1
  0
VPORT
  2
*ACTIVE
 70
     0
 10
0.0
 20
0.0
 11
1.0
 21
1.0
 12
291.81385093594258
 22
272.4673105612178
 13
0.0
 23
0.0
 14
10.0
 24
10.0
 15
10.0
 25
10.0
 16
0.0
 26
0.0
 36
1.0
 17
0.0
 27
0.0
 37
0.0
 40
557.18251281302526
 41
2.304913294797688
 42
50.0
 43
0.0
 44
0.0
 50
0.0
 51
0.0
 71
     0
 72
   500
 73
     1
 74
     0
 75
     0
 76
     0
 77
     0
 78
     2
  0
ENDTAB
  0
TABLE
  2
LTYPE
 70
     4
  0
LTYPE
  2
CONTINUOUS
 70
     0
  3
Solid Line
 72
    65
 73
     0
 40
0.0
  0
LTYPE
  2
CENTER
 70
     0
  3
____ _ ____ _ ____ _ ____ _ ____ _ ____ _ ____
 72
    65
 73
     4
 40
2.0
 49
1.25
 49
-0.25
 49
0.25
 49
-0.25
  0
LTYPE
  2
HIDDEN
 70
     0
  3
_ _ _ _ _ _ _ _ _ _ _ _ _ _ _ _ _ _ _ _ _ _ _
 72
    65
 73
     2
 40
0.375
 49
0.25
 49
-0.125
  0
LTYPE
  2
PHANTOM2
 70
     0
  3
___ _ _ ___ _ _ ___ _ _ ___ _ _
 72
    65
 73
     6
 40
1.25
 49
0.625
 49
-0.125
 49
0.125
 49
-0.125
 49
0.125
 49
-0.125
  0
ENDTAB
  0
TABLE
  2
LAYER
 70
     4
  0
LAYER
  2
0
 70
     0
 62
     7
  6
CONTINUOUS
  0
LAYER
  2
1
 70
     0
 62
     1
  6
CENTER
  0
LAYER
  2
2
 70
     0
 62
     2
  6
HIDDEN
  0
LAYER
  2
DEFPOINTS
 70
     0
 62
     7
  6
CONTINUOUS
  0
ENDTAB
  0
TABLE
  2
STYLE
 70
     2
  0
STYLE
  2
STANDARD
 70
     0
 40
0.0
 41
1.0
 50
0.0
 71
     0
 42
0.2
  3
TXT
  4
BIGFONT
  0
STYLE
  2
STANDARD1
 70
     0
 40
0.0
 41
1.0
 50
0.0
 71
     0
 42
3.0
  3
txt
  4

  0
ENDTAB
  0
TABLE
  2
VIEW
 70
     1
  0
VIEW
  2
ALL
 70
     0
 40
270.0
 10
220.99159663865549
 20
135.0
 41
0.0
 11
0.0
 21
0.0
 31
1.0
 12
0.0
 22
0.0
 32
0.0
 42
0.0
 43
0.0
 44
0.0
 50
0.0
 71
     0
  0
ENDTAB
  0
TABLE
  2
UCS
 70
     0
  0
ENDTAB
  0
TABLE
  2
APPID
 70
     8
  0
APPID
  2
ACAD
 70
     0
  0
APPID
  2
ACAD_MLEADERVER
 70
     0
  0
APPID
  2
ACAD_EXEMPT_FROM_CAD_STANDARDS
 70
     0
  0
APPID
  2
ACAD_DSTYLE_DIMJAG
 70
     0
  0
APPID
  2
ACAD_DSTYLE_DIMTALN
 70
     0
  0
APPID
  2
ACAD_DSTYLE_DIMRADIAL_EXTENSION
 70
     0
  0
APPID
  2
ACAD_PSEXT
 70
     0
  0
APPID
  2
ACAD_NAV_VCDISPLAY
 70
     0
  0
ENDTAB
  0
TABLE
  2
DIMSTYLE
 70
     1
  0
DIMSTYLE
  2
STANDARD
 70
     0
  3

  4

  5

  6

  7

 40
1.0
 41
0.18
 42
0.0625
 43
0.38
 44
0.18
 45
0.0
 46
0.0
 47
0.0
 48
0.0
140
0.18
141
0.09
142
0.0
143
25.399999999999999
144
1.0
145
0.0
146
1.0
147
0.09
 71
     0
 72
     0
 73
     1
 74
     1
 75
     0
 76
     0
 77
     0
 78
     0
170
     0
171
     2
172
     0
173
     0
174
     0
175
     0
176
     0
177
     0
178
     0
  0
ENDTAB
  0
ENDSEC
  0
SECTION
  2
BLOCKS
  0
BLOCK
  8
0
  2
$MODEL_SPACE
 70
     0
 10
0.0
 20
0.0
 30
0.0
  3
$MODEL_SPACE
  1

  0
ENDBLK
  5
11B
  8
0
  0
BLOCK
 67
     1
  8
0
  2
$PAPER_SPACE
 70
     0
 10
0.0
 20
0.0
 30
0.0
  3
$PAPER_SPACE
  1

  0
ENDBLK
  5
119
 67
     1
  8
0
  0
ENDSEC
  0
SECTION
  2
ENTITIES
  0
CIRCLE
  5
8A96
  8
0
 10
202.5684129580672
 20
429.99658943279138
 30
0.0
 40
99.999999999999986
  0
CIRCLE
  5
8A97
  8
0
 10
202.5684129580672
 20
429.99658943279138
 30
0.0
 40
25.0
  0
POLYLINE
  5
8A98
  8
0
 66
     1
 10
0.0
 20
0.0
 30
0.0
  0
VERTEX
  5
954D
  8
0
 10
168.42351984642841
 20
489.91627603715989
 30
0.0
  0
VERTEX
  5
954E
  8
0
 10
168.45961382761971
 20
489.93662169996452
 30
0.0
  0
VERTEX
  5
954F
  8
0
 10
168.532684556129
 20
489.97647070782
 30
0.0
  0
VERTEX
  5
9550
  8
0
 10
168.60689941935919
 20
490.01515362681289
 30
0.0
  0
VERTEX
  5
9551
  8
0
 10
168.64442311795341
 20
490.03404214454332
 30
0.0
  0
VERTEX
  5
9552
  8
0
 10
168.68221728784141
 20
490.05262061163347
 30
0.0
  0
VERTEX
  5
9553
  8
0
 10
168.75859531978449
 20
490.08882395086061
 30
0.0
  0
VERTEX
  5
9554
  8
0
 10
168.8359891804202
 20
490.12371819212223
 30
0.0
  0
VERTEX
  5
9555
  8
0
 10
168.91435326982901
 20
490.15726024603481
 30
0.0
  0
VERTEX
  5
9556
  8
0
 10
168.99364095983441
 20
490.18940946920952
 30
0.0
  0
VERTEX
  5
9557
  8
0
 10
169.07380484044731
 20
490.22012772634679
 30
0.0
  0
VERTEX
  5
9558
  8
0
 10
169.1142003857158
 20
490.23493902170208
 30
0.0
  0
VERTEX
  5
9559
  8
0
 10
169.15479697623459
 20
490.24937943122518
 30
0.0
  0
VERTEX
  5
955A
  8
0
 10
169.2365691728441
 20
490.27713156615869
 30
0.0
  0
VERTEX
  5
955B
  8
0
 10
169.3190731849709
 20
490.30335365817677
 30
0.0
  0
VERTEX
  5
955C
  8
0
 10
169.4022601100036
 20
490.32801750532349
 30
0.0
  0
VERTEX
  5
955D
  8
0
 10
169.48607964858141
 20
490.3510969538163
 30
0.0
  0
VERTEX
  5
955E
  8
0
 10
169.5704802248101
 20
490.37256798485379
 30
0.0
  0
VERTEX
  5
955F
  8
0
 10
169.6128819902878
 20
490.3826934467873
 30
0.0
  0
VERTEX
  5
9560
  8
0
 10
169.6554092090596
 20
490.39240881464428
 30
0.0
  0
VERTEX
  5
9561
  8
0
 10
169.7408131440375
 20
490.41059997328131
 30
0.0
  0
VERTEX
  5
9562
  8
0
 10
169.82663797442001
 20
490.42712436281198
 30
0.0
  0
VERTEX
  5
9563
  8
0
 10
169.8696912269456
 20
490.43475683427209
 30
0.0
  0
VERTEX
  5
9564
  8
0
 10
169.91282928031291
 20
490.44196729468848
 30
0.0
  0
VERTEX
  5
9565
  8
0
 10
169.99933251481019
 20
490.45511650662479
 30
0.0
  0
VERTEX
  5
9566
  8
0
 10
170.08609324589219
 20
490.4665621587398
 30
0.0
  0
VERTEX
  5
9567
  8
0
 10
170.12955325460729
 20
490.47164373160041
 30
0.0
  0
VERTEX
  5
9568
  8
0
 10
170.17305878995239
 20
490.47629695017099
 30
0.0
  0
VERTEX
  5
9569
  8
0
 10
170.26019583368949
 20
490.4843173617403
 30
0.0
  0
VERTEX
  5
956A
  8
0
 10
170.3474570031421
 20
490.49061963313147
 30
0.0
  0
VERTEX
  5
956B
  8
0
 10
170.4347872894609
 20
490.495201418926
 30
0.0
  0
VERTEX
  5
956C
  8
0
 10
170.52213098115359
 20
490.49806268958059
 30
0.0
  0
VERTEX
  5
956D
  8
0
 10
170.60943189988211
 20
490.49920579430892
 30
0.0
  0
VERTEX
  5
956E
  8
0
 10
170.65304869395911
 20
490.4991344296825
 30
0.0
  0
VERTEX
  5
956F
  8
0
 10
170.6966336359601
 20
490.4986355026474
 30
0.0
  0
VERTEX
  5
9570
  8
0
 10
170.7836797837281
 20
490.49635902499699
 30
0.0
  0
VERTEX
  5
9571
  8
0
 10
170.8705141770551
 20
490.49238601228058
 30
0.0
  0
VERTEX
  5
9572
  8
0
 10
170.95708112527331
 20
490.48672853471749
 30
0.0
  0
VERTEX
  5
9573
  8
0
 10
171.04332564989221
 20
490.47940103954789
 30
0.0
  0
VERTEX
  5
9574
  8
0
 10
171.12919370495001
 20
490.470420289402
 30
0.0
  0
VERTEX
  5
9575
  8
0
 10
171.17196985989261
 20
490.46531581002711
 30
0.0
  0
VERTEX
  5
9576
  8
0
 10
171.214631823525
 20
490.45980535803409
 30
0.0
  0
VERTEX
  5
9577
  8
0
 10
171.29958615720119
 20
490.44757776736861
 30
0.0
  0
VERTEX
  5
9578
  8
0
 10
171.38400248128301
 20
490.43376157700658
 30
0.0
  0
VERTEX
  5
9579
  8
0
 10
171.46782645911929
 20
490.41838342996812
 30
0.0
  0
VERTEX
  5
957A
  8
0
 10
171.55100390154391
 20
490.40147257510699
 30
0.0
  0
VERTEX
  5
957B
  8
0
 10
171.63348102060939
 20
490.38306086687481
 30
0.0
  0
VERTEX
  5
957C
  8
0
 10
171.67444032107181
 20
490.37330285464549
 30
0.0
  0
VERTEX
  5
957D
  8
0
 10
171.71520467790879
 20
490.36318274282871
 30
0.0
  0
VERTEX
  5
957E
  8
0
 10
171.7961226279285
 20
490.34187517910118
 30
0.0
  0
VERTEX
  5
957F
  8
0
 10
171.87618375704409
 20
490.31917762380982
 30
0.0
  0
VERTEX
  5
9580
  8
0
 10
171.9553458364621
 20
490.29512954781592
 30
0.0
  0
VERTEX
  5
9581
  8
0
 10
172.03414686961969
 20
490.26957852495138
 30
0.0
  0
VERTEX
  5
9582
  8
0
 10
172.1128960106798
 20
490.24240751827188
 30
0.0
  0
VERTEX
  5
9583
  8
0
 10
172.15223118334501
 20
490.22821292628282
 30
0.0
  0
VERTEX
  5
9584
  8
0
 10
172.1915294864952
 20
490.21361176199548
 30
0.0
  0
VERTEX
  5
9585
  8
0
 10
172.2699838326489
 20
490.18318917135161
 30
0.0
  0
VERTEX
  5
9586
  8
0
 10
172.3481961314528
 20
490.15114027591898
 30
0.0
  0
VERTEX
  5
9587
  8
0
 10
172.42610423991439
 20
490.11746813315239
 30
0.0
  0
VERTEX
  5
9588
  8
0
 10
172.5036470083669
 20
490.08217822193888
 30
0.0
  0
VERTEX
  5
9589
  8
0
 10
172.5807644902406
 20
490.0452783159401
 30
0.0
  0
VERTEX
  5
958A
  8
0
 10
172.61914539405689
 20
490.026227635841
 30
0.0
  0
VERTEX
  5
958B
  8
0
 10
172.65739814321111
 20
490.0067783363732
 30
0.0
  0
VERTEX
  5
958C
  8
0
 10
172.73349102170911
 20
489.96669018382931
 30
0.0
  0
VERTEX
  5
958D
  8
0
 10
172.80898795410761
 20
489.92502755233119
 30
0.0
  0
VERTEX
  5
958E
  8
0
 10
172.84649615484199
 20
489.90361056735611
 30
0.0
  0
VERTEX
  5
958F
  8
0
 10
172.8838353266205
 20
489.88180594926081
 30
0.0
  0
VERTEX
  5
9590
  8
0
 10
172.9579802102935
 20
489.83704315451428
 30
0.0
  0
VERTEX
  5
9591
  8
0
 10
173.03137027440059
 20
489.79075931715431
 30
0.0
  0
VERTEX
  5
9592
  8
0
 10
173.06776611364509
 20
489.7670539316025
 30
0.0
  0
VERTEX
  5
9593
  8
0
 10
173.103954006327
 20
489.74297687143081
 30
0.0
  0
VERTEX
  5
9594
  8
0
 10
173.1756809213029
 20
489.69372043511271
 30
0.0
  0
VERTEX
  5
9595
  8
0
 10
173.24650175954139
 20
489.6430166918006
 30
0.0
  0
VERTEX
  5
9596
  8
0
 10
173.31636867117231
 20
489.59089425719662
 30
0.0
  0
VERTEX
  5
9597
  8
0
 10
173.3852353892612
 20
489.53738352919919
 30
0.0
  0
VERTEX
  5
9598
  8
0
 10
173.45305739106101
 20
489.48251652160047
 30
0.0
  0
VERTEX
  5
9599
  8
0
 10
173.48656322395709
 20
489.45458481442051
 30
0.0
  0
VERTEX
  5
959A
  8
0
 10
173.51979204752479
 20
489.42632668109098
 30
0.0
  0
VERTEX
  5
959B
  8
0
 10
173.58540667291609
 20
489.3688416171106
 30
0.0
  0
VERTEX
  5
959C
  8
0
 10
173.6498742351846
 20
489.31008556715813
 30
0.0
  0
VERTEX
  5
959D
  8
0
 10
173.71315573303721
 20
489.25009555251449
 30
0.0
  0
VERTEX
  5
959E
  8
0
 10
173.7752130997155
 20
489.18891083461699
 30
0.0
  0
VERTEX
  5
959F
  8
0
 10
173.83600957578531
 20
489.12657265351419
 30
0.0
  0
VERTEX
  5
95A0
  8
0
 10
173.8659238973141
 20
489.09498441051687
 30
0.0
  0
VERTEX
  5
95A1
  8
0
 10
173.89550990018819
 20
489.06312409553522
 30
0.0
  0
VERTEX
  5
95A2
  8
0
 10
173.9536804863846
 20
488.99860994730147
 30
0.0
  0
VERTEX
  5
95A3
  8
0
 10
174.0104895838904
 20
488.93307653604478
 30
0.0
  0
VERTEX
  5
95A4
  8
0
 10
174.0659074254572
 20
488.86657155603848
 30
0.0
  0
VERTEX
  5
95A5
  8
0
 10
174.11990636007019
 20
488.79914388082381
 30
0.0
  0
VERTEX
  5
95A6
  8
0
 10
174.17246097176709
 20
488.73084336085748
 30
0.0
  0
VERTEX
  5
95A7
  8
0
 10
174.1981893393135
 20
488.69638159239798
 30
0.0
  0
VERTEX
  5
95A8
  8
0
 10
174.22354808083489
 20
488.66172074883917
 30
0.0
  0
VERTEX
  5
95A9
  8
0
 10
174.27314621100001
 20
488.59182839243232
 30
0.0
  0
VERTEX
  5
95AA
  8
0
 10
174.32123537037839
 20
488.52122064982711
 30
0.0
  0
VERTEX
  5
95AB
  8
0
 10
174.3677972479486
 20
488.44995376552629
 30
0.0
  0
VERTEX
  5
95AC
  8
0
 10
174.4128154106665
 20
488.37808570814133
 30
0.0
  0
VERTEX
  5
95AD
  8
0
 10
174.4562754808785
 20
488.30567599706069
 30
0.0
  0
VERTEX
  5
95AE
  8
0
 10
174.47741733961351
 20
488.2692870001049
 30
0.0
  0
VERTEX
  5
95AF
  8
0
 10
174.498165294503
 20
488.23278551814951
 30
0.0
  0
VERTEX
  5
95B0
  8
0
 10
174.53847504042551
 20
488.15947632836082
 30
0.0
  0
VERTEX
  5
95B1
  8
0
 10
174.57719738150121
 20
488.08581144890758
 30
0.0
  0
VERTEX
  5
95B2
  8
0
 10
174.6143275575009
 20
488.01185464638121
 30
0.0
  0
VERTEX
  5
95B3
  8
0
 10
174.649955458965
 20
487.9374735025238
 30
0.0
  0
VERTEX
  5
95B4
  8
0
 10
174.68440213449961
 20
487.86198329391692
 30
0.0
  0
VERTEX
  5
95B5
  8
0
 10
174.70117780736379
 20
487.8238105025714
 30
0.0
  0
VERTEX
  5
95B6
  8
0
 10
174.71764590611929
 20
487.78536069913861
 30
0.0
  0
VERTEX
  5
95B7
  8
0
 10
174.7496329826117
 20
487.70765508398807
 30
0.0
  0
VERTEX
  5
95B8
  8
0
 10
174.78031229132549
 20
487.6289175253803
 30
0.0
  0
VERTEX
  5
95B9
  8
0
 10
174.79514634642189
 20
487.58917813193398
 30
0.0
  0
VERTEX
  5
95BA
  8
0
 10
174.8096356000205
 20
487.54920054736323
 30
0.0
  0
VERTEX
  5
95BB
  8
0
 10
174.8375576135727
 20
487.46855784715473
 30
0.0
  0
VERTEX
  5
95BC
  8
0
 10
174.86403604571251
 20
487.38704401006203
 30
0.0
  0
VERTEX
  5
95BD
  8
0
 10
174.87672153901801
 20
487.34597764305943
 30
0.0
  0
VERTEX
  5
95BE
  8
0
 10
174.88903166562611
 20
487.30471421231528
 30
0.0
  0
VERTEX
  5
95BF
  8
0
 10
174.912508318926
 20
487.2216239110428
 30
0.0
  0
VERTEX
  5
95C0
  8
0
 10
174.93443290319601
 20
487.1378285963799
 30
0.0
  0
VERTEX
  5
95C1
  8
0
 10
174.95477511647411
 20
487.05338443592092
 30
0.0
  0
VERTEX
  5
95C2
  8
0
 10
174.97350726387589
 20
486.96834906666868
 30
0.0
  0
VERTEX
  5
95C3
  8
0
 10
174.99060434946841
 20
486.88278143717957
 30
0.0
  0
VERTEX
  5
95C4
  8
0
 10
174.99853269563619
 20
486.83981673807028
 30
0.0
  0
VERTEX
  5
95C5
  8
0
 10
175.00604417485599
 20
486.79674153578321
 30
0.0
  0
VERTEX
  5
95C6
  8
0
 10
175.01980741235269
 20
486.71029011589991
 30
0.0
  0
VERTEX
  5
95C7
  8
0
 10
175.0318776531208
 20
486.62348841760308
 30
0.0
  0
VERTEX
  5
95C8
  8
0
 10
175.0422414304166
 20
486.53639788461243
 30
0.0
  0
VERTEX
  5
95C9
  8
0
 10
175.05088821780549
 20
486.44907987594689
 30
0.0
  0
VERTEX
  5
95CA
  8
0
 10
175.05781044455529
 20
486.36159475623867
 30
0.0
  0
VERTEX
  5
95CB
  8
0
 10
175.0606235815053
 20
486.31780266653118
 30
0.0
  0
VERTEX
  5
95CC
  8
0
 10
175.06300420257
 20
486.27398496755882
 30
0.0
  0
VERTEX
  5
95CD
  8
0
 10
175.06646659864961
 20
486.18630388286903
 30
0.0
  0
VERTEX
  5
95CE
  8
0
 10
175.06819684444099
 20
486.098613918078
 30
0.0
  0
VERTEX
  5
95CF
  8
0
 10
175.0684129580672
 20
486.05478512265631
 30
0.0
  0
SEQEND
  5
95D0
  8
0
  0
ARC
  5
8A99
  8
0
 10
202.5684129580672
 20
429.99658943279138
 30
0.0
 40
68.965517241379331
 50
119.6764073220503
 51
240.3235926779497
  0
POLYLINE
  5
8A9A
  8
0
 66
     1
 10
0.0
 20
0.0
 30
0.0
  0
VERTEX
  5
95D1
  8
0
 10
175.0684129580672
 20
373.93839374292691
 30
0.0
  0
VERTEX
  5
95D2
  8
0
 10
175.06819684444099
 20
373.89456494750482
 30
0.0
  0
VERTEX
  5
95D3
  8
0
 10
175.06646659864961
 20
373.80687498271368
 30
0.0
  0
VERTEX
  5
95D4
  8
0
 10
175.06300420257
 20
373.71919389802389
 30
0.0
  0
VERTEX
  5
95D5
  8
0
 10
175.0606235815053
 20
373.67537619905153
 30
0.0
  0
VERTEX
  5
95D6
  8
0
 10
175.05781044455529
 20
373.63158410934398
 30
0.0
  0
VERTEX
  5
95D7
  8
0
 10
175.05088821780549
 20
373.54409898963593
 30
0.0
  0
VERTEX
  5
95D8
  8
0
 10
175.0422414304166
 20
373.45678098097028
 30
0.0
  0
VERTEX
  5
95D9
  8
0
 10
175.0318776531208
 20
373.36969044797962
 30
0.0
  0
VERTEX
  5
95DA
  8
0
 10
175.01980741235269
 20
373.2828887496828
 30
0.0
  0
VERTEX
  5
95DB
  8
0
 10
175.00604417485599
 20
373.19643732979949
 30
0.0
  0
VERTEX
  5
95DC
  8
0
 10
174.99853269563619
 20
373.15336212751242
 30
0.0
  0
VERTEX
  5
95DD
  8
0
 10
174.99060434946841
 20
373.11039742840308
 30
0.0
  0
VERTEX
  5
95DE
  8
0
 10
174.97350726387589
 20
373.02482979891403
 30
0.0
  0
VERTEX
  5
95DF
  8
0
 10
174.95477511647411
 20
372.93979442966179
 30
0.0
  0
VERTEX
  5
95E0
  8
0
 10
174.93443290319601
 20
372.8553502692028
 30
0.0
  0
VERTEX
  5
95E1
  8
0
 10
174.912508318926
 20
372.77155495453991
 30
0.0
  0
VERTEX
  5
95E2
  8
0
 10
174.88903166562611
 20
372.68846465326749
 30
0.0
  0
VERTEX
  5
95E3
  8
0
 10
174.87672153901801
 20
372.64720122252339
 30
0.0
  0
VERTEX
  5
95E4
  8
0
 10
174.86403604571251
 20
372.60613485552068
 30
0.0
  0
VERTEX
  5
95E5
  8
0
 10
174.8375576135727
 20
372.52462101842798
 30
0.0
  0
VERTEX
  5
95E6
  8
0
 10
174.8096356000205
 20
372.44397831821999
 30
0.0
  0
VERTEX
  5
95E7
  8
0
 10
174.79514634642189
 20
372.40400073364867
 30
0.0
  0
VERTEX
  5
95E8
  8
0
 10
174.78031229132549
 20
372.3642613402024
 30
0.0
  0
VERTEX
  5
95E9
  8
0
 10
174.7496329826117
 20
372.28552378159458
 30
0.0
  0
VERTEX
  5
95EA
  8
0
 10
174.71764590611929
 20
372.2078181664441
 30
0.0
  0
VERTEX
  5
95EB
  8
0
 10
174.70117780736379
 20
372.1693683630113
 30
0.0
  0
VERTEX
  5
95EC
  8
0
 10
174.68440213449961
 20
372.13119557166578
 30
0.0
  0
VERTEX
  5
95ED
  8
0
 10
174.649955458965
 20
372.05570536305902
 30
0.0
  0
VERTEX
  5
95EE
  8
0
 10
174.6143275575009
 20
371.98132421920161
 30
0.0
  0
VERTEX
  5
95EF
  8
0
 10
174.57719738150121
 20
371.90736741667507
 30
0.0
  0
VERTEX
  5
95F0
  8
0
 10
174.53847504042591
 20
371.83370253722188
 30
0.0
  0
VERTEX
  5
95F1
  8
0
 10
174.49816529450339
 20
371.76039334743319
 30
0.0
  0
VERTEX
  5
95F2
  8
0
 10
174.47741733961351
 20
371.72389186547781
 30
0.0
  0
VERTEX
  5
95F3
  8
0
 10
174.4562754808785
 20
371.68750286852202
 30
0.0
  0
VERTEX
  5
95F4
  8
0
 10
174.4128154106665
 20
371.61509315744138
 30
0.0
  0
VERTEX
  5
95F5
  8
0
 10
174.3677972479486
 20
371.54322510005642
 30
0.0
  0
VERTEX
  5
95F6
  8
0
 10
174.32123537037839
 20
371.47195821575571
 30
0.0
  0
VERTEX
  5
95F7
  8
0
 10
174.27314621100001
 20
371.4013504731505
 30
0.0
  0
VERTEX
  5
95F8
  8
0
 10
174.22354808083489
 20
371.33145811674359
 30
0.0
  0
VERTEX
  5
95F9
  8
0
 10
174.1981893393135
 20
371.29679727318472
 30
0.0
  0
VERTEX
  5
95FA
  8
0
 10
174.17246097176709
 20
371.26233550472517
 30
0.0
  0
VERTEX
  5
95FB
  8
0
 10
174.11990636007019
 20
371.19403498475901
 30
0.0
  0
VERTEX
  5
95FC
  8
0
 10
174.0659074254572
 20
371.12660730954423
 30
0.0
  0
VERTEX
  5
95FD
  8
0
 10
174.0104895838904
 20
371.06010232953781
 30
0.0
  0
VERTEX
  5
95FE
  8
0
 10
173.9536804863846
 20
370.99456891828117
 30
0.0
  0
VERTEX
  5
95FF
  8
0
 10
173.89550990018819
 20
370.93005477004749
 30
0.0
  0
VERTEX
  5
9600
  8
0
 10
173.8659238973141
 20
370.89819445506578
 30
0.0
  0
VERTEX
  5
9601
  8
0
 10
173.83600957578531
 20
370.86660621206858
 30
0.0
  0
VERTEX
  5
9602
  8
0
 10
173.7752130997155
 20
370.80426803096572
 30
0.0
  0
VERTEX
  5
9603
  8
0
 10
173.71315573303721
 20
370.74308331306872
 30
0.0
  0
VERTEX
  5
9604
  8
0
 10
173.6498742351846
 20
370.68309329842469
 30
0.0
  0
VERTEX
  5
9605
  8
0
 10
173.58540667291609
 20
370.6243372484721
 30
0.0
  0
VERTEX
  5
9606
  8
0
 10
173.51979204752479
 20
370.56685218449212
 30
0.0
  0
VERTEX
  5
9607
  8
0
 10
173.48656322395709
 20
370.53859405116219
 30
0.0
  0
VERTEX
  5
9608
  8
0
 10
173.45305739106101
 20
370.51066234398218
 30
0.0
  0
VERTEX
  5
9609
  8
0
 10
173.3852353892612
 20
370.45579533638357
 30
0.0
  0
VERTEX
  5
960A
  8
0
 10
173.31636867117231
 20
370.40228460838608
 30
0.0
  0
VERTEX
  5
960B
  8
0
 10
173.24650175954139
 20
370.35016217378222
 30
0.0
  0
VERTEX
  5
960C
  8
0
 10
173.1756809213029
 20
370.29945843047
 30
0.0
  0
VERTEX
  5
960D
  8
0
 10
173.103954006327
 20
370.25020199415189
 30
0.0
  0
VERTEX
  5
960E
  8
0
 10
173.06776611364509
 20
370.2261249339802
 30
0.0
  0
VERTEX
  5
960F
  8
0
 10
173.03137027440059
 20
370.20241954842851
 30
0.0
  0
VERTEX
  5
9610
  8
0
 10
172.9579802102935
 20
370.15613571106837
 30
0.0
  0
VERTEX
  5
9611
  8
0
 10
172.8838353266205
 20
370.1113729163219
 30
0.0
  0
VERTEX
  5
9612
  8
0
 10
172.8464961548425
 20
370.08956829822671
 30
0.0
  0
VERTEX
  5
9613
  8
0
 10
172.80898795410761
 20
370.06815131325158
 30
0.0
  0
VERTEX
  5
9614
  8
0
 10
172.73349102170911
 20
370.02648868175339
 30
0.0
  0
VERTEX
  5
9615
  8
0
 10
172.65739814321111
 20
369.9864005292095
 30
0.0
  0
VERTEX
  5
9616
  8
0
 10
172.61914539405689
 20
369.96695122974171
 30
0.0
  0
VERTEX
  5
9617
  8
0
 10
172.5807644902406
 20
369.94790054964261
 30
0.0
  0
VERTEX
  5
9618
  8
0
 10
172.5036470083669
 20
369.91100064364377
 30
0.0
  0
VERTEX
  5
9619
  8
0
 10
172.42610423991439
 20
369.87571073243032
 30
0.0
  0
VERTEX
  5
961A
  8
0
 10
172.3481961314528
 20
369.84203858966367
 30
0.0
  0
VERTEX
  5
961B
  8
0
 10
172.2699838326489
 20
369.80998969423109
 30
0.0
  0
VERTEX
  5
961C
  8
0
 10
172.1915294864952
 20
369.77956710358723
 30
0.0
  0
VERTEX
  5
961D
  8
0
 10
172.15223118334501
 20
369.76496593929988
 30
0.0
  0
VERTEX
  5
961E
  8
0
 10
172.1128960106798
 20
369.75077134731077
 30
0.0
  0
VERTEX
  5
961F
  8
0
 10
172.03414686961969
 20
369.72360034063132
 30
0.0
  0
VERTEX
  5
9620
  8
0
 10
171.9553458364621
 20
369.6980493177669
 30
0.0
  0
VERTEX
  5
9621
  8
0
 10
171.87618375704409
 20
369.674001241773
 30
0.0
  0
VERTEX
  5
9622
  8
0
 10
171.7961226279285
 20
369.65130368648153
 30
0.0
  0
VERTEX
  5
9623
  8
0
 10
171.71520467790879
 20
369.62999612275399
 30
0.0
  0
VERTEX
  5
9624
  8
0
 10
171.67444032107181
 20
369.61987601093722
 30
0.0
  0
VERTEX
  5
9625
  8
0
 10
171.63348102060939
 20
369.61011799870789
 30
0.0
  0
VERTEX
  5
9626
  8
0
 10
171.55100390154391
 20
369.59170629047583
 30
0.0
  0
VERTEX
  5
9627
  8
0
 10
171.46782645911929
 20
369.57479543561459
 30
0.0
  0
VERTEX
  5
9628
  8
0
 10
171.38400248128301
 20
369.55941728857613
 30
0.0
  0
VERTEX
  5
9629
  8
0
 10
171.29958615720119
 20
369.54560109821409
 30
0.0
  0
VERTEX
  5
962A
  8
0
 10
171.21463182352539
 20
369.53337350754862
 30
0.0
  0
VERTEX
  5
962B
  8
0
 10
171.17196985989261
 20
369.52786305555571
 30
0.0
  0
VERTEX
  5
962C
  8
0
 10
171.12919370495001
 20
369.52275857618071
 30
0.0
  0
VERTEX
  5
962D
  8
0
 10
171.04332564989221
 20
369.51377782603493
 30
0.0
  0
VERTEX
  5
962E
  8
0
 10
170.95708112527331
 20
369.50645033086522
 30
0.0
  0
VERTEX
  5
962F
  8
0
 10
170.8705141770551
 20
369.50079285330207
 30
0.0
  0
VERTEX
  5
9630
  8
0
 10
170.7836797837281
 20
369.49681984058572
 30
0.0
  0
VERTEX
  5
9631
  8
0
 10
170.6966336359601
 20
369.4945433629353
 30
0.0
  0
VERTEX
  5
9632
  8
0
 10
170.65304869395911
 20
369.49404443590021
 30
0.0
  0
VERTEX
  5
9633
  8
0
 10
170.60943189988211
 20
369.49397307127379
 30
0.0
  0
VERTEX
  5
9634
  8
0
 10
170.52213098115359
 20
369.49511617600211
 30
0.0
  0
VERTEX
  5
9635
  8
0
 10
170.4347872894609
 20
369.49797744665682
 30
0.0
  0
VERTEX
  5
9636
  8
0
 10
170.3474570031421
 20
369.50255923245118
 30
0.0
  0
VERTEX
  5
9637
  8
0
 10
170.26019583368949
 20
369.50886150384241
 30
0.0
  0
VERTEX
  5
9638
  8
0
 10
170.17305878995239
 20
369.51688191541172
 30
0.0
  0
VERTEX
  5
9639
  8
0
 10
170.1295532546078
 20
369.52153513398241
 30
0.0
  0
VERTEX
  5
963A
  8
0
 10
170.0860932458927
 20
369.5266167068429
 30
0.0
  0
VERTEX
  5
963B
  8
0
 10
169.99933251481019
 20
369.53806235895792
 30
0.0
  0
VERTEX
  5
963C
  8
0
 10
169.91282928031291
 20
369.55121157089422
 30
0.0
  0
VERTEX
  5
963D
  8
0
 10
169.8696912269456
 20
369.55842203131061
 30
0.0
  0
VERTEX
  5
963E
  8
0
 10
169.82663797442001
 20
369.56605450277073
 30
0.0
  0
VERTEX
  5
963F
  8
0
 10
169.7408131440375
 20
369.58257889230151
 30
0.0
  0
VERTEX
  5
9640
  8
0
 10
169.6554092090596
 20
369.60077005093842
 30
0.0
  0
VERTEX
  5
9641
  8
0
 10
169.6128819902878
 20
369.61048541879552
 30
0.0
  0
VERTEX
  5
9642
  8
0
 10
169.5704802248101
 20
369.62061088072898
 30
0.0
  0
VERTEX
  5
9643
  8
0
 10
169.48607964858141
 20
369.64208191176641
 30
0.0
  0
VERTEX
  5
9644
  8
0
 10
169.4022601100036
 20
369.66516136025871
 30
0.0
  0
VERTEX
  5
9645
  8
0
 10
169.3190731849709
 20
369.68982520740587
 30
0.0
  0
VERTEX
  5
9646
  8
0
 10
169.2365691728441
 20
369.71604729942402
 30
0.0
  0
VERTEX
  5
9647
  8
0
 10
169.15479697623459
 20
369.74379943435753
 30
0.0
  0
VERTEX
  5
9648
  8
0
 10
169.1142003857162
 20
369.75823984388057
 30
0.0
  0
VERTEX
  5
9649
  8
0
 10
169.07380484044731
 20
369.77305113923592
 30
0.0
  0
VERTEX
  5
964A
  8
0
 10
168.99364095983441
 20
369.80376939637318
 30
0.0
  0
VERTEX
  5
964B
  8
0
 10
168.91435326982901
 20
369.83591861954778
 30
0.0
  0
VERTEX
  5
964C
  8
0
 10
168.8359891804202
 20
369.86946067346048
 30
0.0
  0
VERTEX
  5
964D
  8
0
 10
168.75859531978449
 20
369.90435491472209
 30
0.0
  0
VERTEX
  5
964E
  8
0
 10
168.68221728784141
 20
369.94055825394918
 30
0.0
  0
VERTEX
  5
964F
  8
0
 10
168.64442311795341
 20
369.95913672103939
 30
0.0
  0
VERTEX
  5
9650
  8
0
 10
168.60689941935919
 20
369.97802523876931
 30
0.0
  0
VERTEX
  5
9651
  8
0
 10
168.532684556129
 20
370.01670815776271
 30
0.0
  0
VERTEX
  5
9652
  8
0
 10
168.45961382761971
 20
370.05655716561819
 30
0.0
  0
VERTEX
  5
9653
  8
0
 10
168.42351984642841
 20
370.07690282842287
 30
0.0
  0
SEQEND
  5
9654
  8
0
  0
POLYLINE
  5
8A9C
  8
0
 66
     1
 10
0.0
 20
0.0
 30
0.0
  0
VERTEX
  5
9655
  8
0
 10
230.06841295806731
 20
486.05478512265631
 30
0.0
  0
VERTEX
  5
9656
  8
0
 10
230.06862907169401
 20
486.098613918078
 30
0.0
  0
VERTEX
  5
9657
  8
0
 10
230.0703593174853
 20
486.18630388286903
 30
0.0
  0
VERTEX
  5
9658
  8
0
 10
230.07382171356451
 20
486.27398496755882
 30
0.0
  0
VERTEX
  5
9659
  8
0
 10
230.07620233462919
 20
486.31780266653118
 30
0.0
  0
VERTEX
  5
965A
  8
0
 10
230.07901547157959
 20
486.36159475623867
 30
0.0
  0
VERTEX
  5
965B
  8
0
 10
230.08593769832891
 20
486.44907987594689
 30
0.0
  0
VERTEX
  5
965C
  8
0
 10
230.0945844857178
 20
486.53639788461282
 30
0.0
  0
VERTEX
  5
965D
  8
0
 10
230.10494826301371
 20
486.62348841760308
 30
0.0
  0
VERTEX
  5
965E
  8
0
 10
230.11701850378219
 20
486.71029011589991
 30
0.0
  0
VERTEX
  5
965F
  8
0
 10
230.1307817412785
 20
486.79674153578321
 30
0.0
  0
VERTEX
  5
9660
  8
0
 10
230.1382932204983
 20
486.83981673807028
 30
0.0
  0
VERTEX
  5
9661
  8
0
 10
230.14622156666661
 20
486.88278143717957
 30
0.0
  0
VERTEX
  5
9662
  8
0
 10
230.1633186522586
 20
486.96834906666868
 30
0.0
  0
VERTEX
  5
9663
  8
0
 10
230.1820507996604
 20
487.05338443592092
 30
0.0
  0
VERTEX
  5
9664
  8
0
 10
230.20239301293901
 20
487.1378285963799
 30
0.0
  0
VERTEX
  5
9665
  8
0
 10
230.22431759720851
 20
487.2216239110428
 30
0.0
  0
VERTEX
  5
9666
  8
0
 10
230.24779425050841
 20
487.30471421231528
 30
0.0
  0
VERTEX
  5
9667
  8
0
 10
230.26010437711651
 20
487.34597764305983
 30
0.0
  0
VERTEX
  5
9668
  8
0
 10
230.272789870422
 20
487.38704401006203
 30
0.0
  0
VERTEX
  5
9669
  8
0
 10
230.29926830256181
 20
487.46855784715473
 30
0.0
  0
VERTEX
  5
966A
  8
0
 10
230.32719031611441
 20
487.54920054736323
 30
0.0
  0
VERTEX
  5
966B
  8
0
 10
230.34167956971311
 20
487.58917813193398
 30
0.0
  0
VERTEX
  5
966C
  8
0
 10
230.35651362480939
 20
487.6289175253803
 30
0.0
  0
VERTEX
  5
966D
  8
0
 10
230.38719293352281
 20
487.70765508398858
 30
0.0
  0
VERTEX
  5
966E
  8
0
 10
230.4191800100152
 20
487.78536069913861
 30
0.0
  0
VERTEX
  5
966F
  8
0
 10
230.43564810877069
 20
487.8238105025714
 30
0.0
  0
VERTEX
  5
9670
  8
0
 10
230.45242378163539
 20
487.86198329391692
 30
0.0
  0
VERTEX
  5
9671
  8
0
 10
230.48687045716949
 20
487.9374735025238
 30
0.0
  0
VERTEX
  5
9672
  8
0
 10
230.52249835863361
 20
488.01185464638121
 30
0.0
  0
VERTEX
  5
9673
  8
0
 10
230.5596285346337
 20
488.08581144890758
 30
0.0
  0
VERTEX
  5
9674
  8
0
 10
230.598350875709
 20
488.15947632836082
 30
0.0
  0
VERTEX
  5
9675
  8
0
 10
230.63866062163149
 20
488.23278551814951
 30
0.0
  0
VERTEX
  5
9676
  8
0
 10
230.6594085765214
 20
488.2692870001049
 30
0.0
  0
VERTEX
  5
9677
  8
0
 10
230.68055043525649
 20
488.30567599706069
 30
0.0
  0
VERTEX
  5
9678
  8
0
 10
230.72401050546799
 20
488.37808570814133
 30
0.0
  0
VERTEX
  5
9679
  8
0
 10
230.76902866818591
 20
488.44995376552629
 30
0.0
  0
VERTEX
  5
967A
  8
0
 10
230.81559054575609
 20
488.52122064982711
 30
0.0
  0
VERTEX
  5
967B
  8
0
 10
230.8636797051345
 20
488.59182839243232
 30
0.0
  0
VERTEX
  5
967C
  8
0
 10
230.9132778352996
 20
488.66172074883917
 30
0.0
  0
VERTEX
  5
967D
  8
0
 10
230.93863657682141
 20
488.69638159239798
 30
0.0
  0
VERTEX
  5
967E
  8
0
 10
230.96436494436739
 20
488.73084336085748
 30
0.0
  0
VERTEX
  5
967F
  8
0
 10
231.01691955606469
 20
488.79914388082381
 30
0.0
  0
VERTEX
  5
9680
  8
0
 10
231.07091849067729
 20
488.86657155603848
 30
0.0
  0
VERTEX
  5
9681
  8
0
 10
231.12633633224459
 20
488.93307653604478
 30
0.0
  0
VERTEX
  5
9682
  8
0
 10
231.1831454297498
 20
488.99860994730147
 30
0.0
  0
VERTEX
  5
9683
  8
0
 10
231.2413160159463
 20
489.06312409553522
 30
0.0
  0
VERTEX
  5
9684
  8
0
 10
231.27090201882081
 20
489.09498441051687
 30
0.0
  0
VERTEX
  5
9685
  8
0
 10
231.30081634034971
 20
489.12657265351419
 30
0.0
  0
VERTEX
  5
9686
  8
0
 10
231.36161281641901
 20
489.18891083461699
 30
0.0
  0
VERTEX
  5
9687
  8
0
 10
231.4236701830973
 20
489.25009555251449
 30
0.0
  0
VERTEX
  5
9688
  8
0
 10
231.4869516809504
 20
489.31008556715813
 30
0.0
  0
VERTEX
  5
9689
  8
0
 10
231.55141924321879
 20
489.3688416171106
 30
0.0
  0
VERTEX
  5
968A
  8
0
 10
231.6170338686097
 20
489.42632668109098
 30
0.0
  0
VERTEX
  5
968B
  8
0
 10
231.6502626921779
 20
489.45458481442051
 30
0.0
  0
VERTEX
  5
968C
  8
0
 10
231.68376852507339
 20
489.48251652160047
 30
0.0
  0
VERTEX
  5
968D
  8
0
 10
231.7515905268738
 20
489.53738352919919
 30
0.0
  0
VERTEX
  5
968E
  8
0
 10
231.8204572449626
 20
489.59089425719662
 30
0.0
  0
VERTEX
  5
968F
  8
0
 10
231.89032415659361
 20
489.6430166918006
 30
0.0
  0
VERTEX
  5
9690
  8
0
 10
231.96114499483161
 20
489.69372043511271
 30
0.0
  0
VERTEX
  5
9691
  8
0
 10
232.03287190980751
 20
489.74297687143081
 30
0.0
  0
VERTEX
  5
9692
  8
0
 10
232.06905980248939
 20
489.7670539316025
 30
0.0
  0
VERTEX
  5
9693
  8
0
 10
232.1054556417339
 20
489.79075931715431
 30
0.0
  0
VERTEX
  5
9694
  8
0
 10
232.17884570584101
 20
489.83704315451428
 30
0.0
  0
VERTEX
  5
9695
  8
0
 10
232.25299058951401
 20
489.88180594926081
 30
0.0
  0
VERTEX
  5
9696
  8
0
 10
232.2903297612925
 20
489.90361056735611
 30
0.0
  0
VERTEX
  5
9697
  8
0
 10
232.3278379620269
 20
489.92502755233119
 30
0.0
  0
VERTEX
  5
9698
  8
0
 10
232.4033348944258
 20
489.96669018382931
 30
0.0
  0
VERTEX
  5
9699
  8
0
 10
232.4794277729234
 20
490.0067783363732
 30
0.0
  0
VERTEX
  5
969A
  8
0
 10
232.5176805220776
 20
490.026227635841
 30
0.0
  0
VERTEX
  5
969B
  8
0
 10
232.55606142589389
 20
490.0452783159401
 30
0.0
  0
VERTEX
  5
969C
  8
0
 10
232.6331789077681
 20
490.08217822193888
 30
0.0
  0
VERTEX
  5
969D
  8
0
 10
232.71072167622009
 20
490.11746813315239
 30
0.0
  0
VERTEX
  5
969E
  8
0
 10
232.78862978468169
 20
490.15114027591898
 30
0.0
  0
VERTEX
  5
969F
  8
0
 10
232.86684208348561
 20
490.18318917135161
 30
0.0
  0
VERTEX
  5
96A0
  8
0
 10
232.94529642963931
 20
490.21361176199548
 30
0.0
  0
VERTEX
  5
96A1
  8
0
 10
232.98459473278939
 20
490.22821292628282
 30
0.0
  0
VERTEX
  5
96A2
  8
0
 10
233.02392990545511
 20
490.24240751827188
 30
0.0
  0
VERTEX
  5
96A3
  8
0
 10
233.10267904651531
 20
490.26957852495138
 30
0.0
  0
VERTEX
  5
96A4
  8
0
 10
233.18148007967241
 20
490.29512954781592
 30
0.0
  0
VERTEX
  5
96A5
  8
0
 10
233.26064215909039
 20
490.31917762380982
 30
0.0
  0
VERTEX
  5
96A6
  8
0
 10
233.34070328820599
 20
490.34187517910118
 30
0.0
  0
VERTEX
  5
96A7
  8
0
 10
233.4216212382257
 20
490.36318274282871
 30
0.0
  0
VERTEX
  5
96A8
  8
0
 10
233.46238559506261
 20
490.37330285464549
 30
0.0
  0
VERTEX
  5
96A9
  8
0
 10
233.50334489552549
 20
490.38306086687481
 30
0.0
  0
VERTEX
  5
96AA
  8
0
 10
233.585822014591
 20
490.40147257510699
 30
0.0
  0
VERTEX
  5
96AB
  8
0
 10
233.66899945701519
 20
490.41838342996812
 30
0.0
  0
VERTEX
  5
96AC
  8
0
 10
233.7528234348519
 20
490.43376157700658
 30
0.0
  0
VERTEX
  5
96AD
  8
0
 10
233.83723975893329
 20
490.44757776736861
 30
0.0
  0
VERTEX
  5
96AE
  8
0
 10
233.92219409260949
 20
490.45980535803409
 30
0.0
  0
VERTEX
  5
96AF
  8
0
 10
233.9648560562419
 20
490.46531581002711
 30
0.0
  0
VERTEX
  5
96B0
  8
0
 10
234.0076322111849
 20
490.470420289402
 30
0.0
  0
VERTEX
  5
96B1
  8
0
 10
234.0935002662423
 20
490.47940103954789
 30
0.0
  0
VERTEX
  5
96B2
  8
0
 10
234.17974479086121
 20
490.48672853471749
 30
0.0
  0
VERTEX
  5
96B3
  8
0
 10
234.26631173907981
 20
490.49238601228058
 30
0.0
  0
VERTEX
  5
96B4
  8
0
 10
234.35314613240689
 20
490.49635902499699
 30
0.0
  0
VERTEX
  5
96B5
  8
0
 10
234.44019228017439
 20
490.4986355026474
 30
0.0
  0
VERTEX
  5
96B6
  8
0
 10
234.4837772221758
 20
490.4991344296825
 30
0.0
  0
VERTEX
  5
96B7
  8
0
 10
234.5273940162524
 20
490.49920579430892
 30
0.0
  0
VERTEX
  5
96B8
  8
0
 10
234.61469493498129
 20
490.49806268958059
 30
0.0
  0
VERTEX
  5
96B9
  8
0
 10
234.70203862667401
 20
490.495201418926
 30
0.0
  0
VERTEX
  5
96BA
  8
0
 10
234.78936891299239
 20
490.49061963313147
 30
0.0
  0
VERTEX
  5
96BB
  8
0
 10
234.87663008244499
 20
490.4843173617403
 30
0.0
  0
VERTEX
  5
96BC
  8
0
 10
234.96376712618209
 20
490.47629695017099
 30
0.0
  0
VERTEX
  5
96BD
  8
0
 10
235.0072726615272
 20
490.47164373160041
 30
0.0
  0
VERTEX
  5
96BE
  8
0
 10
235.0507326702423
 20
490.4665621587398
 30
0.0
  0
VERTEX
  5
96BF
  8
0
 10
235.13749340132429
 20
490.45511650662479
 30
0.0
  0
VERTEX
  5
96C0
  8
0
 10
235.22399663582161
 20
490.44196729468848
 30
0.0
  0
VERTEX
  5
96C1
  8
0
 10
235.26713468918891
 20
490.43475683427209
 30
0.0
  0
VERTEX
  5
96C2
  8
0
 10
235.3101879417145
 20
490.42712436281198
 30
0.0
  0
VERTEX
  5
96C3
  8
0
 10
235.39601277209701
 20
490.41059997328131
 30
0.0
  0
VERTEX
  5
96C4
  8
0
 10
235.48141670707491
 20
490.39240881464428
 30
0.0
  0
VERTEX
  5
96C5
  8
0
 10
235.52394392584711
 20
490.3826934467873
 30
0.0
  0
VERTEX
  5
96C6
  8
0
 10
235.56634569132439
 20
490.37256798485379
 30
0.0
  0
VERTEX
  5
96C7
  8
0
 10
235.6507462675531
 20
490.3510969538163
 30
0.0
  0
VERTEX
  5
96C8
  8
0
 10
235.73456580613089
 20
490.32801750532388
 30
0.0
  0
VERTEX
  5
96C9
  8
0
 10
235.81775273116361
 20
490.30335365817677
 30
0.0
  0
VERTEX
  5
96CA
  8
0
 10
235.90025674329041
 20
490.27713156615869
 30
0.0
  0
VERTEX
  5
96CB
  8
0
 10
235.98202893989989
 20
490.24937943122518
 30
0.0
  0
VERTEX
  5
96CC
  8
0
 10
236.02262553041871
 20
490.23493902170208
 30
0.0
  0
VERTEX
  5
96CD
  8
0
 10
236.0630210756876
 20
490.22012772634679
 30
0.0
  0
VERTEX
  5
96CE
  8
0
 10
236.1431849563005
 20
490.18940946920952
 30
0.0
  0
VERTEX
  5
96CF
  8
0
 10
236.2224726463055
 20
490.15726024603481
 30
0.0
  0
VERTEX
  5
96D0
  8
0
 10
236.30083673571471
 20
490.12371819212223
 30
0.0
  0
VERTEX
  5
96D1
  8
0
 10
236.37823059634999
 20
490.08882395086061
 30
0.0
  0
VERTEX
  5
96D2
  8
0
 10
236.4546086282935
 20
490.05262061163347
 30
0.0
  0
VERTEX
  5
96D3
  8
0
 10
236.49240279818099
 20
490.03404214454332
 30
0.0
  0
VERTEX
  5
96D4
  8
0
 10
236.52992649677569
 20
490.01515362681289
 30
0.0
  0
VERTEX
  5
96D5
  8
0
 10
236.604141360006
 20
489.97647070782
 30
0.0
  0
VERTEX
  5
96D6
  8
0
 10
236.67721208851529
 20
489.93662169996452
 30
0.0
  0
VERTEX
  5
96D7
  8
0
 10
236.7133060697065
 20
489.91627603715989
 30
0.0
  0
SEQEND
  5
96D8
  8
0
  0
POLYLINE
  5
8A9E
  8
0
 66
     1
 10
0.0
 20
0.0
 30
0.0
  0
VERTEX
  5
96D9
  8
0
 10
236.7133060697065
 20
370.07690282842287
 30
0.0
  0
VERTEX
  5
96DA
  8
0
 10
236.67721208851529
 20
370.05655716561819
 30
0.0
  0
VERTEX
  5
96DB
  8
0
 10
236.6041413600056
 20
370.01670815776271
 30
0.0
  0
VERTEX
  5
96DC
  8
0
 10
236.52992649677569
 20
369.97802523876931
 30
0.0
  0
VERTEX
  5
96DD
  8
0
 10
236.49240279818099
 20
369.95913672103939
 30
0.0
  0
VERTEX
  5
96DE
  8
0
 10
236.4546086282935
 20
369.94055825394918
 30
0.0
  0
VERTEX
  5
96DF
  8
0
 10
236.37823059634999
 20
369.90435491472209
 30
0.0
  0
VERTEX
  5
96E0
  8
0
 10
236.30083673571431
 20
369.86946067346048
 30
0.0
  0
VERTEX
  5
96E1
  8
0
 10
236.2224726463055
 20
369.83591861954778
 30
0.0
  0
VERTEX
  5
96E2
  8
0
 10
236.14318495629999
 20
369.80376939637318
 30
0.0
  0
VERTEX
  5
96E3
  8
0
 10
236.0630210756876
 20
369.77305113923592
 30
0.0
  0
VERTEX
  5
96E4
  8
0
 10
236.02262553041871
 20
369.75823984388057
 30
0.0
  0
VERTEX
  5
96E5
  8
0
 10
235.98202893989989
 20
369.74379943435753
 30
0.0
  0
VERTEX
  5
96E6
  8
0
 10
235.90025674329041
 20
369.71604729942402
 30
0.0
  0
VERTEX
  5
96E7
  8
0
 10
235.81775273116361
 20
369.68982520740587
 30
0.0
  0
VERTEX
  5
96E8
  8
0
 10
235.73456580613089
 20
369.66516136025871
 30
0.0
  0
VERTEX
  5
96E9
  8
0
 10
235.6507462675531
 20
369.64208191176641
 30
0.0
  0
VERTEX
  5
96EA
  8
0
 10
235.56634569132439
 20
369.62061088072898
 30
0.0
  0
VERTEX
  5
96EB
  8
0
 10
235.52394392584671
 20
369.61048541879552
 30
0.0
  0
VERTEX
  5
96EC
  8
0
 10
235.48141670707491
 20
369.60077005093842
 30
0.0
  0
VERTEX
  5
96ED
  8
0
 10
235.39601277209701
 20
369.58257889230151
 30
0.0
  0
VERTEX
  5
96EE
  8
0
 10
235.3101879417145
 20
369.56605450277073
 30
0.0
  0
VERTEX
  5
96EF
  8
0
 10
235.26713468918891
 20
369.55842203131061
 30
0.0
  0
VERTEX
  5
96F0
  8
0
 10
235.22399663582161
 20
369.55121157089422
 30
0.0
  0
VERTEX
  5
96F1
  8
0
 10
235.13749340132429
 20
369.53806235895792
 30
0.0
  0
VERTEX
  5
96F2
  8
0
 10
235.0507326702423
 20
369.5266167068429
 30
0.0
  0
VERTEX
  5
96F3
  8
0
 10
235.0072726615272
 20
369.52153513398241
 30
0.0
  0
VERTEX
  5
96F4
  8
0
 10
234.96376712618209
 20
369.51688191541172
 30
0.0
  0
VERTEX
  5
96F5
  8
0
 10
234.87663008244499
 20
369.50886150384241
 30
0.0
  0
VERTEX
  5
96F6
  8
0
 10
234.78936891299239
 20
369.50255923245118
 30
0.0
  0
VERTEX
  5
96F7
  8
0
 10
234.70203862667401
 20
369.49797744665682
 30
0.0
  0
VERTEX
  5
96F8
  8
0
 10
234.61469493498129
 20
369.49511617600211
 30
0.0
  0
VERTEX
  5
96F9
  8
0
 10
234.5273940162524
 20
369.49397307127379
 30
0.0
  0
VERTEX
  5
96FA
  8
0
 10
234.4837772221758
 20
369.49404443590021
 30
0.0
  0
VERTEX
  5
96FB
  8
0
 10
234.44019228017439
 20
369.4945433629353
 30
0.0
  0
VERTEX
  5
96FC
  8
0
 10
234.35314613240689
 20
369.49681984058572
 30
0.0
  0
VERTEX
  5
96FD
  8
0
 10
234.26631173907981
 20
369.50079285330207
 30
0.0
  0
VERTEX
  5
96FE
  8
0
 10
234.17974479086121
 20
369.50645033086522
 30
0.0
  0
VERTEX
  5
96FF
  8
0
 10
234.0935002662423
 20
369.51377782603493
 30
0.0
  0
VERTEX
  5
9700
  8
0
 10
234.0076322111849
 20
369.52275857618071
 30
0.0
  0
VERTEX
  5
9701
  8
0
 10
233.9648560562419
 20
369.52786305555571
 30
0.0
  0
VERTEX
  5
9702
  8
0
 10
233.92219409260949
 20
369.53337350754862
 30
0.0
  0
VERTEX
  5
9703
  8
0
 10
233.83723975893329
 20
369.54560109821409
 30
0.0
  0
VERTEX
  5
9704
  8
0
 10
233.7528234348519
 20
369.55941728857613
 30
0.0
  0
VERTEX
  5
9705
  8
0
 10
233.66899945701519
 20
369.57479543561459
 30
0.0
  0
VERTEX
  5
9706
  8
0
 10
233.5858220145906
 20
369.59170629047583
 30
0.0
  0
VERTEX
  5
9707
  8
0
 10
233.50334489552549
 20
369.61011799870789
 30
0.0
  0
VERTEX
  5
9708
  8
0
 10
233.46238559506261
 20
369.61987601093722
 30
0.0
  0
VERTEX
  5
9709
  8
0
 10
233.4216212382257
 20
369.62999612275399
 30
0.0
  0
VERTEX
  5
970A
  8
0
 10
233.34070328820599
 20
369.65130368648153
 30
0.0
  0
VERTEX
  5
970B
  8
0
 10
233.26064215909039
 20
369.674001241773
 30
0.0
  0
VERTEX
  5
970C
  8
0
 10
233.18148007967241
 20
369.6980493177669
 30
0.0
  0
VERTEX
  5
970D
  8
0
 10
233.10267904651531
 20
369.72360034063132
 30
0.0
  0
VERTEX
  5
970E
  8
0
 10
233.02392990545511
 20
369.75077134731077
 30
0.0
  0
VERTEX
  5
970F
  8
0
 10
232.98459473278939
 20
369.76496593929988
 30
0.0
  0
VERTEX
  5
9710
  8
0
 10
232.94529642963931
 20
369.77956710358723
 30
0.0
  0
VERTEX
  5
9711
  8
0
 10
232.86684208348561
 20
369.80998969423109
 30
0.0
  0
VERTEX
  5
9712
  8
0
 10
232.78862978468169
 20
369.84203858966367
 30
0.0
  0
VERTEX
  5
9713
  8
0
 10
232.71072167622009
 20
369.87571073243032
 30
0.0
  0
VERTEX
  5
9714
  8
0
 10
232.6331789077681
 20
369.91100064364377
 30
0.0
  0
VERTEX
  5
9715
  8
0
 10
232.55606142589389
 20
369.94790054964261
 30
0.0
  0
VERTEX
  5
9716
  8
0
 10
232.5176805220776
 20
369.96695122974171
 30
0.0
  0
VERTEX
  5
9717
  8
0
 10
232.4794277729234
 20
369.9864005292095
 30
0.0
  0
VERTEX
  5
9718
  8
0
 10
232.4033348944258
 20
370.02648868175339
 30
0.0
  0
VERTEX
  5
9719
  8
0
 10
232.3278379620269
 20
370.06815131325158
 30
0.0
  0
VERTEX
  5
971A
  8
0
 10
232.2903297612925
 20
370.08956829822671
 30
0.0
  0
VERTEX
  5
971B
  8
0
 10
232.25299058951401
 20
370.1113729163219
 30
0.0
  0
VERTEX
  5
971C
  8
0
 10
232.17884570584101
 20
370.15613571106837
 30
0.0
  0
VERTEX
  5
971D
  8
0
 10
232.1054556417339
 20
370.20241954842851
 30
0.0
  0
VERTEX
  5
971E
  8
0
 10
232.06905980248939
 20
370.2261249339802
 30
0.0
  0
VERTEX
  5
971F
  8
0
 10
232.03287190980751
 20
370.25020199415189
 30
0.0
  0
VERTEX
  5
9720
  8
0
 10
231.96114499483161
 20
370.29945843047
 30
0.0
  0
VERTEX
  5
9721
  8
0
 10
231.89032415659361
 20
370.35016217378222
 30
0.0
  0
VERTEX
  5
9722
  8
0
 10
231.8204572449626
 20
370.40228460838608
 30
0.0
  0
VERTEX
  5
9723
  8
0
 10
231.75159052687329
 20
370.45579533638357
 30
0.0
  0
VERTEX
  5
9724
  8
0
 10
231.68376852507339
 20
370.51066234398218
 30
0.0
  0
VERTEX
  5
9725
  8
0
 10
231.6502626921779
 20
370.53859405116219
 30
0.0
  0
VERTEX
  5
9726
  8
0
 10
231.6170338686097
 20
370.56685218449212
 30
0.0
  0
VERTEX
  5
9727
  8
0
 10
231.55141924321879
 20
370.6243372484721
 30
0.0
  0
VERTEX
  5
9728
  8
0
 10
231.4869516809504
 20
370.68309329842469
 30
0.0
  0
VERTEX
  5
9729
  8
0
 10
231.4236701830973
 20
370.74308331306821
 30
0.0
  0
VERTEX
  5
972A
  8
0
 10
231.36161281641901
 20
370.80426803096572
 30
0.0
  0
VERTEX
  5
972B
  8
0
 10
231.3008163403492
 20
370.86660621206858
 30
0.0
  0
VERTEX
  5
972C
  8
0
 10
231.27090201882081
 20
370.89819445506578
 30
0.0
  0
VERTEX
  5
972D
  8
0
 10
231.2413160159463
 20
370.93005477004749
 30
0.0
  0
VERTEX
  5
972E
  8
0
 10
231.1831454297498
 20
370.99456891828117
 30
0.0
  0
VERTEX
  5
972F
  8
0
 10
231.12633633224459
 20
371.06010232953781
 30
0.0
  0
VERTEX
  5
9730
  8
0
 10
231.07091849067729
 20
371.12660730954423
 30
0.0
  0
VERTEX
  5
9731
  8
0
 10
231.01691955606469
 20
371.19403498475901
 30
0.0
  0
VERTEX
  5
9732
  8
0
 10
230.96436494436739
 20
371.26233550472517
 30
0.0
  0
VERTEX
  5
9733
  8
0
 10
230.9386365768209
 20
371.29679727318472
 30
0.0
  0
VERTEX
  5
9734
  8
0
 10
230.9132778352996
 20
371.33145811674359
 30
0.0
  0
VERTEX
  5
9735
  8
0
 10
230.8636797051345
 20
371.4013504731505
 30
0.0
  0
VERTEX
  5
9736
  8
0
 10
230.81559054575609
 20
371.47195821575571
 30
0.0
  0
VERTEX
  5
9737
  8
0
 10
230.76902866818591
 20
371.54322510005642
 30
0.0
  0
VERTEX
  5
9738
  8
0
 10
230.72401050546799
 20
371.61509315744138
 30
0.0
  0
VERTEX
  5
9739
  8
0
 10
230.68055043525649
 20
371.68750286852202
 30
0.0
  0
VERTEX
  5
973A
  8
0
 10
230.6594085765214
 20
371.72389186547781
 30
0.0
  0
VERTEX
  5
973B
  8
0
 10
230.63866062163149
 20
371.76039334743319
 30
0.0
  0
VERTEX
  5
973C
  8
0
 10
230.598350875709
 20
371.83370253722188
 30
0.0
  0
VERTEX
  5
973D
  8
0
 10
230.5596285346337
 20
371.90736741667507
 30
0.0
  0
VERTEX
  5
973E
  8
0
 10
230.52249835863361
 20
371.98132421920161
 30
0.0
  0
VERTEX
  5
973F
  8
0
 10
230.48687045716949
 20
372.05570536305902
 30
0.0
  0
VERTEX
  5
9740
  8
0
 10
230.45242378163539
 20
372.13119557166578
 30
0.0
  0
VERTEX
  5
9741
  8
0
 10
230.43564810877069
 20
372.1693683630113
 30
0.0
  0
VERTEX
  5
9742
  8
0
 10
230.4191800100152
 20
372.2078181664441
 30
0.0
  0
VERTEX
  5
9743
  8
0
 10
230.38719293352281
 20
372.28552378159458
 30
0.0
  0
VERTEX
  5
9744
  8
0
 10
230.35651362480939
 20
372.3642613402024
 30
0.0
  0
VERTEX
  5
9745
  8
0
 10
230.34167956971311
 20
372.40400073364867
 30
0.0
  0
VERTEX
  5
9746
  8
0
 10
230.32719031611441
 20
372.44397831821948
 30
0.0
  0
VERTEX
  5
9747
  8
0
 10
230.29926830256181
 20
372.52462101842798
 30
0.0
  0
VERTEX
  5
9748
  8
0
 10
230.272789870422
 20
372.60613485552068
 30
0.0
  0
VERTEX
  5
9749
  8
0
 10
230.26010437711651
 20
372.64720122252339
 30
0.0
  0
VERTEX
  5
974A
  8
0
 10
230.24779425050841
 20
372.68846465326749
 30
0.0
  0
VERTEX
  5
974B
  8
0
 10
230.22431759720851
 20
372.77155495453991
 30
0.0
  0
VERTEX
  5
974C
  8
0
 10
230.20239301293901
 20
372.8553502692028
 30
0.0
  0
VERTEX
  5
974D
  8
0
 10
230.1820507996604
 20
372.93979442966179
 30
0.0
  0
VERTEX
  5
974E
  8
0
 10
230.1633186522586
 20
373.02482979891403
 30
0.0
  0
VERTEX
  5
974F
  8
0
 10
230.14622156666661
 20
373.11039742840308
 30
0.0
  0
VERTEX
  5
9750
  8
0
 10
230.1382932204983
 20
373.15336212751242
 30
0.0
  0
VERTEX
  5
9751
  8
0
 10
230.1307817412785
 20
373.19643732979949
 30
0.0
  0
VERTEX
  5
9752
  8
0
 10
230.11701850378219
 20
373.2828887496828
 30
0.0
  0
VERTEX
  5
9753
  8
0
 10
230.10494826301371
 20
373.36969044797962
 30
0.0
  0
VERTEX
  5
9754
  8
0
 10
230.0945844857178
 20
373.45678098097028
 30
0.0
  0
VERTEX
  5
9755
  8
0
 10
230.08593769832891
 20
373.54409898963593
 30
0.0
  0
VERTEX
  5
9756
  8
0
 10
230.07901547157959
 20
373.63158410934398
 30
0.0
  0
VERTEX
  5
9757
  8
0
 10
230.07620233462919
 20
373.67537619905153
 30
0.0
  0
VERTEX
  5
9758
  8
0
 10
230.07382171356451
 20
373.71919389802389
 30
0.0
  0
VERTEX
  5
9759
  8
0
 10
230.0703593174853
 20
373.80687498271368
 30
0.0
  0
VERTEX
  5
975A
  8
0
 10
230.06862907169401
 20
373.89456494750482
 30
0.0
  0
VERTEX
  5
975B
  8
0
 10
230.06841295806731
 20
373.93839374292691
 30
0.0
  0
SEQEND
  5
975C
  8
0
  0
ARC
  5
8A9F
  8
0
 10
202.5684129580672
 20
429.99658943279138
 30
0.0
 40
68.965517241379345
 50
299.6764073220503
 51
60.323592677949691
  0
LINE
  5
8AA2
  8
1
 10
202.5684129580672
 20
314.47838240349108
 30
0.0
 11
202.5684129580672
 21
545.51479646209157
 31
0.0
  0
LINE
  5
8AA3
  8
1
 10
318.08661998736761
 20
429.99658943279138
 30
0.0
 11
87.050205928766914
 21
429.99658943279138
 31
0.0
  0
LINE
  5
8AB1
  8
0
 10
567.90949212485611
 20
414.99658943279132
 30
0.0
 11
568.10949212485639
 21
414.99658943279132
 31
0.0
  0
LINE
  5
8AB2
  8
0
 10
568.10949212485639
 20
444.99658943279132
 30
0.0
 11
567.90949212485611
 21
444.99658943279132
 31
0.0
  0
ARC
  5
8AB3
  8
0
 10
567.40949212485611
 20
453.74658943279138
 30
0.0
 40
0.5000000000000061
 50
0.0
 51
90.0
  0
ARC
  5
8AB4
  8
0
 10
567.40949212485611
 20
406.24658943279132
 30
0.0
 40
0.4999999999999965
 50
270.0
 51
0.0
  0
LINE
  5
8AB5
  8
0
 10
562.10949212485627
 20
405.74658943279132
 30
0.0
 11
567.40949212485611
 21
405.74658943279132
 31
0.0
  0
LINE
  5
8AB6
  8
0
 10
567.40949212485611
 20
454.24658943279132
 30
0.0
 11
562.10949212485627
 21
454.24658943279132
 31
0.0
  0
LINE
  5
8AB7
  8
0
 10
535.10949212485593
 20
359.6262190624206
 30
0.0
 11
562.10949212485627
 21
405.74658943279132
 31
0.0
  0
LINE
  5
8AB8
  8
0
 10
562.10949212485627
 20
454.24658943279132
 30
0.0
 11
535.10949212485639
 21
500.36695980316188
 31
0.0
  0
ARC
  5
8AB9
  8
0
 10
525.77615879152245
 20
520.66325609945784
 30
0.0
 40
9.3333333333333286
 50
0.0
 51
90.0
  0
ARC
  5
8ABA
  8
0
 10
525.77615879152279
 20
339.32992276612492
 30
0.0
 40
9.3333333333333144
 50
270.0
 51
0.0
  0
LINE
  5
8ABB
  8
0
 10
520.12909539063685
 20
329.99658943279138
 30
0.0
 11
525.77615879152279
 21
329.99658943279138
 31
0.0
  0
LINE
  5
8ABC
  8
0
 10
525.77615879152245
 20
529.99658943279132
 30
0.0
 11
520.12909539063628
 21
529.99658943279132
 31
0.0
  0
ARC
  5
8ABD
  8
0
 10
520.12909539063685
 20
501.99658943279047
 30
0.0
 40
28.000000000001108
 50
90.0
 51
104.9999999999944
  0
ARC
  5
8ABE
  8
0
 10
520.12909539063685
 20
357.99658943279093
 30
0.0
 40
27.999999999999659
 50
255.00000000000551
 51
270.0
  0
LINE
  5
8ABF
  8
0
 10
509.18479879856932
 20
331.9413718148802
 30
0.0
 11
512.88216212776615
 21
330.9506662966977
 31
0.0
  0
LINE
  5
8AC0
  8
0
 10
512.8821621277657
 20
529.04251256888494
 30
0.0
 11
509.18479879856881
 21
528.05180705070245
 31
0.0
  0
ARC
  5
8AC1
  8
0
 10
509.9094921248556
 20
525.34721473709283
 30
0.0
 40
2.800000000000014
 50
104.9999999999944
 51
180.0
  0
ARC
  5
8AC2
  8
0
 10
509.90949212485611
 20
334.64596412848988
 30
0.0
 40
2.8000000000000251
 50
180.0
 51
255.00000000000551
  0
LINE
  5
8AC3
  8
0
 10
568.10949212485639
 20
444.99658943279132
 30
0.0
 11
568.10949212485639
 21
414.99658943279132
 31
0.0
  0
LINE
  5
8AC4
  8
0
 10
567.90949212485611
 20
453.74658943279138
 30
0.0
 11
567.90949212485611
 21
406.24658943279132
 31
0.0
  0
LINE
  5
8AC5
  8
0
 10
562.10949212485627
 20
454.24658943279132
 30
0.0
 11
562.10949212485627
 21
405.74658943279132
 31
0.0
  0
LINE
  5
8AC6
  8
0
 10
535.10949212485593
 20
520.66325609945829
 30
0.0
 11
535.10949212485593
 21
339.32992276612492
 31
0.0
  0
POLYLINE
  5
8AC7
  8
0
 66
     1
 10
0.0
 20
0.0
 30
0.0
  0
VERTEX
  5
975D
  8
0
 10
535.10949212485593
 20
494.99898116604197
 30
0.0
  0
VERTEX
  5
975E
  8
0
 10
542.51075423862994
 20
479.54047128007801
 30
0.0
  0
VERTEX
  5
975F
  8
0
 10
547.28685783729043
 20
469.11785028390449
 30
0.0
  0
VERTEX
  5
9760
  8
0
 10
550.71184399186905
 20
461.04658130886918
 30
0.0
  0
VERTEX
  5
9761
  8
0
 10
552.06136692169684
 20
457.61968185821729
 30
0.0
  0
VERTEX
  5
9762
  8
0
 10
553.21934643192799
 20
454.50096291816197
 30
0.0
  0
VERTEX
  5
9763
  8
0
 10
555.06473548497524
 20
448.98062197974758
 30
0.0
  0
VERTEX
  5
9764
  8
0
 10
556.40564244148391
 20
444.16005969004328
 30
0.0
  0
VERTEX
  5
9765
  8
0
 10
557.34170950582302
 20
439.81323299426708
 30
0.0
  0
VERTEX
  5
9766
  8
0
 10
557.72682521906916
 20
437.42801833828872
 30
0.0
  0
VERTEX
  5
9767
  8
0
 10
557.8167561182953
 20
436.76162363915802
 30
0.0
  0
VERTEX
  5
9768
  8
0
 10
557.89804845829622
 20
436.10082754903829
 30
0.0
  0
VERTEX
  5
9769
  8
0
 10
557.93549805607836
 20
435.77234762662943
 30
0.0
  0
VERTEX
  5
976A
  8
0
 10
557.97083757442749
 20
435.44505154236208
 30
0.0
  0
VERTEX
  5
976B
  8
0
 10
558.0352437247434
 20
434.79373108155261
 30
0.0
  0
VERTEX
  5
976C
  8
0
 10
558.09137259403997
 20
434.14631393563991
 30
0.0
  0
VERTEX
  5
976D
  8
0
 10
558.13931573253922
 20
433.50225857119932
 30
0.0
  0
VERTEX
  5
976E
  8
0
 10
558.17915093265538
 20
432.86103260551067
 30
0.0
  0
VERTEX
  5
976F
  8
0
 10
558.21094254676325
 20
432.22211131244399
 30
0.0
  0
VERTEX
  5
9770
  8
0
 10
558.22383850957885
 20
431.90335267715022
 30
0.0
  0
VERTEX
  5
9771
  8
0
 10
558.23474174840749
 20
431.58497617212629
 30
0.0
  0
VERTEX
  5
9772
  8
0
 10
558.25058673894591
 20
430.94911345585319
 30
0.0
  0
VERTEX
  5
9773
  8
0
 10
558.25850290118933
 20
430.31401283807168
 30
0.0
  0
VERTEX
  5
9774
  8
0
 10
558.25949212485602
 20
429.99658943279138
 30
0.0
  0
VERTEX
  5
9775
  8
0
 10
558.25850290118933
 20
429.67916602751097
 30
0.0
  0
VERTEX
  5
9776
  8
0
 10
558.25058673894591
 20
429.04406540973002
 30
0.0
  0
VERTEX
  5
9777
  8
0
 10
558.23474174840749
 20
428.40820269345681
 30
0.0
  0
VERTEX
  5
9778
  8
0
 10
558.22383850957885
 20
428.08982618843288
 30
0.0
  0
VERTEX
  5
9779
  8
0
 10
558.21094254676325
 20
427.77106755313872
 30
0.0
  0
VERTEX
  5
977A
  8
0
 10
558.17915093265538
 20
427.13214626007249
 30
0.0
  0
VERTEX
  5
977B
  8
0
 10
558.13931573253922
 20
426.49092029438339
 30
0.0
  0
VERTEX
  5
977C
  8
0
 10
558.09137259403997
 20
425.84686492994319
 30
0.0
  0
VERTEX
  5
977D
  8
0
 10
558.0352437247434
 20
425.1994477840301
 30
0.0
  0
VERTEX
  5
977E
  8
0
 10
557.97083757442749
 20
424.54812732322063
 30
0.0
  0
VERTEX
  5
977F
  8
0
 10
557.93549805607836
 20
424.22083123895322
 30
0.0
  0
VERTEX
  5
9780
  8
0
 10
557.89804845829622
 20
423.89235131654442
 30
0.0
  0
VERTEX
  5
9781
  8
0
 10
557.8167561182953
 20
423.23155522642509
 30
0.0
  0
VERTEX
  5
9782
  8
0
 10
557.72682521906916
 20
422.56516052729398
 30
0.0
  0
VERTEX
  5
9783
  8
0
 10
557.34170950582302
 20
420.17994587131562
 30
0.0
  0
VERTEX
  5
9784
  8
0
 10
556.40564244148391
 20
415.83311917553988
 30
0.0
  0
VERTEX
  5
9785
  8
0
 10
555.0647354849757
 20
411.01255688583501
 30
0.0
  0
VERTEX
  5
9786
  8
0
 10
553.21934643192799
 20
405.49221594742107
 30
0.0
  0
VERTEX
  5
9787
  8
0
 10
552.06136692169684
 20
402.37349700736542
 30
0.0
  0
VERTEX
  5
9788
  8
0
 10
550.71184399186905
 20
398.94659755671353
 30
0.0
  0
VERTEX
  5
9789
  8
0
 10
547.28685783729043
 20
390.87532858167822
 30
0.0
  0
VERTEX
  5
978A
  8
0
 10
542.51075423862994
 20
380.4527075855047
 30
0.0
  0
VERTEX
  5
978B
  8
0
 10
535.10949212485593
 20
364.99419769954193
 30
0.0
  0
SEQEND
  5
978C
  8
0
  0
LINE
  5
8AC8
  8
0
 10
507.10949212485588
 20
525.34721473709283
 30
0.0
 11
507.10949212485588
 21
334.64596412848988
 31
0.0
  0
LINE
  5
8AC9
  8
1
 10
491.59128509555558
 20
429.99658943279138
 30
0.0
 11
583.62769915415674
 21
429.99658943279138
 31
0.0
  0
LINE
  5
8AD9
  8
2
 10
194.5684129580672
 20
142.07498504238629
 30
0.0
 11
194.56841295806771
 21
108.0749850423863
 31
0.0
  0
LINE
  5
8ADA
  8
2
 10
210.5684129580672
 20
108.0749850423863
 30
0.0
 11
210.56841295806771
 21
142.07498504238629
 31
0.0
  0
LINE
  5
8ADB
  8
0
 10
187.5684129580672
 20
108.2749850423864
 30
0.0
 11
187.5684129580672
 21
108.0749850423863
 31
0.0
  0
LINE
  5
8ADC
  8
0
 10
217.56841295806731
 20
108.0749850423863
 30
0.0
 11
217.56841295806731
 21
108.2749850423864
 31
0.0
  0
ARC
  5
8ADD
  8
0
 10
226.31841295806731
 20
108.7749850423864
 30
0.0
 40
0.4999999999999956
 50
270.0
 51
0.0
  0
ARC
  5
8ADE
  8
0
 10
178.8184129580672
 20
108.7749850423864
 30
0.0
 40
0.4999999999999965
 50
180.0
 51
270.0
  0
LINE
  5
8ADF
  8
0
 10
178.3184129580672
 20
114.0749850423863
 30
0.0
 11
178.3184129580672
 21
108.7749850423864
 31
0.0
  0
LINE
  5
8AE0
  8
0
 10
226.81841295806731
 20
108.7749850423864
 30
0.0
 11
226.81841295806731
 21
114.0749850423863
 31
0.0
  0
LINE
  5
8AE1
  8
0
 10
133.44346809347411
 20
140.4024552692668
 30
0.0
 11
133.6028957166877
 21
140.3163643527314
 31
0.0
  0
LINE
  5
8AE2
  8
0
 10
271.53393019944679
 20
140.3163643527314
 30
0.0
 11
271.69335782266029
 21
140.4024552692668
 31
0.0
  0
ARC
  5
8AE3
  8
0
 10
274.35419174517568
 20
135.47498504238689
 30
0.0
 40
5.5999999999996923
 50
90.0
 51
118.3690462932704
  0
ARC
  5
8AE4
  8
0
 10
130.78263417095869
 20
135.47498504238689
 30
0.0
 40
5.5999999999996977
 50
61.630953706729542
 51
90.0
  0
ARC
  5
8AE5
  8
0
 10
293.23507962473383
 20
150.4083183757198
 30
0.0
 40
9.3333333333332842
 50
270.0
 51
0.0
  0
ARC
  5
8AE6
  8
0
 10
111.9017462914007
 20
150.4083183757198
 30
0.0
 40
9.3333333333333002
 50
180.0
 51
270.0
  0
LINE
  5
8AE7
  8
0
 10
102.5684129580672
 20
156.05538177660631
 30
0.0
 11
102.5684129580672
 21
150.40831837572
 31
0.0
  0
LINE
  5
8AE8
  8
0
 10
302.5684129580672
 20
150.40831837572
 30
0.0
 11
302.5684129580672
 21
156.05538177660631
 31
0.0
  0
ARC
  5
8AE9
  8
0
 10
274.56841295806771
 20
156.05538177660611
 30
0.0
 40
27.999999999999488
 50
0.0000008537736463
 51
14.99999999999444
  0
ARC
  5
8AEA
  8
0
 10
130.5684129580668
 20
156.05538177660611
 30
0.0
 40
27.999999999999581
 50
165.00000000000551
 51
180.0
  0
LINE
  5
8AEB
  8
0
 10
104.513195340156
 20
166.99967836867361
 30
0.0
 11
103.52248982197349
 21
163.30231503947681
 31
0.0
  0
LINE
  5
8AEC
  8
0
 10
301.61433609416099
 20
163.30231503947681
 30
0.0
 11
300.6236305759785
 21
166.99967836867361
 31
0.0
  0
ARC
  5
8AED
  8
0
 10
297.91903826236882
 20
166.27498504238659
 30
0.0
 40
2.8000000000000611
 50
14.99999999999444
 51
90.0
  0
ARC
  5
8AEE
  8
0
 10
107.2177876537657
 20
166.27498504238659
 30
0.0
 40
2.800000000000046
 50
90.0
 51
165.00000000000551
  0
LINE
  5
8AEF
  8
0
 10
217.56841295806731
 20
108.0749850423863
 30
0.0
 11
187.5684129580672
 21
108.0749850423863
 31
0.0
  0
LINE
  5
8AF0
  8
2
 10
220.56841295806731
 20
145.07498504238629
 30
0.0
 11
184.5684129580672
 21
145.07498504238629
 31
0.0
  0
LINE
  5
8AF1
  8
0
 10
226.31841295806731
 20
108.2749850423864
 30
0.0
 11
178.8184129580672
 21
108.2749850423864
 31
0.0
  0
LINE
  5
8AF2
  8
0
 10
228.56841295806731
 20
114.0749850423863
 30
0.0
 11
176.5684129580672
 21
114.0749850423863
 31
0.0
  0
LINE
  5
8AF3
  8
0
 10
293.23507962473383
 20
141.0749850423866
 30
0.0
 11
111.9017462914007
 21
141.0749850423866
 31
0.0
  0
LINE
  5
8AF4
  8
0
 10
236.71330606970611
 20
140.3163643527314
 30
0.0
 11
271.53393019944627
 21
140.3163643527314
 31
0.0
  0
POLYLINE
  5
8AF5
  8
0
 66
     1
 10
0.0
 20
0.0
 30
0.0
  0
VERTEX
  5
978D
  8
0
 10
169.92351984642841
 20
140.3163643527314
 30
0.0
  0
VERTEX
  5
978E
  8
0
 10
169.9623996429022
 20
140.3162511858946
 30
0.0
  0
VERTEX
  5
978F
  8
0
 10
170.04110012847781
 20
140.31534088618631
 30
0.0
  0
VERTEX
  5
9790
  8
0
 10
170.12101268048849
 20
140.31350847547699
 30
0.0
  0
VERTEX
  5
9791
  8
0
 10
170.16140692314639
 20
140.31224307033949
 30
0.0
  0
VERTEX
  5
9792
  8
0
 10
170.2020840046907
 20
140.3107432637033
 30
0.0
  0
VERTEX
  5
9793
  8
0
 10
170.28425845712081
 20
140.3070362926772
 30
0.0
  0
VERTEX
  5
9794
  8
0
 10
170.36747842645809
 20
140.3023803389415
 30
0.0
  0
VERTEX
  5
9795
  8
0
 10
170.45168473181951
 20
140.29676989514181
 30
0.0
  0
VERTEX
  5
9796
  8
0
 10
170.5368170354777
 20
140.29020113004509
 30
0.0
  0
VERTEX
  5
9797
  8
0
 10
170.62281426979089
 20
140.28267182728629
 30
0.0
  0
VERTEX
  5
9798
  8
0
 10
170.6661180607889
 20
140.27854670336939
 30
0.0
  0
VERTEX
  5
9799
  8
0
 10
170.7096150773645
 20
140.27418130287589
 30
0.0
  0
VERTEX
  5
979A
  8
0
 10
170.79715825830499
 20
140.264730302039
 30
0.0
  0
VERTEX
  5
979B
  8
0
 10
170.8853826659838
 20
140.2543209442413
 30
0.0
  0
VERTEX
  5
979C
  8
0
 10
170.97422566507061
 20
140.24295687277029
 30
0.0
  0
VERTEX
  5
979D
  8
0
 10
171.06362277855081
 20
140.23064333198911
 30
0.0
  0
VERTEX
  5
979E
  8
0
 10
171.1535080626131
 20
140.21738715859601
 30
0.0
  0
VERTEX
  5
979F
  8
0
 10
171.1986128558255
 20
140.2104081498392
 30
0.0
  0
VERTEX
  5
97A0
  8
0
 10
171.243814495685
 20
140.2031967528826
 30
0.0
  0
VERTEX
  5
97A1
  8
0
 10
171.3344743676484
 20
140.18808203210389
 30
0.0
  0
VERTEX
  5
97A2
  8
0
 10
171.42541966835049
 20
140.17205436666089
 30
0.0
  0
VERTEX
  5
97A3
  8
0
 10
171.47097811456749
 20
140.16370211083071
 30
0.0
  0
VERTEX
  5
97A4
  8
0
 10
171.51658247470641
 20
140.15512649969989
 30
0.0
  0
VERTEX
  5
97A5
  8
0
 10
171.60789533579231
 20
140.13731245064059
 30
0.0
  0
VERTEX
  5
97A6
  8
0
 10
171.6992932241896
 20
140.1186270750257
 30
0.0
  0
VERTEX
  5
97A7
  8
0
 10
171.7450124624734
 20
140.10896075733331
 30
0.0
  0
VERTEX
  5
97A8
  8
0
 10
171.7907375901955
 20
140.09908069378849
 30
0.0
  0
VERTEX
  5
97A9
  8
0
 10
171.8821723905489
 20
140.07868787815309
 30
0.0
  0
VERTEX
  5
97AA
  8
0
 10
171.9735307911242
 20
140.05746668160651
 30
0.0
  0
VERTEX
  5
97AB
  8
0
 10
172.06474528956139
 20
140.0354366557261
 30
0.0
  0
VERTEX
  5
97AC
  8
0
 10
172.15574809466619
 20
140.01261879563739
 30
0.0
  0
VERTEX
  5
97AD
  8
0
 10
172.24647149417069
 20
139.9890354719185
 30
0.0
  0
VERTEX
  5
97AE
  8
0
 10
172.29170736615831
 20
139.9769641084693
 30
0.0
  0
VERTEX
  5
97AF
  8
0
 10
172.3368482106857
 20
139.96471034980331
 30
0.0
  0
VERTEX
  5
97B0
  8
0
 10
172.4268117460237
 20
139.93966829635039
 30
0.0
  0
VERTEX
  5
97B1
  8
0
 10
172.5162967143651
 20
139.91393527605541
 30
0.0
  0
VERTEX
  5
97B2
  8
0
 10
172.60523916488501
 20
139.8875382352374
 30
0.0
  0
VERTEX
  5
97B3
  8
0
 10
172.69357667724989
 20
139.8605050428778
 30
0.0
  0
VERTEX
  5
97B4
  8
0
 10
172.78124721337821
 20
139.83286482752791
 30
0.0
  0
VERTEX
  5
97B5
  8
0
 10
172.82481290254279
 20
139.8188265982287
 30
0.0
  0
VERTEX
  5
97B6
  8
0
 10
172.868188488942
 20
139.8046482103089
 30
0.0
  0
VERTEX
  5
97B7
  8
0
 10
172.954338304532
 20
139.77588725162741
 30
0.0
  0
VERTEX
  5
97B8
  8
0
 10
173.03963490814749
 20
139.74661537207501
 30
0.0
  0
VERTEX
  5
97B9
  8
0
 10
173.12401733524479
 20
139.71686726438139
 30
0.0
  0
VERTEX
  5
97BA
  8
0
 10
173.20742572724151
 20
139.6866787971924
 30
0.0
  0
VERTEX
  5
97BB
  8
0
 10
173.28980162977081
 20
139.6560869111604
 30
0.0
  0
VERTEX
  5
97BC
  8
0
 10
173.33058458363391
 20
139.6406514959022
 30
0.0
  0
VERTEX
  5
97BD
  8
0
 10
173.37108827233891
 20
139.62512950756241
 30
0.0
  0
VERTEX
  5
97BE
  8
0
 10
173.45123341651509
 20
139.59384430786289
 30
0.0
  0
VERTEX
  5
97BF
  8
0
 10
173.53075377736741
 20
139.56204025126209
 30
0.0
  0
VERTEX
  5
97C0
  8
0
 10
173.61002840959421
 20
139.52956277790761
 30
0.0
  0
VERTEX
  5
97C1
  8
0
 10
173.68900261290031
 20
139.49642566406581
 30
0.0
  0
VERTEX
  5
97C2
  8
0
 10
173.7676221852889
 20
139.4626435689579
 30
0.0
  0
VERTEX
  5
97C3
  8
0
 10
173.80678223206681
 20
139.44551545684709
 30
0.0
  0
VERTEX
  5
97C4
  8
0
 10
173.84583362110291
 20
139.4282319572535
 30
0.0
  0
VERTEX
  5
97C5
  8
0
 10
173.9235842940893
 20
139.39320701903219
 30
0.0
  0
VERTEX
  5
97C6
  8
0
 10
174.0008226264417
 20
139.3575855872412
 30
0.0
  0
VERTEX
  5
97C7
  8
0
 10
174.07749824468689
 20
139.3213850526493
 30
0.0
  0
VERTEX
  5
97C8
  8
0
 10
174.1535621231578
 20
139.28462327627159
 30
0.0
  0
VERTEX
  5
97C9
  8
0
 10
174.22896671567329
 20
139.24731849922341
 30
0.0
  0
VERTEX
  5
97CA
  8
0
 10
174.26640735591761
 20
139.22846826695471
 30
0.0
  0
VERTEX
  5
97CB
  8
0
 10
174.30366607574661
 20
139.20948925004839
 30
0.0
  0
VERTEX
  5
97CC
  8
0
 10
174.37761582749269
 20
139.17115432197011
 30
0.0
  0
VERTEX
  5
97CD
  8
0
 10
174.4507725311673
 20
139.13233307705929
 30
0.0
  0
VERTEX
  5
97CE
  8
0
 10
174.4870400970012
 20
139.1127463330379
 30
0.0
  0
VERTEX
  5
97CF
  8
0
 10
174.52309342720849
 20
139.09304559055121
 30
0.0
  0
VERTEX
  5
97D0
  8
0
 10
174.59453658703879
 20
139.05331258910959
 30
0.0
  0
VERTEX
  5
97D1
  8
0
 10
174.66506106515041
 20
139.01315538057111
 30
0.0
  0
VERTEX
  5
97D2
  8
0
 10
174.69996630641339
 20
138.99292449873451
 30
0.0
  0
VERTEX
  5
97D3
  8
0
 10
174.73462703833911
 20
138.97259578266659
 30
0.0
  0
VERTEX
  5
97D4
  8
0
 10
174.80319593288911
 20
138.9316560506623
 30
0.0
  0
VERTEX
  5
97D5
  8
0
 10
174.8707305404586
 20
138.8903588038288
 30
0.0
  0
VERTEX
  5
97D6
  8
0
 10
174.93719512334241
 20
138.84872695060341
 30
0.0
  0
VERTEX
  5
97D7
  8
0
 10
175.00255550972579
 20
138.8067836122828
 30
0.0
  0
VERTEX
  5
97D8
  8
0
 10
175.0667798774534
 20
138.76455158040289
 30
0.0
  0
VERTEX
  5
97D9
  8
0
 10
175.0984598503064
 20
138.7433322277771
 30
0.0
  0
VERTEX
  5
97DA
  8
0
 10
175.1298477650079
 20
138.722047082496
 30
0.0
  0
VERTEX
  5
97DB
  8
0
 10
175.1917323554367
 20
138.67929130725861
 30
0.0
  0
VERTEX
  5
97DC
  8
0
 10
175.25240416094309
 20
138.63630838290399
 30
0.0
  0
VERTEX
  5
97DD
  8
0
 10
175.311834817006
 20
138.5931229358917
 30
0.0
  0
VERTEX
  5
97DE
  8
0
 10
175.36999721232999
 20
138.5497600215422
 30
0.0
  0
VERTEX
  5
97DF
  8
0
 10
175.42686560732679
 20
138.50624505417801
 30
0.0
  0
VERTEX
  5
97E0
  8
0
 10
175.45480691287179
 20
138.48443857342679
 30
0.0
  0
VERTEX
  5
97E1
  8
0
 10
175.48241574181199
 20
138.4626037366445
 30
0.0
  0
VERTEX
  5
97E2
  8
0
 10
175.53662493255021
 20
138.41886198902651
 30
0.0
  0
VERTEX
  5
97E3
  8
0
 10
175.58947216122169
 20
138.37504587631929
 30
0.0
  0
VERTEX
  5
97E4
  8
0
 10
175.6409381533208
 20
138.33118153479069
 30
0.0
  0
VERTEX
  5
97E5
  8
0
 10
175.6910054478071
 20
138.28729509724991
 30
0.0
  0
VERTEX
  5
97E6
  8
0
 10
175.73965835070561
 20
138.24341271506341
 30
0.0
  0
VERTEX
  5
97E7
  8
0
 10
175.76344989010701
 20
138.22148130597321
 30
0.0
  0
VERTEX
  5
97E8
  8
0
 10
175.7868825772066
 20
138.19956088158261
 30
0.0
  0
VERTEX
  5
97E9
  8
0
 10
175.83266519264541
 20
138.1557665281457
 30
0.0
  0
VERTEX
  5
97EA
  8
0
 10
175.8769947432265
 20
138.1120569503114
 30
0.0
  0
VERTEX
  5
97EB
  8
0
 10
175.91986137868159
 20
138.06845973030141
 30
0.0
  0
VERTEX
  5
97EC
  8
0
 10
175.9612569627588
 20
138.02500265960961
 30
0.0
  0
VERTEX
  5
97ED
  8
0
 10
176.00117517215449
 20
137.98171366157251
 30
0.0
  0
VERTEX
  5
97EE
  8
0
 10
176.0205788028934
 20
137.9601409327729
 30
0.0
  0
VERTEX
  5
97EF
  8
0
 10
176.0396115844178
 20
137.93862071362989
 30
0.0
  0
VERTEX
  5
97F0
  8
0
 10
176.076563755309
 20
137.8957517689521
 30
0.0
  0
VERTEX
  5
97F1
  8
0
 10
176.1120312859984
 20
137.85313467704719
 30
0.0
  0
VERTEX
  5
97F2
  8
0
 10
176.1460860701327
 20
137.81070802500159
 30
0.0
  0
VERTEX
  5
97F3
  8
0
 10
176.1790706579277
 20
137.76804230376729
 30
0.0
  0
VERTEX
  5
97F4
  8
0
 10
176.21098795042371
 20
137.72510264239031
 30
0.0
  0
VERTEX
  5
97F5
  8
0
 10
176.2265312195477
 20
137.70353955387279
 30
0.0
  0
VERTEX
  5
97F6
  8
0
 10
176.24178974917459
 20
137.68191936976231
 30
0.0
  0
VERTEX
  5
97F7
  8
0
 10
176.27142990776929
 20
137.638522995416
 30
0.0
  0
VERTEX
  5
97F8
  8
0
 10
176.2998643932674
 20
137.5949441246546
 30
0.0
  0
VERTEX
  5
97F9
  8
0
 10
176.31361633836059
 20
137.5730958226693
 30
0.0
  0
VERTEX
  5
97FA
  8
0
 10
176.32705133448371
 20
137.5512133740574
 30
0.0
  0
VERTEX
  5
97FB
  8
0
 10
176.35295105740491
 20
137.50736128688919
 30
0.0
  0
VERTEX
  5
97FC
  8
0
 10
176.37752610779259
 20
137.46341824801701
 30
0.0
  0
VERTEX
  5
97FD
  8
0
 10
176.3893057859504
 20
137.44142205253439
 30
0.0
  0
VERTEX
  5
97FE
  8
0
 10
176.40074126082521
 20
137.41941439802031
 30
0.0
  0
VERTEX
  5
97FF
  8
0
 10
176.42256351733019
 20
137.37537954646771
 30
0.0
  0
VERTEX
  5
9800
  8
0
 10
176.4429620493656
 20
137.33134316643779
 30
0.0
  0
VERTEX
  5
9801
  8
0
 10
176.46190800980679
 20
137.28733472046909
 30
0.0
  0
VERTEX
  5
9802
  8
0
 10
176.47937448404579
 20
137.24338379064221
 30
0.0
  0
VERTEX
  5
9803
  8
0
 10
176.49533654517469
 20
137.19951999954949
 30
0.0
  0
VERTEX
  5
9804
  8
0
 10
176.5027461864247
 20
137.17763002823679
 30
0.0
  0
VERTEX
  5
9805
  8
0
 10
176.50977130072121
 20
137.15577292533931
 30
0.0
  0
VERTEX
  5
9806
  8
0
 10
176.52265792735619
 20
137.1121720177596
 30
0.0
  0
VERTEX
  5
9807
  8
0
 10
176.5339776935939
 20
137.06874651483969
 30
0.0
  0
VERTEX
  5
9808
  8
0
 10
176.54371397030579
 20
137.0255253598985
 30
0.0
  0
VERTEX
  5
9809
  8
0
 10
176.55185222868701
 20
136.98253711863069
 30
0.0
  0
VERTEX
  5
980A
  8
0
 10
176.55838002515469
 20
136.93980989608721
 30
0.0
  0
VERTEX
  5
980B
  8
0
 10
176.56103679265919
 20
136.9185517849258
 30
0.0
  0
VERTEX
  5
980C
  8
0
 10
176.5632873975155
 20
136.8973668625506
 30
0.0
  0
VERTEX
  5
980D
  8
0
 10
176.56656572870091
 20
136.85523051588689
 30
0.0
  0
VERTEX
  5
980E
  8
0
 10
176.56820752859309
 20
136.81342858386989
 30
0.0
  0
VERTEX
  5
980F
  8
0
 10
176.5684129580672
 20
136.79266159708601
 30
0.0
  0
SEQEND
  5
9810
  8
0
  0
LINE
  5
8AF6
  8
0
 10
133.6028957166877
 20
140.3163643527314
 30
0.0
 11
169.92351984642841
 21
140.3163643527314
 31
0.0
  0
LINE
  5
8AF7
  8
0
 10
297.91903826236882
 20
169.0749850423866
 30
0.0
 11
107.2177876537657
 21
169.0749850423866
 31
0.0
  0
LINE
  5
8AF8
  8
1
 10
202.5684129580672
 20
186.98920442427999
 30
0.0
 11
202.5684129580672
 21
92.556778013086102
 31
0.0
  0
LINE
  5
8B05
  8
2
 10
217.56841295806731
 20
108.2749850423864
 30
0.0
 11
217.56841295806731
 21
141.0749850423866
 31
0.0
  0
LINE
  5
8B06
  8
2
 10
220.56841295806731
 20
142.07498504238629
 30
0.0
 11
184.5684129580672
 21
142.07498504238629
 31
0.0
  0
LINE
  5
8B07
  8
2
 10
217.56841295806731
 20
141.07498504238629
 30
0.0
 11
216.56841295806731
 21
141.07498504238629
 31
0.0
  0
LINE
  5
8B08
  8
2
 10
220.56841295806731
 20
145.07498504238629
 30
0.0
 11
220.56841295806731
 21
142.07498504238629
 31
0.0
  0
LINE
  5
8B09
  8
2
 10
184.5684129580672
 20
145.07498504238629
 30
0.0
 11
184.5684129580672
 21
142.07498504238629
 31
0.0
  0
LINE
  5
8B0A
  8
2
 10
216.56841295806731
 20
141.07498504238629
 30
0.0
 11
216.56841295806731
 21
142.07498504238629
 31
0.0
  0
LINE
  5
8B0B
  8
2
 10
187.5684129580672
 20
108.2749850423864
 30
0.0
 11
187.5684129580672
 21
141.0749850423866
 31
0.0
  0
LINE
  5
8B0C
  8
2
 10
187.5684129580672
 20
141.07498504238629
 30
0.0
 11
188.5684129580672
 21
141.07498504238629
 31
0.0
  0
LINE
  5
8B0D
  8
2
 10
188.5684129580672
 20
141.07498504238629
 30
0.0
 11
188.5684129580672
 21
142.07498504238629
 31
0.0
  0
LINE
  5
8B0E
  8
0
 10
176.5684129580672
 20
136.79266159708601
 30
0.0
 11
176.5684129580672
 21
114.0749850423863
 31
0.0
  0
POLYLINE
  5
8B0F
  8
0
 66
     1
 10
0.0
 20
0.0
 30
0.0
  0
VERTEX
  5
9811
  8
0
 10
235.21330606970599
 20
140.3163643527314
 30
0.0
  0
VERTEX
  5
9812
  8
0
 10
235.17442627323231
 20
140.3162511858946
 30
0.0
  0
VERTEX
  5
9813
  8
0
 10
235.09572578765659
 20
140.31534088618631
 30
0.0
  0
VERTEX
  5
9814
  8
0
 10
235.01581323564591
 20
140.31350847547699
 30
0.0
  0
VERTEX
  5
9815
  8
0
 10
234.9754189929881
 20
140.31224307033949
 30
0.0
  0
VERTEX
  5
9816
  8
0
 10
234.93474191144381
 20
140.3107432637033
 30
0.0
  0
VERTEX
  5
9817
  8
0
 10
234.8525674590137
 20
140.3070362926772
 30
0.0
  0
VERTEX
  5
9818
  8
0
 10
234.76934748967639
 20
140.3023803389415
 30
0.0
  0
VERTEX
  5
9819
  8
0
 10
234.68514118431489
 20
140.29676989514181
 30
0.0
  0
VERTEX
  5
981A
  8
0
 10
234.60000888065679
 20
140.29020113004509
 30
0.0
  0
VERTEX
  5
981B
  8
0
 10
234.51401164634359
 20
140.28267182728629
 30
0.0
  0
VERTEX
  5
981C
  8
0
 10
234.47070785534561
 20
140.27854670336939
 30
0.0
  0
VERTEX
  5
981D
  8
0
 10
234.42721083876989
 20
140.27418130287589
 30
0.0
  0
VERTEX
  5
981E
  8
0
 10
234.33966765782949
 20
140.264730302039
 30
0.0
  0
VERTEX
  5
981F
  8
0
 10
234.25144325015069
 20
140.2543209442413
 30
0.0
  0
VERTEX
  5
9820
  8
0
 10
234.16260025106391
 20
140.24295687277029
 30
0.0
  0
VERTEX
  5
9821
  8
0
 10
234.0732031375837
 20
140.23064333198911
 30
0.0
  0
VERTEX
  5
9822
  8
0
 10
233.98331785352141
 20
140.21738715859601
 30
0.0
  0
VERTEX
  5
9823
  8
0
 10
233.93821306030901
 20
140.2104081498392
 30
0.0
  0
VERTEX
  5
9824
  8
0
 10
233.89301142044951
 20
140.2031967528826
 30
0.0
  0
VERTEX
  5
9825
  8
0
 10
233.80235154848609
 20
140.18808203210389
 30
0.0
  0
VERTEX
  5
9826
  8
0
 10
233.711406247784
 20
140.17205436666089
 30
0.0
  0
VERTEX
  5
9827
  8
0
 10
233.665847801567
 20
140.16370211083071
 30
0.0
  0
VERTEX
  5
9828
  8
0
 10
233.6202434414281
 20
140.15512649969989
 30
0.0
  0
VERTEX
  5
9829
  8
0
 10
233.52893058034221
 20
140.13731245064059
 30
0.0
  0
VERTEX
  5
982A
  8
0
 10
233.4375326919448
 20
140.1186270750257
 30
0.0
  0
VERTEX
  5
982B
  8
0
 10
233.39181345366109
 20
140.10896075733331
 30
0.0
  0
VERTEX
  5
982C
  8
0
 10
233.34608832593909
 20
140.09908069378849
 30
0.0
  0
VERTEX
  5
982D
  8
0
 10
233.25465352558561
 20
140.07868787815309
 30
0.0
  0
VERTEX
  5
982E
  8
0
 10
233.16329512501031
 20
140.05746668160651
 30
0.0
  0
VERTEX
  5
982F
  8
0
 10
233.0720806265731
 20
140.0354366557261
 30
0.0
  0
VERTEX
  5
9830
  8
0
 10
232.98107782146829
 20
140.01261879563739
 30
0.0
  0
VERTEX
  5
9831
  8
0
 10
232.89035442196379
 20
139.9890354719185
 30
0.0
  0
VERTEX
  5
9832
  8
0
 10
232.84511854997621
 20
139.9769641084693
 30
0.0
  0
VERTEX
  5
9833
  8
0
 10
232.79997770544881
 20
139.96471034980331
 30
0.0
  0
VERTEX
  5
9834
  8
0
 10
232.7100141701107
 20
139.93966829635039
 30
0.0
  0
VERTEX
  5
9835
  8
0
 10
232.62052920176939
 20
139.91393527605541
 30
0.0
  0
VERTEX
  5
9836
  8
0
 10
232.53158675124951
 20
139.8875382352374
 30
0.0
  0
VERTEX
  5
9837
  8
0
 10
232.44324923888459
 20
139.8605050428778
 30
0.0
  0
VERTEX
  5
9838
  8
0
 10
232.35557870275619
 20
139.83286482752791
 30
0.0
  0
VERTEX
  5
9839
  8
0
 10
232.3120130135917
 20
139.8188265982287
 30
0.0
  0
VERTEX
  5
983A
  8
0
 10
232.26863742719249
 20
139.8046482103089
 30
0.0
  0
VERTEX
  5
983B
  8
0
 10
232.18248761160251
 20
139.77588725162741
 30
0.0
  0
VERTEX
  5
983C
  8
0
 10
232.09719100798699
 20
139.74661537207501
 30
0.0
  0
VERTEX
  5
983D
  8
0
 10
232.0128085808897
 20
139.71686726438139
 30
0.0
  0
VERTEX
  5
983E
  8
0
 10
231.929400188893
 20
139.6866787971924
 30
0.0
  0
VERTEX
  5
983F
  8
0
 10
231.84702428636359
 20
139.6560869111604
 30
0.0
  0
VERTEX
  5
9840
  8
0
 10
231.8062413325006
 20
139.6406514959022
 30
0.0
  0
VERTEX
  5
9841
  8
0
 10
231.76573764379549
 20
139.62512950756241
 30
0.0
  0
VERTEX
  5
9842
  8
0
 10
231.68559249961939
 20
139.59384430786289
 30
0.0
  0
VERTEX
  5
9843
  8
0
 10
231.6060721387671
 20
139.56204025126209
 30
0.0
  0
VERTEX
  5
9844
  8
0
 10
231.5267975065403
 20
139.52956277790761
 30
0.0
  0
VERTEX
  5
9845
  8
0
 10
231.4478233032342
 20
139.49642566406581
 30
0.0
  0
VERTEX
  5
9846
  8
0
 10
231.36920373084561
 20
139.4626435689579
 30
0.0
  0
VERTEX
  5
9847
  8
0
 10
231.3300436840677
 20
139.44551545684709
 30
0.0
  0
VERTEX
  5
9848
  8
0
 10
231.2909922950316
 20
139.4282319572535
 30
0.0
  0
VERTEX
  5
9849
  8
0
 10
231.21324162204519
 20
139.39320701903219
 30
0.0
  0
VERTEX
  5
984A
  8
0
 10
231.13600328969281
 20
139.3575855872412
 30
0.0
  0
VERTEX
  5
984B
  8
0
 10
231.05932767144759
 20
139.3213850526493
 30
0.0
  0
VERTEX
  5
984C
  8
0
 10
230.98326379297669
 20
139.28462327627159
 30
0.0
  0
VERTEX
  5
984D
  8
0
 10
230.90785920046119
 20
139.24731849922341
 30
0.0
  0
VERTEX
  5
984E
  8
0
 10
230.8704185602169
 20
139.22846826695471
 30
0.0
  0
VERTEX
  5
984F
  8
0
 10
230.83315984038791
 20
139.20948925004839
 30
0.0
  0
VERTEX
  5
9850
  8
0
 10
230.75921008864179
 20
139.17115432197011
 30
0.0
  0
VERTEX
  5
9851
  8
0
 10
230.68605338496721
 20
139.13233307705929
 30
0.0
  0
VERTEX
  5
9852
  8
0
 10
230.64978581913331
 20
139.1127463330379
 30
0.0
  0
VERTEX
  5
9853
  8
0
 10
230.61373248892599
 20
139.09304559055121
 30
0.0
  0
VERTEX
  5
9854
  8
0
 10
230.54228932909561
 20
139.05331258910959
 30
0.0
  0
VERTEX
  5
9855
  8
0
 10
230.4717648509841
 20
139.01315538057111
 30
0.0
  0
VERTEX
  5
9856
  8
0
 10
230.4368596097211
 20
138.99292449873451
 30
0.0
  0
VERTEX
  5
9857
  8
0
 10
230.4021988777954
 20
138.97259578266659
 30
0.0
  0
VERTEX
  5
9858
  8
0
 10
230.3336299832454
 20
138.9316560506623
 30
0.0
  0
VERTEX
  5
9859
  8
0
 10
230.2660953756758
 20
138.8903588038288
 30
0.0
  0
VERTEX
  5
985A
  8
0
 10
230.19963079279199
 20
138.84872695060341
 30
0.0
  0
VERTEX
  5
985B
  8
0
 10
230.13427040640869
 20
138.8067836122828
 30
0.0
  0
VERTEX
  5
985C
  8
0
 10
230.07004603868111
 20
138.76455158040289
 30
0.0
  0
VERTEX
  5
985D
  8
0
 10
230.03836606582809
 20
138.7433322277771
 30
0.0
  0
VERTEX
  5
985E
  8
0
 10
230.0069781511265
 20
138.722047082496
 30
0.0
  0
VERTEX
  5
985F
  8
0
 10
229.94509356069781
 20
138.67929130725861
 30
0.0
  0
VERTEX
  5
9860
  8
0
 10
229.8844217551914
 20
138.63630838290399
 30
0.0
  0
VERTEX
  5
9861
  8
0
 10
229.82499109912851
 20
138.5931229358917
 30
0.0
  0
VERTEX
  5
9862
  8
0
 10
229.76682870380461
 20
138.5497600215422
 30
0.0
  0
VERTEX
  5
9863
  8
0
 10
229.70996030880769
 20
138.50624505417801
 30
0.0
  0
VERTEX
  5
9864
  8
0
 10
229.6820190032627
 20
138.48443857342679
 30
0.0
  0
VERTEX
  5
9865
  8
0
 10
229.65441017432249
 20
138.4626037366445
 30
0.0
  0
VERTEX
  5
9866
  8
0
 10
229.6002009835843
 20
138.41886198902651
 30
0.0
  0
VERTEX
  5
9867
  8
0
 10
229.54735375491279
 20
138.37504587631929
 30
0.0
  0
VERTEX
  5
9868
  8
0
 10
229.49588776281371
 20
138.33118153479069
 30
0.0
  0
VERTEX
  5
9869
  8
0
 10
229.44582046832741
 20
138.28729509724991
 30
0.0
  0
VERTEX
  5
986A
  8
0
 10
229.39716756542879
 20
138.24341271506341
 30
0.0
  0
VERTEX
  5
986B
  8
0
 10
229.3733760260275
 20
138.22148130597321
 30
0.0
  0
VERTEX
  5
986C
  8
0
 10
229.34994333892789
 20
138.19956088158261
 30
0.0
  0
VERTEX
  5
986D
  8
0
 10
229.3041607234891
 20
138.1557665281457
 30
0.0
  0
VERTEX
  5
986E
  8
0
 10
229.25983117290801
 20
138.1120569503114
 30
0.0
  0
VERTEX
  5
986F
  8
0
 10
229.2169645374529
 20
138.06845973030141
 30
0.0
  0
VERTEX
  5
9870
  8
0
 10
229.1755689533756
 20
138.02500265960961
 30
0.0
  0
VERTEX
  5
9871
  8
0
 10
229.13565074397999
 20
137.98171366157251
 30
0.0
  0
VERTEX
  5
9872
  8
0
 10
229.11624711324109
 20
137.9601409327729
 30
0.0
  0
VERTEX
  5
9873
  8
0
 10
229.09721433171671
 20
137.93862071362989
 30
0.0
  0
VERTEX
  5
9874
  8
0
 10
229.0602621608254
 20
137.8957517689521
 30
0.0
  0
VERTEX
  5
9875
  8
0
 10
229.02479463013611
 20
137.85313467704719
 30
0.0
  0
VERTEX
  5
9876
  8
0
 10
228.99073984600179
 20
137.81070802500159
 30
0.0
  0
VERTEX
  5
9877
  8
0
 10
228.95775525820679
 20
137.76804230376729
 30
0.0
  0
VERTEX
  5
9878
  8
0
 10
228.9258379657108
 20
137.72510264239031
 30
0.0
  0
VERTEX
  5
9879
  8
0
 10
228.91029469658679
 20
137.70353955387279
 30
0.0
  0
VERTEX
  5
987A
  8
0
 10
228.8950361669599
 20
137.68191936976231
 30
0.0
  0
VERTEX
  5
987B
  8
0
 10
228.8653960083652
 20
137.638522995416
 30
0.0
  0
VERTEX
  5
987C
  8
0
 10
228.83696152286711
 20
137.5949441246546
 30
0.0
  0
VERTEX
  5
987D
  8
0
 10
228.82320957777389
 20
137.5730958226693
 30
0.0
  0
VERTEX
  5
987E
  8
0
 10
228.8097745816508
 20
137.5512133740574
 30
0.0
  0
VERTEX
  5
987F
  8
0
 10
228.7838748587296
 20
137.50736128688919
 30
0.0
  0
VERTEX
  5
9880
  8
0
 10
228.75929980834189
 20
137.46341824801701
 30
0.0
  0
VERTEX
  5
9881
  8
0
 10
228.74752013018411
 20
137.44142205253439
 30
0.0
  0
VERTEX
  5
9882
  8
0
 10
228.7360846553093
 20
137.41941439802031
 30
0.0
  0
VERTEX
  5
9883
  8
0
 10
228.71426239880429
 20
137.37537954646771
 30
0.0
  0
VERTEX
  5
9884
  8
0
 10
228.69386386676891
 20
137.33134316643779
 30
0.0
  0
VERTEX
  5
9885
  8
0
 10
228.67491790632769
 20
137.28733472046909
 30
0.0
  0
VERTEX
  5
9886
  8
0
 10
228.65745143208869
 20
137.24338379064221
 30
0.0
  0
VERTEX
  5
9887
  8
0
 10
228.64148937095979
 20
137.19951999954949
 30
0.0
  0
VERTEX
  5
9888
  8
0
 10
228.63407972970981
 20
137.17763002823679
 30
0.0
  0
VERTEX
  5
9889
  8
0
 10
228.6270546154133
 20
137.15577292533931
 30
0.0
  0
VERTEX
  5
988A
  8
0
 10
228.61416798877829
 20
137.1121720177596
 30
0.0
  0
VERTEX
  5
988B
  8
0
 10
228.60284822254059
 20
137.06874651483969
 30
0.0
  0
VERTEX
  5
988C
  8
0
 10
228.5931119458287
 20
137.0255253598985
 30
0.0
  0
VERTEX
  5
988D
  8
0
 10
228.5849736874475
 20
136.98253711863069
 30
0.0
  0
VERTEX
  5
988E
  8
0
 10
228.57844589097979
 20
136.93980989608721
 30
0.0
  0
VERTEX
  5
988F
  8
0
 10
228.5757891234752
 20
136.9185517849258
 30
0.0
  0
VERTEX
  5
9890
  8
0
 10
228.57353851861899
 20
136.8973668625506
 30
0.0
  0
VERTEX
  5
9891
  8
0
 10
228.5702601874336
 20
136.85523051588689
 30
0.0
  0
VERTEX
  5
9892
  8
0
 10
228.56861838754139
 20
136.81342858386989
 30
0.0
  0
VERTEX
  5
9893
  8
0
 10
228.56841295806731
 20
136.79266159708601
 30
0.0
  0
SEQEND
  5
9894
  8
0
  0
LINE
  5
8B10
  8
0
 10
271.53393019944679
 20
140.3163643527314
 30
0.0
 11
235.21330606970599
 21
140.3163643527314
 31
0.0
  0
LINE
  5
8B11
  8
0
 10
228.56841295806731
 20
136.79266159708601
 30
0.0
 11
228.56841295806731
 21
114.0749850423863
 31
0.0
  0
LINE
  5
8B12
  8
0
 10
223.5684129580672
 20
141.0749850423866
 30
0.0
 11
223.5684129580672
 21
114.0749850423863
 31
0.0
  0
LINE
  5
8B13
  8
0
 10
181.5684129580672
 20
141.0749850423866
 30
0.0
 11
181.5684129580672
 21
114.0749850423863
 31
0.0
  0
LINE
  5
8B14
  8
2
 10
534.10949212485627
 20
421.99658943279138
 30
0.0
 11
568.10949212485639
 21
421.99658943279178
 31
0.0
  0
LINE
  5
8B15
  8
2
 10
568.10949212485639
 20
437.99658943279138
 30
0.0
 11
534.10949212485627
 21
437.99658943279178
 31
0.0
  0
LINE
  5
8B16
  8
2
 10
531.10949212485639
 20
447.99658943279132
 30
0.0
 11
531.10949212485639
 21
411.99658943279132
 31
0.0
  0
LINE
  5
8B17
  8
2
 10
567.90949212485611
 20
444.99658943279132
 30
0.0
 11
535.10949212485593
 21
444.99658943279132
 31
0.0
  0
LINE
  5
8B18
  8
2
 10
534.10949212485627
 20
447.99658943279132
 30
0.0
 11
534.10949212485627
 21
411.99658943279132
 31
0.0
  0
LINE
  5
8B19
  8
2
 10
535.10949212485639
 20
444.99658943279132
 30
0.0
 11
535.10949212485639
 21
443.99658943279132
 31
0.0
  0
LINE
  5
8B1A
  8
2
 10
531.10949212485639
 20
447.99658943279132
 30
0.0
 11
534.10949212485627
 21
447.99658943279132
 31
0.0
  0
LINE
  5
8B1B
  8
2
 10
531.10949212485639
 20
411.99658943279132
 30
0.0
 11
534.10949212485627
 21
411.99658943279132
 31
0.0
  0
LINE
  5
8B1C
  8
2
 10
535.10949212485639
 20
443.99658943279132
 30
0.0
 11
534.10949212485627
 21
443.99658943279132
 31
0.0
  0
LINE
  5
8B1D
  8
2
 10
567.90949212485611
 20
414.99658943279132
 30
0.0
 11
535.10949212485593
 21
414.99658943279132
 31
0.0
  0
LINE
  5
8B1E
  8
2
 10
535.10949212485639
 20
414.99658943279132
 30
0.0
 11
535.10949212485639
 21
415.99658943279132
 31
0.0
  0
LINE
  5
8B1F
  8
2
 10
535.10949212485639
 20
415.99658943279132
 30
0.0
 11
534.10949212485627
 21
415.99658943279132
 31
0.0
  0
CIRCLE
  5
9445
  8
0
 10
202.5684129580672
 20
429.99658943279138
 30
0.0
 40
74.897675240457005
  0
CIRCLE
  5
9446
  8
0
 10
202.5684129580672
 20
429.99658943279138
 30
0.0
 40
95.350625304302554
  0
LINE
  5
948A
  8
0
 10
230.06841295806731
 20
486.05478512265631
 30
0.0
 11
230.06841295806711
 21
373.13606282492532
 31
0.0
  0
LINE
  5
948B
  8
0
 10
175.0684129580672
 20
486.05478512265631
 30
0.0
 11
175.0684129580672
 21
373.93839374292691
 31
0.0
  0
TEXT
  5
94EB
  8
0
 62
     3
 10
0.0
 20
0.0
 30
0.0
 40
10.0
  1
NTWN200-GR
  7
STANDARD1
  0
ENDSEC
  0
EOF
