  0
SECTION
  2
HEADER
  9
$ACADVER
  1
AC1009
  9
$INSBASE
 10
0.0
 20
0.0
 30
0.0
  9
$EXTMIN
 10
0.0
 20
-2.960436562073669
 30
0.0
  9
$EXTMAX
 10
493.8170986319094
 20
486.26421981918241
 30
0.0
  9
$LIMMIN
 10
0.0
 20
0.0
  9
$LIMMAX
 10
375.0
 20
270.0
  9
$ORTHOMODE
 70
     1
  9
$REGENMODE
 70
     1
  9
$FILLMODE
 70
     1
  9
$QTEXTMODE
 70
     0
  9
$MIRRTEXT
 70
     0
  9
$DRAGMODE
 70
     2
  9
$LTSCALE
 40
10.0
  9
$OSMODE
 70
  3071
  9
$ATTMODE
 70
     1
  9
$TEXTSIZE
 40
0.2
  9
$TRACEWID
 40
0.05
  9
$TEXTSTYLE
  7
STANDARD
  9
$CLAYER
  8
0
  9
$CELTYPE
  6
BYLAYER
  9
$CECOLOR
 62
   256
  9
$DIMSCALE
 40
1.0
  9
$DIMASZ
 40
3.0
  9
$DIMEXO
 40
2.0
  9
$DIMDLI
 40
0.38
  9
$DIMRND
 40
0.0
  9
$DIMDLE
 40
0.0
  9
$DIMEXE
 40
2.0
  9
$DIMTP
 40
0.0
  9
$DIMTM
 40
0.0
  9
$DIMTXT
 40
3.2000000000000002
  9
$DIMCEN
 40
0.0
  9
$DIMTSZ
 40
0.0
  9
$DIMTOL
 70
     0
  9
$DIMLIM
 70
     0
  9
$DIMTIH
 70
     0
  9
$DIMTOH
 70
     0
  9
$DIMSE1
 70
     0
  9
$DIMSE2
 70
     0
  9
$DIMTAD
 70
     1
  9
$DIMZIN
 70
     8
  9
$DIMBLK
  1

  9
$DIMASO
 70
     1
  9
$DIMSHO
 70
     0
  9
$DIMPOST
  1

  9
$DIMAPOST
  1

  9
$DIMALT
 70
     0
  9
$DIMALTD
 70
     2
  9
$DIMALTF
 40
25.399999999999999
  9
$DIMLFAC
 40
1.0
  9
$DIMTOFL
 70
     1
  9
$DIMTVP
 40
1.6000000000000001
  9
$DIMTIX
 70
     1
  9
$DIMSOXD
 70
     0
  9
$DIMSAH
 70
     0
  9
$DIMBLK1
  1

  9
$DIMBLK2
  1

  9
$DIMSTYLE
  2
STANDARD
  9
$DIMCLRD
 70
     0
  9
$DIMCLRE
 70
     0
  9
$DIMCLRT
 70
     0
  9
$DIMTFAC
 40
1.0
  9
$DIMGAP
 40
1.5
  9
$LUNITS
 70
     2
  9
$LUPREC
 70
     4
  9
$SKETCHINC
 40
0.1
  9
$FILLETRAD
 40
0.0
  9
$AUNITS
 70
     1
  9
$AUPREC
 70
     4
  9
$MENU
  1
E:\r13\win\SUPPORT\ACAD
  9
$ELEVATION
 40
0.0
  9
$PELEVATION
 40
0.0
  9
$THICKNESS
 40
0.0
  9
$LIMCHECK
 70
     0
  9
$BLIPMODE
 70
     0
  9
$CHAMFERA
 40
0.0
  9
$CHAMFERB
 40
0.0
  9
$SKPOLY
 70
     0
  9
$TDCREATE
 40
2449839.7800462958
  9
$TDUPDATE
 40
2456597.700891817
  9
$TDINDWG
 40
0.7790845486
  9
$TDUSRTIMER
 40
0.7790845486
  9
$USRTIMER
 70
     1
  9
$ANGBASE
 50
0.0
  9
$ANGDIR
 70
     0
  9
$PDMODE
 70
     0
  9
$PDSIZE
 40
0.0
  9
$PLINEWID
 40
0.0
  9
$COORDS
 70
     1
  9
$SPLFRAME
 70
     0
  9
$SPLINETYPE
 70
     6
  9
$SPLINESEGS
 70
     8
  9
$ATTDIA
 70
     0
  9
$ATTREQ
 70
     1
  9
$HANDLING
 70
     1
  9
$HANDSEED
  5
8BF0
  9
$SURFTAB1
 70
     6
  9
$SURFTAB2
 70
     6
  9
$SURFTYPE
 70
     6
  9
$SURFU
 70
     6
  9
$SURFV
 70
     6
  9
$UCSNAME
  2

  9
$UCSORG
 10
0.0
 20
0.0
 30
0.0
  9
$UCSXDIR
 10
1.0
 20
0.0
 30
0.0
  9
$UCSYDIR
 10
0.0
 20
1.0
 30
0.0
  9
$PUCSNAME
  2

  9
$PUCSORG
 10
0.0
 20
0.0
 30
0.0
  9
$PUCSXDIR
 10
1.0
 20
0.0
 30
0.0
  9
$PUCSYDIR
 10
0.0
 20
1.0
 30
0.0
  9
$USERI1
 70
     0
  9
$USERI2
 70
     1
  9
$USERI3
 70
     1
  9
$USERI4
 70
     0
  9
$USERI5
 70
     0
  9
$USERR1
 40
0.0
  9
$USERR2
 40
0.0
  9
$USERR3
 40
0.0
  9
$USERR4
 40
0.0
  9
$USERR5
 40
0.0
  9
$WORLDVIEW
 70
     1
  9
$SHADEDGE
 70
     3
  9
$SHADEDIF
 70
    70
  9
$TILEMODE
 70
     1
  9
$MAXACTVP
 70
    16
  9
$PLIMCHECK
 70
     0
  9
$PEXTMIN
 10
1.0000000000000000E+020
 20
1.0000000000000000E+020
 30
1.0000000000000000E+020
  9
$PEXTMAX
 10
-1.0000000000000000E+020
 20
-1.0000000000000000E+020
 30
-1.0000000000000000E+020
  9
$PLIMMIN
 10
0.0
 20
0.0
  9
$PLIMMAX
 10
12.0
 20
9.0
  9
$UNITMODE
 70
     0
  9
$VISRETAIN
 70
     0
  9
$PLINEGEN
 70
     0
  9
$PSLTSCALE
 70
     0
  0
ENDSEC
  0
SECTION
  2
TABLES
  0
TABLE
  2
VPORT
 70
     1
  0
VPORT
  2
*ACTIVE
 70
     0
 10
0.0
 20
0.0
 11
1.0
 21
1.0
 12
246.90855046571201
 22
242.7073070773435
 13
0.0
 23
0.0
 14
10.0
 24
10.0
 15
10.0
 25
10.0
 16
0.0
 26
0.0
 36
1.0
 17
0.0
 27
0.0
 37
0.0
 40
497.00383272090738
 41
2.304913294797688
 42
50.0
 43
0.0
 44
0.0
 50
0.0
 51
0.0
 71
     0
 72
   500
 73
     1
 74
     0
 75
     0
 76
     0
 77
     0
 78
     2
  0
ENDTAB
  0
TABLE
  2
LTYPE
 70
     4
  0
LTYPE
  2
CONTINUOUS
 70
     0
  3
Solid Line
 72
    65
 73
     0
 40
0.0
  0
LTYPE
  2
CENTER
 70
     0
  3
____ _ ____ _ ____ _ ____ _ ____ _ ____ _ ____
 72
    65
 73
     4
 40
2.0
 49
1.25
 49
-0.25
 49
0.25
 49
-0.25
  0
LTYPE
  2
HIDDEN
 70
     0
  3
_ _ _ _ _ _ _ _ _ _ _ _ _ _ _ _ _ _ _ _ _ _ _
 72
    65
 73
     2
 40
0.375
 49
0.25
 49
-0.125
  0
LTYPE
  2
PHANTOM2
 70
     0
  3
___ _ _ ___ _ _ ___ _ _ ___ _ _
 72
    65
 73
     6
 40
1.25
 49
0.625
 49
-0.125
 49
0.125
 49
-0.125
 49
0.125
 49
-0.125
  0
ENDTAB
  0
TABLE
  2
LAYER
 70
     4
  0
LAYER
  2
0
 70
     0
 62
     7
  6
CONTINUOUS
  0
LAYER
  2
1
 70
     0
 62
     1
  6
CENTER
  0
LAYER
  2
2
 70
     0
 62
     2
  6
HIDDEN
  0
LAYER
  2
DEFPOINTS
 70
     0
 62
     7
  6
CONTINUOUS
  0
ENDTAB
  0
TABLE
  2
STYLE
 70
     2
  0
STYLE
  2
STANDARD
 70
     0
 40
0.0
 41
1.0
 50
0.0
 71
     0
 42
0.2
  3
TXT
  4
BIGFONT
  0
STYLE
  2
STANDARD1
 70
     0
 40
0.0
 41
1.0
 50
0.0
 71
     0
 42
3.0
  3
txt
  4

  0
ENDTAB
  0
TABLE
  2
VIEW
 70
     1
  0
VIEW
  2
ALL
 70
     0
 40
270.0
 10
220.99159663865549
 20
135.0
 41
0.0
 11
0.0
 21
0.0
 31
1.0
 12
0.0
 22
0.0
 32
0.0
 42
0.0
 43
0.0
 44
0.0
 50
0.0
 71
     0
  0
ENDTAB
  0
TABLE
  2
UCS
 70
     0
  0
ENDTAB
  0
TABLE
  2
APPID
 70
     8
  0
APPID
  2
ACAD
 70
     0
  0
APPID
  2
ACAD_MLEADERVER
 70
     0
  0
APPID
  2
ACAD_EXEMPT_FROM_CAD_STANDARDS
 70
     0
  0
APPID
  2
ACAD_DSTYLE_DIMJAG
 70
     0
  0
APPID
  2
ACAD_DSTYLE_DIMTALN
 70
     0
  0
APPID
  2
ACAD_DSTYLE_DIMRADIAL_EXTENSION
 70
     0
  0
APPID
  2
ACAD_PSEXT
 70
     0
  0
APPID
  2
ACAD_NAV_VCDISPLAY
 70
     0
  0
ENDTAB
  0
TABLE
  2
DIMSTYLE
 70
     1
  0
DIMSTYLE
  2
STANDARD
 70
     0
  3

  4

  5

  6

  7

 40
1.0
 41
0.18
 42
0.0625
 43
0.38
 44
0.18
 45
0.0
 46
0.0
 47
0.0
 48
0.0
140
0.18
141
0.09
142
0.0
143
25.399999999999999
144
1.0
145
0.0
146
1.0
147
0.09
 71
     0
 72
     0
 73
     1
 74
     1
 75
     0
 76
     0
 77
     0
 78
     0
170
     0
171
     2
172
     0
173
     0
174
     0
175
     0
176
     0
177
     0
178
     0
  0
ENDTAB
  0
ENDSEC
  0
SECTION
  2
BLOCKS
  0
BLOCK
  8
0
  2
$MODEL_SPACE
 70
     0
 10
0.0
 20
0.0
 30
0.0
  3
$MODEL_SPACE
  1

  0
ENDBLK
  5
11B
  8
0
  0
BLOCK
 67
     1
  8
0
  2
$PAPER_SPACE
 70
     0
 10
0.0
 20
0.0
 30
0.0
  3
$PAPER_SPACE
  1

  0
ENDBLK
  5
119
 67
     1
  8
0
  0
ENDSEC
  0
SECTION
  2
ENTITIES
  0
CIRCLE
  5
46D9
  8
0
 10
153.95802787947369
 20
393.79437351102808
 30
0.0
 40
80.0
  0
CIRCLE
  5
46ED
  8
0
 10
153.95802787947369
 20
393.79437351102808
 30
0.0
 40
20.000000000000028
  0
POLYLINE
  5
46EE
  8
0
 66
     1
 10
0.0
 20
0.0
 30
0.0
  0
VERTEX
  5
8950
  8
0
 10
126.64211339016261
 20
441.7301227945228
 30
0.0
  0
VERTEX
  5
8951
  8
0
 10
126.6709912543058
 20
441.74640081857262
 30
0.0
  0
VERTEX
  5
8952
  8
0
 10
126.7294532619803
 20
441.77828285261933
 30
0.0
  0
VERTEX
  5
8953
  8
0
 10
126.78883065735
 20
441.80923179737567
 30
0.0
  0
VERTEX
  5
8954
  8
0
 10
126.8188523951505
 20
441.82434383273551
 30
0.0
  0
VERTEX
  5
8955
  8
0
 10
126.849090525764
 20
441.8392077709691
 30
0.0
  0
VERTEX
  5
8956
  8
0
 10
126.9101985821389
 20
441.86817259924061
 30
0.0
  0
VERTEX
  5
8957
  8
0
 10
126.9721193465595
 20
441.89608991595389
 30
0.0
  0
VERTEX
  5
8958
  8
0
 10
127.03481632667351
 20
441.92292524601231
 30
0.0
  0
VERTEX
  5
8959
  8
0
 10
127.0982522073413
 20
441.9486460719146
 30
0.0
  0
VERTEX
  5
895A
  8
0
 10
127.16238904793541
 20
441.9732218834647
 30
0.0
  0
VERTEX
  5
895B
  8
0
 10
127.1947083510686
 20
441.98507143172088
 30
0.0
  0
VERTEX
  5
895C
  8
0
 10
127.2271884875795
 20
441.99662421058622
 30
0.0
  0
VERTEX
  5
895D
  8
0
 10
127.29261195851861
 20
442.01882663889103
 30
0.0
  0
VERTEX
  5
895E
  8
0
 10
127.3586208524621
 20
442.03980479055832
 30
0.0
  0
VERTEX
  5
895F
  8
0
 10
127.4251760346355
 20
442.05953610509511
 30
0.0
  0
VERTEX
  5
8960
  8
0
 10
127.49223725233099
 20
442.07799966115232
 30
0.0
  0
VERTEX
  5
8961
  8
0
 10
127.5597632313529
 20
442.09517624609049
 30
0.0
  0
VERTEX
  5
8962
  8
0
 10
127.59368737270459
 20
442.10327640771732
 30
0.0
  0
VERTEX
  5
8963
  8
0
 10
127.6277118543869
 20
442.11104843604392
 30
0.0
  0
VERTEX
  5
8964
  8
0
 10
127.6960403419948
 20
442.12560065905342
 30
0.0
  0
VERTEX
  5
8965
  8
0
 10
127.7647054364465
 20
442.13881924153708
 30
0.0
  0
VERTEX
  5
8966
  8
0
 10
127.79915060834441
 20
442.14492467138598
 30
0.0
  0
VERTEX
  5
8967
  8
0
 10
127.83366358862141
 20
442.1506924382511
 30
0.0
  0
VERTEX
  5
8968
  8
0
 10
127.9028711481842
 20
442.16121044576551
 30
0.0
  0
VERTEX
  5
8969
  8
0
 10
127.9722845572291
 20
442.17036539934873
 30
0.0
  0
VERTEX
  5
896A
  8
0
 10
128.0070549172035
 20
442.17442979874937
 30
0.0
  0
VERTEX
  5
896B
  8
0
 10
128.0418616668203
 20
442.17815146716208
 30
0.0
  0
VERTEX
  5
896C
  8
0
 10
128.11157583256951
 20
442.1845658427315
 30
0.0
  0
VERTEX
  5
896D
  8
0
 10
128.18138912498171
 20
442.18960552395998
 30
0.0
  0
VERTEX
  5
896E
  8
0
 10
128.25125752432649
 20
442.1932686437741
 30
0.0
  0
VERTEX
  5
896F
  8
0
 10
128.3211364489643
 20
442.19555518859579
 30
0.0
  0
VERTEX
  5
8970
  8
0
 10
128.39098094410789
 20
442.19646704864101
 30
0.0
  0
VERTEX
  5
8971
  8
0
 10
128.42587617661229
 20
442.19640859165838
 30
0.0
  0
VERTEX
  5
8972
  8
0
 10
128.46074587034099
 20
442.19600805115448
 30
0.0
  0
VERTEX
  5
8973
  8
0
 10
128.53038609203119
 20
442.19418397680931
 30
0.0
  0
VERTEX
  5
8974
  8
0
 10
128.5998566658381
 20
442.19100255939162
 30
0.0
  0
VERTEX
  5
8975
  8
0
 10
128.6691130295608
 20
442.18647346876571
 30
0.0
  0
VERTEX
  5
8976
  8
0
 10
128.73811119160169
 20
442.18060827698719
 30
0.0
  0
VERTEX
  5
8977
  8
0
 10
128.8068079071638
 20
442.17342040894528
 30
0.0
  0
VERTEX
  5
8978
  8
0
 10
128.84102986252151
 20
442.1693351691934
 30
0.0
  0
VERTEX
  5
8979
  8
0
 10
128.87516039360699
 20
442.16492513916739
 30
0.0
  0
VERTEX
  5
897A
  8
0
 10
128.94312556245811
 20
442.15513970155831
 30
0.0
  0
VERTEX
  5
897B
  8
0
 10
129.01066002480229
 20
442.14408336089821
 30
0.0
  0
VERTEX
  5
897C
  8
0
 10
129.0777203028633
 20
442.1317774493823
 30
0.0
  0
VERTEX
  5
897D
  8
0
 10
129.1442630376425
 20
442.11824538449679
 30
0.0
  0
VERTEX
  5
897E
  8
0
 10
129.2102451919888
 20
442.10351266875762
 30
0.0
  0
VERTEX
  5
897F
  8
0
 10
129.24301273938289
 20
442.09570460239598
 30
0.0
  0
VERTEX
  5
8980
  8
0
 10
129.27562424932009
 20
442.08760687164579
 30
0.0
  0
VERTEX
  5
8981
  8
0
 10
129.34035840836069
 20
442.0705575938992
 30
0.0
  0
VERTEX
  5
8982
  8
0
 10
129.40440677438619
 20
442.05239641415437
 30
0.0
  0
VERTEX
  5
8983
  8
0
 10
129.46773581154679
 20
442.03315485066111
 30
0.0
  0
VERTEX
  5
8984
  8
0
 10
129.53077740399019
 20
442.01271044647461
 30
0.0
  0
VERTEX
  5
8985
  8
0
 10
129.59377714366701
 20
441.99097008284258
 30
0.0
  0
VERTEX
  5
8986
  8
0
 10
129.625245370888
 20
441.97961264505432
 30
0.0
  0
VERTEX
  5
8987
  8
0
 10
129.6566840212185
 20
441.96792996177749
 30
0.0
  0
VERTEX
  5
8988
  8
0
 10
129.7194472750177
 20
441.94358842957217
 30
0.0
  0
VERTEX
  5
8989
  8
0
 10
129.78201658151849
 20
441.91794592341932
 30
0.0
  0
VERTEX
  5
898A
  8
0
 10
129.8443422375685
 20
441.8910049021739
 30
0.0
  0
VERTEX
  5
898B
  8
0
 10
129.9063753352502
 20
441.86276976115869
 30
0.0
  0
VERTEX
  5
898C
  8
0
 10
129.96806792962749
 20
441.83324673080011
 30
0.0
  0
VERTEX
  5
898D
  8
0
 10
129.9987718583229
 20
441.81800467726271
 30
0.0
  0
VERTEX
  5
898E
  8
0
 10
130.02937319958659
 20
441.80244375882421
 30
0.0
  0
VERTEX
  5
898F
  8
0
 10
130.0902456017634
 20
441.7703703756971
 30
0.0
  0
VERTEX
  5
8990
  8
0
 10
130.15064101211641
 20
441.7370375459127
 30
0.0
  0
VERTEX
  5
8991
  8
0
 10
130.18064642060099
 20
441.7199026497625
 30
0.0
  0
VERTEX
  5
8992
  8
0
 10
130.21051655150811
 20
441.70245768483028
 30
0.0
  0
VERTEX
  5
8993
  8
0
 10
130.26982988776831
 20
441.66664502592857
 30
0.0
  0
VERTEX
  5
8994
  8
0
 10
130.3285391678628
 20
441.62961569732499
 30
0.0
  0
VERTEX
  5
8995
  8
0
 10
130.35765438222191
 20
441.61065032374069
 30
0.0
  0
VERTEX
  5
8996
  8
0
 10
130.3866031937614
 20
441.59138765454469
 30
0.0
  0
VERTEX
  5
8997
  8
0
 10
130.44398159013801
 20
441.55198059916631
 30
0.0
  0
VERTEX
  5
8998
  8
0
 10
130.50063496198931
 20
441.51141588466601
 30
0.0
  0
VERTEX
  5
8999
  8
0
 10
130.5565250424938
 20
441.4697164094365
 30
0.0
  0
VERTEX
  5
899A
  8
0
 10
130.6116148313329
 20
441.42690649687898
 30
0.0
  0
VERTEX
  5
899B
  8
0
 10
130.66586872360079
 20
441.38301176238582
 30
0.0
  0
VERTEX
  5
899C
  8
0
 10
130.6926714931528
 20
441.36066590926208
 30
0.0
  0
VERTEX
  5
899D
  8
0
 10
130.7192526293247
 20
441.33805896698101
 30
0.0
  0
VERTEX
  5
899E
  8
0
 10
130.77174043756281
 20
441.29207017885261
 30
0.0
  0
VERTEX
  5
899F
  8
0
 10
130.8233105055437
 20
441.24506481500657
 30
0.0
  0
VERTEX
  5
89A0
  8
0
 10
130.87393164006059
 20
441.19707249973641
 30
0.0
  0
VERTEX
  5
89A1
  8
0
 10
130.92357339991031
 20
441.14812464517178
 30
0.0
  0
VERTEX
  5
89A2
  8
0
 10
130.97220638998371
 20
441.09825424551042
 30
0.0
  0
VERTEX
  5
89A3
  8
0
 10
130.99613573425719
 20
441.07298380872999
 30
0.0
  0
VERTEX
  5
89A4
  8
0
 10
131.0198024140027
 20
441.04749577118127
 30
0.0
  0
VERTEX
  5
89A5
  8
0
 10
131.0663346153319
 20
440.99588505209209
 30
0.0
  0
VERTEX
  5
89A6
  8
0
 10
131.1117776061096
 20
440.94345914993079
 30
0.0
  0
VERTEX
  5
89A7
  8
0
 10
131.15610758490331
 20
440.89025621937259
 30
0.0
  0
VERTEX
  5
89A8
  8
0
 10
131.19930244301619
 20
440.8363153579304
 30
0.0
  0
VERTEX
  5
89A9
  8
0
 10
131.24134185946511
 20
440.78167644415828
 30
0.0
  0
VERTEX
  5
89AA
  8
0
 10
131.2619224267971
 20
440.75410786371827
 30
0.0
  0
VERTEX
  5
89AB
  8
0
 10
131.28220730149181
 20
440.72638007852362
 30
0.0
  0
VERTEX
  5
89AC
  8
0
 10
131.32188159812401
 20
440.67046813803017
 30
0.0
  0
VERTEX
  5
89AD
  8
0
 10
131.36034876593661
 20
440.61398410738872
 30
0.0
  0
VERTEX
  5
89AE
  8
0
 10
131.3975941662425
 20
440.55697297952531
 30
0.0
  0
VERTEX
  5
89AF
  8
0
 10
131.43360466266651
 20
440.49948112588169
 30
0.0
  0
VERTEX
  5
89B0
  8
0
 10
131.46836876296919
 20
440.4415561578258
 30
0.0
  0
VERTEX
  5
89B1
  8
0
 10
131.4852803042458
 20
440.41244643740549
 30
0.0
  0
VERTEX
  5
89B2
  8
0
 10
131.50187674549301
 20
440.38324677929592
 30
0.0
  0
VERTEX
  5
89B3
  8
0
 10
131.53412077059031
 20
440.32460263058198
 30
0.0
  0
VERTEX
  5
89B4
  8
0
 10
131.56509497734891
 20
440.26567412296401
 30
0.0
  0
VERTEX
  5
89B5
  8
0
 10
131.59479556588391
 20
440.20651226371513
 30
0.0
  0
VERTEX
  5
89B6
  8
0
 10
131.6232947427531
 20
440.14701049070987
 30
0.0
  0
VERTEX
  5
89B7
  8
0
 10
131.6508492090847
 20
440.08662121961891
 30
0.0
  0
VERTEX
  5
89B8
  8
0
 10
131.6642683474083
 20
440.05608447491392
 30
0.0
  0
VERTEX
  5
89B9
  8
0
 10
131.6774414526717
 20
440.02532614582202
 30
0.0
  0
VERTEX
  5
89BA
  8
0
 10
131.70302844935671
 20
439.96316475141981
 30
0.0
  0
VERTEX
  5
89BB
  8
0
 10
131.72756934916279
 20
439.90017788656371
 30
0.0
  0
VERTEX
  5
89BC
  8
0
 10
131.73943536599671
 20
439.86838799068897
 30
0.0
  0
VERTEX
  5
89BD
  8
0
 10
131.7510255736656
 20
439.83640755842049
 30
0.0
  0
VERTEX
  5
89BE
  8
0
 10
131.7733608932663
 20
439.77189671215422
 30
0.0
  0
VERTEX
  5
89BF
  8
0
 10
131.79454148450941
 20
439.70668900302189
 30
0.0
  0
VERTEX
  5
89C0
  8
0
 10
131.80468885467619
 20
439.67383760306041
 30
0.0
  0
VERTEX
  5
89C1
  8
0
 10
131.8145359673108
 20
439.64082855880832
 30
0.0
  0
VERTEX
  5
89C2
  8
0
 10
131.83331542169481
 20
439.57435973197943
 30
0.0
  0
VERTEX
  5
89C3
  8
0
 10
131.8508533681956
 20
439.50732690162067
 30
0.0
  0
VERTEX
  5
89C4
  8
0
 10
131.8671255666786
 20
439.43977498909283
 30
0.0
  0
VERTEX
  5
89C5
  8
0
 10
131.88210986186209
 20
439.37175009081608
 30
0.0
  0
VERTEX
  5
89C6
  8
0
 10
131.8957862567913
 20
439.3032993519397
 30
0.0
  0
VERTEX
  5
89C7
  8
0
 10
131.9021283525903
 20
439.26892925847739
 30
0.0
  0
VERTEX
  5
89C8
  8
0
 10
131.90813699163891
 20
439.23447074908847
 30
0.0
  0
VERTEX
  5
89C9
  8
0
 10
131.91914660219001
 20
439.16531287078362
 30
0.0
  0
VERTEX
  5
89CA
  8
0
 10
131.92880195832731
 20
439.0958746948582
 30
0.0
  0
VERTEX
  5
89CB
  8
0
 10
131.9370922826117
 20
439.02620536221508
 30
0.0
  0
VERTEX
  5
89CC
  8
0
 10
131.94400914886131
 20
438.95635394631211
 30
0.0
  0
VERTEX
  5
89CD
  8
0
 10
131.94954649436909
 20
438.88636872727932
 30
0.0
  0
VERTEX
  5
89CE
  8
0
 10
131.9517968315522
 20
438.85133645101592
 30
0.0
  0
VERTEX
  5
89CF
  8
0
 10
131.95370118534129
 20
438.8162836555212
 30
0.0
  0
VERTEX
  5
89D0
  8
0
 10
131.9564709002334
 20
438.74614141303078
 30
0.0
  0
VERTEX
  5
89D1
  8
0
 10
131.95785500020841
 20
438.6759919193683
 30
0.0
  0
VERTEX
  5
89D2
  8
0
 10
131.95802787947369
 20
438.64093006291989
 30
0.0
  0
SEQEND
  5
89D3
  8
0
  0
ARC
  5
46EF
  8
0
 10
153.95802787947369
 20
393.79437351102808
 30
0.0
 40
55.172413793103431
 50
119.6764073220494
 51
240.3235936683221
  0
POLYLINE
  5
46F0
  8
0
 66
     1
 10
0.0
 20
0.0
 30
0.0
  0
VERTEX
  5
89D4
  8
0
 10
131.95802787947369
 20
348.94781695913628
 30
0.0
  0
VERTEX
  5
89D5
  8
0
 10
131.95785500020841
 20
348.91275510268781
 30
0.0
  0
VERTEX
  5
89D6
  8
0
 10
131.9564709002334
 20
348.84260560902533
 30
0.0
  0
VERTEX
  5
89D7
  8
0
 10
131.95370118534129
 20
348.77246336653491
 30
0.0
  0
VERTEX
  5
89D8
  8
0
 10
131.9517968315522
 20
348.7374105710399
 30
0.0
  0
VERTEX
  5
89D9
  8
0
 10
131.94954649436909
 20
348.70237829477662
 30
0.0
  0
VERTEX
  5
89DA
  8
0
 10
131.94400914886131
 20
348.63239307574401
 30
0.0
  0
VERTEX
  5
89DB
  8
0
 10
131.9370922826117
 20
348.5625416598408
 30
0.0
  0
VERTEX
  5
89DC
  8
0
 10
131.92880195832731
 20
348.49287232719809
 30
0.0
  0
VERTEX
  5
89DD
  8
0
 10
131.91914660219001
 20
348.42343415127232
 30
0.0
  0
VERTEX
  5
89DE
  8
0
 10
131.90813699163891
 20
348.35427627296752
 30
0.0
  0
VERTEX
  5
89DF
  8
0
 10
131.9021283525903
 20
348.3198177635785
 30
0.0
  0
VERTEX
  5
89E0
  8
0
 10
131.8957862567913
 20
348.28544767011653
 30
0.0
  0
VERTEX
  5
89E1
  8
0
 10
131.88210986186181
 20
348.21699693123981
 30
0.0
  0
VERTEX
  5
89E2
  8
0
 10
131.8671255666786
 20
348.14897203296329
 30
0.0
  0
VERTEX
  5
89E3
  8
0
 10
131.8508533681956
 20
348.08142012043561
 30
0.0
  0
VERTEX
  5
89E4
  8
0
 10
131.83331542169481
 20
348.0143872900768
 30
0.0
  0
VERTEX
  5
89E5
  8
0
 10
131.8145359673108
 20
347.94791846324767
 30
0.0
  0
VERTEX
  5
89E6
  8
0
 10
131.80468885467619
 20
347.91490941899599
 30
0.0
  0
VERTEX
  5
89E7
  8
0
 10
131.79454148450941
 20
347.88205801903422
 30
0.0
  0
VERTEX
  5
89E8
  8
0
 10
131.7733608932663
 20
347.81685030990189
 30
0.0
  0
VERTEX
  5
89E9
  8
0
 10
131.7510255736656
 20
347.75233946363562
 30
0.0
  0
VERTEX
  5
89EA
  8
0
 10
131.73943536599671
 20
347.72035903136691
 30
0.0
  0
VERTEX
  5
89EB
  8
0
 10
131.72756934916279
 20
347.68856913549251
 30
0.0
  0
VERTEX
  5
89EC
  8
0
 10
131.70302844935671
 20
347.6255822706363
 30
0.0
  0
VERTEX
  5
89ED
  8
0
 10
131.6774414526717
 20
347.56342087623432
 30
0.0
  0
VERTEX
  5
89EE
  8
0
 10
131.6642683474083
 20
347.53266254714219
 30
0.0
  0
VERTEX
  5
89EF
  8
0
 10
131.6508492090847
 20
347.50212580243698
 30
0.0
  0
VERTEX
  5
89F0
  8
0
 10
131.6232947427531
 20
347.44173653134618
 30
0.0
  0
VERTEX
  5
89F1
  8
0
 10
131.59479556588391
 20
347.38223475834081
 30
0.0
  0
VERTEX
  5
89F2
  8
0
 10
131.56509497734891
 20
347.32307289909193
 30
0.0
  0
VERTEX
  5
89F3
  8
0
 10
131.53412077059031
 20
347.26414439147408
 30
0.0
  0
VERTEX
  5
89F4
  8
0
 10
131.50187674549301
 20
347.20550024276019
 30
0.0
  0
VERTEX
  5
89F5
  8
0
 10
131.48528030424561
 20
347.17630058465051
 30
0.0
  0
VERTEX
  5
89F6
  8
0
 10
131.46836876296919
 20
347.14719086423031
 30
0.0
  0
VERTEX
  5
89F7
  8
0
 10
131.43360466266651
 20
347.08926589617442
 30
0.0
  0
VERTEX
  5
89F8
  8
0
 10
131.3975941662425
 20
347.03177404253063
 30
0.0
  0
VERTEX
  5
89F9
  8
0
 10
131.36034876593661
 20
346.97476291466739
 30
0.0
  0
VERTEX
  5
89FA
  8
0
 10
131.32188159812401
 20
346.91827888402588
 30
0.0
  0
VERTEX
  5
89FB
  8
0
 10
131.2822073014915
 20
346.86236694353232
 30
0.0
  0
VERTEX
  5
89FC
  8
0
 10
131.2619224267971
 20
346.83463915833778
 30
0.0
  0
VERTEX
  5
89FD
  8
0
 10
131.24134185946511
 20
346.80707057789789
 30
0.0
  0
VERTEX
  5
89FE
  8
0
 10
131.19930244301619
 20
346.75243166412548
 30
0.0
  0
VERTEX
  5
89FF
  8
0
 10
131.15610758490311
 20
346.69849080268352
 30
0.0
  0
VERTEX
  5
8A00
  8
0
 10
131.1117776061096
 20
346.64528787212532
 30
0.0
  0
VERTEX
  5
8A01
  8
0
 10
131.0663346153319
 20
346.5928619699643
 30
0.0
  0
VERTEX
  5
8A02
  8
0
 10
131.0198024140027
 20
346.54125125087478
 30
0.0
  0
VERTEX
  5
8A03
  8
0
 10
130.99613573425719
 20
346.5157632133259
 30
0.0
  0
VERTEX
  5
8A04
  8
0
 10
130.97220638998351
 20
346.49049277654569
 30
0.0
  0
VERTEX
  5
8A05
  8
0
 10
130.92357339991031
 20
346.44062237688428
 30
0.0
  0
VERTEX
  5
8A06
  8
0
 10
130.87393164006059
 20
346.3916745223197
 30
0.0
  0
VERTEX
  5
8A07
  8
0
 10
130.8233105055437
 20
346.34368220704948
 30
0.0
  0
VERTEX
  5
8A08
  8
0
 10
130.77174043756261
 20
346.29667684320327
 30
0.0
  0
VERTEX
  5
8A09
  8
0
 10
130.7192526293247
 20
346.2506880550751
 30
0.0
  0
VERTEX
  5
8A0A
  8
0
 10
130.6926714931528
 20
346.22808111279397
 30
0.0
  0
VERTEX
  5
8A0B
  8
0
 10
130.66586872360079
 20
346.2057352596704
 30
0.0
  0
VERTEX
  5
8A0C
  8
0
 10
130.6116148313329
 20
346.16184052517713
 30
0.0
  0
VERTEX
  5
8A0D
  8
0
 10
130.5565250424938
 20
346.11903061261972
 30
0.0
  0
VERTEX
  5
8A0E
  8
0
 10
130.50063496198931
 20
346.07733113739039
 30
0.0
  0
VERTEX
  5
8A0F
  8
0
 10
130.44398159013781
 20
346.03676642288991
 30
0.0
  0
VERTEX
  5
8A10
  8
0
 10
130.3866031937614
 20
345.99735936751142
 30
0.0
  0
VERTEX
  5
8A11
  8
0
 10
130.35765438222191
 20
345.97809669831543
 30
0.0
  0
VERTEX
  5
8A12
  8
0
 10
130.3285391678626
 20
345.95913132473117
 30
0.0
  0
VERTEX
  5
8A13
  8
0
 10
130.26982988776811
 20
345.92210199612771
 30
0.0
  0
VERTEX
  5
8A14
  8
0
 10
130.21051655150791
 20
345.88628933722578
 30
0.0
  0
VERTEX
  5
8A15
  8
0
 10
130.18064642060099
 20
345.86884437229372
 30
0.0
  0
VERTEX
  5
8A16
  8
0
 10
130.15064101211641
 20
345.8517094761433
 30
0.0
  0
VERTEX
  5
8A17
  8
0
 10
130.0902456017634
 20
345.8183766463593
 30
0.0
  0
VERTEX
  5
8A18
  8
0
 10
130.02937319958659
 20
345.78630326323179
 30
0.0
  0
VERTEX
  5
8A19
  8
0
 10
129.9987718583229
 20
345.7707423447934
 30
0.0
  0
VERTEX
  5
8A1A
  8
0
 10
129.96806792962749
 20
345.755500291256
 30
0.0
  0
VERTEX
  5
8A1B
  8
0
 10
129.9063753352502
 20
345.72597726089742
 30
0.0
  0
VERTEX
  5
8A1C
  8
0
 10
129.8443422375685
 20
345.69774211988232
 30
0.0
  0
VERTEX
  5
8A1D
  8
0
 10
129.78201658151849
 20
345.6708010986369
 30
0.0
  0
VERTEX
  5
8A1E
  8
0
 10
129.7194472750175
 20
345.64515859248388
 30
0.0
  0
VERTEX
  5
8A1F
  8
0
 10
129.6566840212185
 20
345.62081706027891
 30
0.0
  0
VERTEX
  5
8A20
  8
0
 10
129.6252453708878
 20
345.60913437700208
 30
0.0
  0
VERTEX
  5
8A21
  8
0
 10
129.59377714366701
 20
345.5977769392133
 30
0.0
  0
VERTEX
  5
8A22
  8
0
 10
129.53077740399019
 20
345.57603657558133
 30
0.0
  0
VERTEX
  5
8A23
  8
0
 10
129.46773581154679
 20
345.55559217139478
 30
0.0
  0
VERTEX
  5
8A24
  8
0
 10
129.40440677438619
 20
345.5363506079014
 30
0.0
  0
VERTEX
  5
8A25
  8
0
 10
129.34035840836069
 20
345.51818942815692
 30
0.0
  0
VERTEX
  5
8A26
  8
0
 10
129.27562424932009
 20
345.50114015041038
 30
0.0
  0
VERTEX
  5
8A27
  8
0
 10
129.24301273938269
 20
345.49304241966013
 30
0.0
  0
VERTEX
  5
8A28
  8
0
 10
129.2102451919888
 20
345.48523435329832
 30
0.0
  0
VERTEX
  5
8A29
  8
0
 10
129.1442630376423
 20
345.47050163755932
 30
0.0
  0
VERTEX
  5
8A2A
  8
0
 10
129.0777203028633
 20
345.45696957267381
 30
0.0
  0
VERTEX
  5
8A2B
  8
0
 10
129.01066002480229
 20
345.44466366115802
 30
0.0
  0
VERTEX
  5
8A2C
  8
0
 10
128.94312556245791
 20
345.4336073204978
 30
0.0
  0
VERTEX
  5
8A2D
  8
0
 10
128.87516039360679
 20
345.42382188288877
 30
0.0
  0
VERTEX
  5
8A2E
  8
0
 10
128.84102986252131
 20
345.41941185286271
 30
0.0
  0
VERTEX
  5
8A2F
  8
0
 10
128.8068079071636
 20
345.41532661311078
 30
0.0
  0
VERTEX
  5
8A30
  8
0
 10
128.73811119160149
 20
345.4081387450691
 30
0.0
  0
VERTEX
  5
8A31
  8
0
 10
128.66911302956049
 20
345.4022735532904
 30
0.0
  0
VERTEX
  5
8A32
  8
0
 10
128.5998566658379
 20
345.39774446266432
 30
0.0
  0
VERTEX
  5
8A33
  8
0
 10
128.53038609203119
 20
345.39456304524708
 30
0.0
  0
VERTEX
  5
8A34
  8
0
 10
128.46074587034079
 20
345.39273897090158
 30
0.0
  0
VERTEX
  5
8A35
  8
0
 10
128.42587617661201
 20
345.39233843039767
 30
0.0
  0
VERTEX
  5
8A36
  8
0
 10
128.39098094410789
 20
345.39227997341487
 30
0.0
  0
VERTEX
  5
8A37
  8
0
 10
128.3211364489643
 20
345.39319183346032
 30
0.0
  0
VERTEX
  5
8A38
  8
0
 10
128.25125752432649
 20
345.39547837828189
 30
0.0
  0
VERTEX
  5
8A39
  8
0
 10
128.18138912498171
 20
345.3991414980959
 30
0.0
  0
VERTEX
  5
8A3A
  8
0
 10
128.11157583256951
 20
345.40418117932438
 30
0.0
  0
VERTEX
  5
8A3B
  8
0
 10
128.0418616668203
 20
345.41059555489397
 30
0.0
  0
VERTEX
  5
8A3C
  8
0
 10
128.00705491720331
 20
345.41431722330651
 30
0.0
  0
VERTEX
  5
8A3D
  8
0
 10
127.9722845572291
 20
345.41838162270739
 30
0.0
  0
VERTEX
  5
8A3E
  8
0
 10
127.9028711481842
 20
345.42753657629072
 30
0.0
  0
VERTEX
  5
8A3F
  8
0
 10
127.83366358862121
 20
345.43805458380473
 30
0.0
  0
VERTEX
  5
8A40
  8
0
 10
127.79915060834421
 20
345.4438223506703
 30
0.0
  0
VERTEX
  5
8A41
  8
0
 10
127.7647054364465
 20
345.44992778051909
 30
0.0
  0
VERTEX
  5
8A42
  8
0
 10
127.6960403419946
 20
345.46314636300269
 30
0.0
  0
VERTEX
  5
8A43
  8
0
 10
127.6277118543867
 20
345.47769858601202
 30
0.0
  0
VERTEX
  5
8A44
  8
0
 10
127.59368737270439
 20
345.48547061433891
 30
0.0
  0
VERTEX
  5
8A45
  8
0
 10
127.5597632313527
 20
345.49357077596562
 30
0.0
  0
VERTEX
  5
8A46
  8
0
 10
127.49223725233099
 20
345.51074736090362
 30
0.0
  0
VERTEX
  5
8A47
  8
0
 10
127.4251760346355
 20
345.52921091696101
 30
0.0
  0
VERTEX
  5
8A48
  8
0
 10
127.3586208524618
 20
345.54894223149762
 30
0.0
  0
VERTEX
  5
8A49
  8
0
 10
127.2926119587262
 20
345.56992038309693
 30
0.0
  0
VERTEX
  5
8A4A
  8
0
 10
127.22718851422179
 20
345.59212280213882
 30
0.0
  0
VERTEX
  5
8A4B
  8
0
 10
127.1947084056048
 20
345.60367557063881
 30
0.0
  0
VERTEX
  5
8A4C
  8
0
 10
127.16238913853429
 20
345.6155251048757
 30
0.0
  0
VERTEX
  5
8A4D
  8
0
 10
127.0982523897414
 20
345.6401008782222
 30
0.0
  0
VERTEX
  5
8A4E
  8
0
 10
127.0348166191268
 20
345.66582165417401
 30
0.0
  0
VERTEX
  5
8A4F
  8
0
 10
126.97211975788881
 20
345.69265692535981
 30
0.0
  0
VERTEX
  5
8A50
  8
0
 10
126.9101991119669
 20
345.72057417782349
 30
0.0
  0
VERTEX
  5
8A51
  8
0
 10
126.8490911648086
 20
345.74953894070711
 30
0.0
  0
VERTEX
  5
8A52
  8
0
 10
126.8188530826351
 20
345.76440284732467
 30
0.0
  0
VERTEX
  5
8A53
  8
0
 10
126.7888313877779
 20
345.77951485266738
 30
0.0
  0
VERTEX
  5
8A54
  8
0
 10
126.7294540578168
 20
345.8104637450507
 30
0.0
  0
VERTEX
  5
8A55
  8
0
 10
126.6709920818962
 20
345.84234574205351
 30
0.0
  0
VERTEX
  5
8A56
  8
0
 10
126.6421142187487
 20
345.85862375536828
 30
0.0
  0
SEQEND
  5
8A57
  8
0
  0
POLYLINE
  5
46F5
  8
0
 66
     1
 10
0.0
 20
0.0
 30
0.0
  0
VERTEX
  5
8A58
  8
0
 10
181.2739423687849
 20
345.85862422753343
 30
0.0
  0
VERTEX
  5
8A59
  8
0
 10
181.2450645046419
 20
345.84234620348332
 30
0.0
  0
VERTEX
  5
8A5A
  8
0
 10
181.1866024969672
 20
345.81046416943678
 30
0.0
  0
VERTEX
  5
8A5B
  8
0
 10
181.1272251015975
 20
345.77951522468032
 30
0.0
  0
VERTEX
  5
8A5C
  8
0
 10
181.09720336379721
 20
345.7644031893206
 30
0.0
  0
VERTEX
  5
8A5D
  8
0
 10
181.06696523318351
 20
345.74953925108701
 30
0.0
  0
VERTEX
  5
8A5E
  8
0
 10
181.0058571768086
 20
345.7205744228155
 30
0.0
  0
VERTEX
  5
8A5F
  8
0
 10
180.94393641238821
 20
345.6926571061025
 30
0.0
  0
VERTEX
  5
8A60
  8
0
 10
180.88123943227399
 20
345.6658217760438
 30
0.0
  0
VERTEX
  5
8A61
  8
0
 10
180.81780355160609
 20
345.6401009501418
 30
0.0
  0
VERTEX
  5
8A62
  8
0
 10
180.7536667110121
 20
345.61552513859158
 30
0.0
  0
VERTEX
  5
8A63
  8
0
 10
180.72134740787891
 20
345.603675590335
 30
0.0
  0
VERTEX
  5
8A64
  8
0
 10
180.688867271368
 20
345.59212281147001
 30
0.0
  0
VERTEX
  5
8A65
  8
0
 10
180.6234438004289
 20
345.5699203831652
 30
0.0
  0
VERTEX
  5
8A66
  8
0
 10
180.5574349064855
 20
345.54894223149762
 30
0.0
  0
VERTEX
  5
8A67
  8
0
 10
180.49087972431201
 20
345.52921091696101
 30
0.0
  0
VERTEX
  5
8A68
  8
0
 10
180.4238185066165
 20
345.51074736090379
 30
0.0
  0
VERTEX
  5
8A69
  8
0
 10
180.3562925275946
 20
345.49357077596562
 30
0.0
  0
VERTEX
  5
8A6A
  8
0
 10
180.32236838624291
 20
345.48547061433891
 30
0.0
  0
VERTEX
  5
8A6B
  8
0
 10
180.28834390456041
 20
345.47769858601231
 30
0.0
  0
VERTEX
  5
8A6C
  8
0
 10
180.22001541695269
 20
345.46314636300269
 30
0.0
  0
VERTEX
  5
8A6D
  8
0
 10
180.151350322501
 20
345.44992778051932
 30
0.0
  0
VERTEX
  5
8A6E
  8
0
 10
180.11690515060349
 20
345.4438223506703
 30
0.0
  0
VERTEX
  5
8A6F
  8
0
 10
180.0823921703263
 20
345.4380545838049
 30
0.0
  0
VERTEX
  5
8A70
  8
0
 10
180.01318461076329
 20
345.42753657629072
 30
0.0
  0
VERTEX
  5
8A71
  8
0
 10
179.94377120171839
 20
345.41838162270739
 30
0.0
  0
VERTEX
  5
8A72
  8
0
 10
179.9090008417443
 20
345.41431722330651
 30
0.0
  0
VERTEX
  5
8A73
  8
0
 10
179.8741940921272
 20
345.41059555489397
 30
0.0
  0
VERTEX
  5
8A74
  8
0
 10
179.80447992637801
 20
345.40418117932438
 30
0.0
  0
VERTEX
  5
8A75
  8
0
 10
179.73466663396579
 20
345.3991414980959
 30
0.0
  0
VERTEX
  5
8A76
  8
0
 10
179.6647982346208
 20
345.39547837828189
 30
0.0
  0
VERTEX
  5
8A77
  8
0
 10
179.5949193099832
 20
345.39319183346032
 30
0.0
  0
VERTEX
  5
8A78
  8
0
 10
179.5250748148396
 20
345.39227997341487
 30
0.0
  0
VERTEX
  5
8A79
  8
0
 10
179.49017958233549
 20
345.39233843039767
 30
0.0
  0
VERTEX
  5
8A7A
  8
0
 10
179.45530988860651
 20
345.39273897090192
 30
0.0
  0
VERTEX
  5
8A7B
  8
0
 10
179.3856696669163
 20
345.39456304524708
 30
0.0
  0
VERTEX
  5
8A7C
  8
0
 10
179.31619909310939
 20
345.39774446266432
 30
0.0
  0
VERTEX
  5
8A7D
  8
0
 10
179.24694272938669
 20
345.4022735532904
 30
0.0
  0
VERTEX
  5
8A7E
  8
0
 10
179.17794456734569
 20
345.4081387450691
 30
0.0
  0
VERTEX
  5
8A7F
  8
0
 10
179.10924785178369
 20
345.41532661311078
 30
0.0
  0
VERTEX
  5
8A80
  8
0
 10
179.07502589642601
 20
345.41941185286288
 30
0.0
  0
VERTEX
  5
8A81
  8
0
 10
179.04089536534039
 20
345.42382188288877
 30
0.0
  0
VERTEX
  5
8A82
  8
0
 10
178.97293019648939
 20
345.43360732049803
 30
0.0
  0
VERTEX
  5
8A83
  8
0
 10
178.9053957341452
 20
345.44466366115819
 30
0.0
  0
VERTEX
  5
8A84
  8
0
 10
178.8383354560842
 20
345.45696957267381
 30
0.0
  0
VERTEX
  5
8A85
  8
0
 10
178.77179272130499
 20
345.47050163755932
 30
0.0
  0
VERTEX
  5
8A86
  8
0
 10
178.70581056695869
 20
345.48523435329849
 30
0.0
  0
VERTEX
  5
8A87
  8
0
 10
178.6730430195646
 20
345.49304241966013
 30
0.0
  0
VERTEX
  5
8A88
  8
0
 10
178.6404315096274
 20
345.50114015041038
 30
0.0
  0
VERTEX
  5
8A89
  8
0
 10
178.57569735058681
 20
345.51818942815692
 30
0.0
  0
VERTEX
  5
8A8A
  8
0
 10
178.5116489845613
 20
345.5363506079014
 30
0.0
  0
VERTEX
  5
8A8B
  8
0
 10
178.44831994740071
 20
345.55559217139478
 30
0.0
  0
VERTEX
  5
8A8C
  8
0
 10
178.38527835495731
 20
345.5760365755815
 30
0.0
  0
VERTEX
  5
8A8D
  8
0
 10
178.32227861528051
 20
345.5977769392133
 30
0.0
  0
VERTEX
  5
8A8E
  8
0
 10
178.2908103880595
 20
345.60913437700208
 30
0.0
  0
VERTEX
  5
8A8F
  8
0
 10
178.259371737729
 20
345.62081706027891
 30
0.0
  0
VERTEX
  5
8A90
  8
0
 10
178.19660848392999
 20
345.64515859248388
 30
0.0
  0
VERTEX
  5
8A91
  8
0
 10
178.134039177429
 20
345.67080109863713
 30
0.0
  0
VERTEX
  5
8A92
  8
0
 10
178.071713521379
 20
345.69774211988232
 30
0.0
  0
VERTEX
  5
8A93
  8
0
 10
178.00968042369729
 20
345.72597726089742
 30
0.0
  0
VERTEX
  5
8A94
  8
0
 10
177.94798782932
 20
345.755500291256
 30
0.0
  0
VERTEX
  5
8A95
  8
0
 10
177.9172839006246
 20
345.77074234479358
 30
0.0
  0
VERTEX
  5
8A96
  8
0
 10
177.88668255936091
 20
345.78630326323179
 30
0.0
  0
VERTEX
  5
8A97
  8
0
 10
177.82581015718409
 20
345.8183766463593
 30
0.0
  0
VERTEX
  5
8A98
  8
0
 10
177.76541474683111
 20
345.8517094761433
 30
0.0
  0
VERTEX
  5
8A99
  8
0
 10
177.7354093383465
 20
345.86884437229372
 30
0.0
  0
VERTEX
  5
8A9A
  8
0
 10
177.70553920743961
 20
345.88628933722578
 30
0.0
  0
VERTEX
  5
8A9B
  8
0
 10
177.64622587117941
 20
345.92210199612771
 30
0.0
  0
VERTEX
  5
8A9C
  8
0
 10
177.58751659108501
 20
345.95913132473117
 30
0.0
  0
VERTEX
  5
8A9D
  8
0
 10
177.55840137672561
 20
345.9780966983156
 30
0.0
  0
VERTEX
  5
8A9E
  8
0
 10
177.52945256518609
 20
345.99735936751142
 30
0.0
  0
VERTEX
  5
8A9F
  8
0
 10
177.47207416880971
 20
346.03676642288991
 30
0.0
  0
VERTEX
  5
8AA0
  8
0
 10
177.41542079695819
 20
346.07733113739039
 30
0.0
  0
VERTEX
  5
8AA1
  8
0
 10
177.35953071645369
 20
346.11903061261972
 30
0.0
  0
VERTEX
  5
8AA2
  8
0
 10
177.30444092761459
 20
346.16184052517713
 30
0.0
  0
VERTEX
  5
8AA3
  8
0
 10
177.2501870353467
 20
346.2057352596704
 30
0.0
  0
VERTEX
  5
8AA4
  8
0
 10
177.22338426579469
 20
346.22808111279397
 30
0.0
  0
VERTEX
  5
8AA5
  8
0
 10
177.19680312962279
 20
346.2506880550751
 30
0.0
  0
VERTEX
  5
8AA6
  8
0
 10
177.14431532138471
 20
346.29667684320327
 30
0.0
  0
VERTEX
  5
8AA7
  8
0
 10
177.09274525340379
 20
346.34368220704948
 30
0.0
  0
VERTEX
  5
8AA8
  8
0
 10
177.0421241188869
 20
346.3916745223197
 30
0.0
  0
VERTEX
  5
8AA9
  8
0
 10
176.99248235903721
 20
346.44062237688428
 30
0.0
  0
VERTEX
  5
8AAA
  8
0
 10
176.94384936896401
 20
346.49049277654569
 30
0.0
  0
VERTEX
  5
8AAB
  8
0
 10
176.9199200246903
 20
346.51576321332612
 30
0.0
  0
VERTEX
  5
8AAC
  8
0
 10
176.8962533449448
 20
346.54125125087478
 30
0.0
  0
VERTEX
  5
8AAD
  8
0
 10
176.8497211436156
 20
346.5928619699643
 30
0.0
  0
VERTEX
  5
8AAE
  8
0
 10
176.8042781528379
 20
346.64528787212532
 30
0.0
  0
VERTEX
  5
8AAF
  8
0
 10
176.75994817404441
 20
346.69849080268381
 30
0.0
  0
VERTEX
  5
8AB0
  8
0
 10
176.7167533159313
 20
346.75243166412582
 30
0.0
  0
VERTEX
  5
8AB1
  8
0
 10
176.67471389948241
 20
346.80707057789789
 30
0.0
  0
VERTEX
  5
8AB2
  8
0
 10
176.65413333215039
 20
346.83463915833778
 30
0.0
  0
VERTEX
  5
8AB3
  8
0
 10
176.633848457456
 20
346.86236694353249
 30
0.0
  0
VERTEX
  5
8AB4
  8
0
 10
176.59417416082351
 20
346.91827888402588
 30
0.0
  0
VERTEX
  5
8AB5
  8
0
 10
176.55570699301089
 20
346.97476291466739
 30
0.0
  0
VERTEX
  5
8AB6
  8
0
 10
176.51846159270511
 20
347.03177404253063
 30
0.0
  0
VERTEX
  5
8AB7
  8
0
 10
176.48245109628101
 20
347.08926589617471
 30
0.0
  0
VERTEX
  5
8AB8
  8
0
 10
176.4476869959783
 20
347.14719086423031
 30
0.0
  0
VERTEX
  5
8AB9
  8
0
 10
176.43077545470189
 20
347.17630058465051
 30
0.0
  0
VERTEX
  5
8ABA
  8
0
 10
176.41417901345449
 20
347.20550024276019
 30
0.0
  0
VERTEX
  5
8ABB
  8
0
 10
176.38193498835719
 20
347.26414439147408
 30
0.0
  0
VERTEX
  5
8ABC
  8
0
 10
176.35096078159859
 20
347.32307289909193
 30
0.0
  0
VERTEX
  5
8ABD
  8
0
 10
176.32126019306361
 20
347.38223475834081
 30
0.0
  0
VERTEX
  5
8ABE
  8
0
 10
176.29276101619459
 20
347.44173653134618
 30
0.0
  0
VERTEX
  5
8ABF
  8
0
 10
176.2652065498628
 20
347.50212580243732
 30
0.0
  0
VERTEX
  5
8AC0
  8
0
 10
176.2517874115392
 20
347.53266254714219
 30
0.0
  0
VERTEX
  5
8AC1
  8
0
 10
176.23861430627579
 20
347.56342087623432
 30
0.0
  0
VERTEX
  5
8AC2
  8
0
 10
176.21302730959081
 20
347.62558227063653
 30
0.0
  0
VERTEX
  5
8AC3
  8
0
 10
176.1884864097847
 20
347.68856913549251
 30
0.0
  0
VERTEX
  5
8AC4
  8
0
 10
176.17662039295081
 20
347.72035903136691
 30
0.0
  0
VERTEX
  5
8AC5
  8
0
 10
176.16503018528189
 20
347.75233946363562
 30
0.0
  0
VERTEX
  5
8AC6
  8
0
 10
176.14269486568119
 20
347.81685030990189
 30
0.0
  0
VERTEX
  5
8AC7
  8
0
 10
176.12151427443811
 20
347.88205801903422
 30
0.0
  0
VERTEX
  5
8AC8
  8
0
 10
176.11136690427131
 20
347.91490941899599
 30
0.0
  0
VERTEX
  5
8AC9
  8
0
 10
176.10151979163669
 20
347.94791846324767
 30
0.0
  0
VERTEX
  5
8ACA
  8
0
 10
176.08274033725269
 20
348.0143872900768
 30
0.0
  0
VERTEX
  5
8ACB
  8
0
 10
176.06520239075189
 20
348.08142012043561
 30
0.0
  0
VERTEX
  5
8ACC
  8
0
 10
176.0489301922689
 20
348.14897203296329
 30
0.0
  0
VERTEX
  5
8ACD
  8
0
 10
176.03394589708569
 20
348.21699693123981
 30
0.0
  0
VERTEX
  5
8ACE
  8
0
 10
176.0202695021562
 20
348.28544767011653
 30
0.0
  0
VERTEX
  5
8ACF
  8
0
 10
176.0139274063572
 20
348.3198177635785
 30
0.0
  0
VERTEX
  5
8AD0
  8
0
 10
176.00791876730861
 20
348.35427627296752
 30
0.0
  0
VERTEX
  5
8AD1
  8
0
 10
175.99690915675751
 20
348.42343415127232
 30
0.0
  0
VERTEX
  5
8AD2
  8
0
 10
175.98725380062021
 20
348.49287232719809
 30
0.0
  0
VERTEX
  5
8AD3
  8
0
 10
175.97896347633579
 20
348.5625416598408
 30
0.0
  0
VERTEX
  5
8AD4
  8
0
 10
175.97204661008621
 20
348.63239307574401
 30
0.0
  0
VERTEX
  5
8AD5
  8
0
 10
175.96650926457869
 20
348.70237829477662
 30
0.0
  0
VERTEX
  5
8AD6
  8
0
 10
175.96425892739529
 20
348.7374105710399
 30
0.0
  0
VERTEX
  5
8AD7
  8
0
 10
175.96235457360621
 20
348.77246336653491
 30
0.0
  0
VERTEX
  5
8AD8
  8
0
 10
175.95958485871409
 20
348.84260560902533
 30
0.0
  0
VERTEX
  5
8AD9
  8
0
 10
175.9582007587392
 20
348.91275510268781
 30
0.0
  0
VERTEX
  5
8ADA
  8
0
 10
175.9580278794738
 20
348.94781695913628
 30
0.0
  0
SEQEND
  5
8ADB
  8
0
  0
POLYLINE
  5
46F7
  8
0
 66
     1
 10
0.0
 20
0.0
 30
0.0
  0
VERTEX
  5
8ADC
  8
0
 10
175.9580278794738
 20
438.64093006291989
 30
0.0
  0
VERTEX
  5
8ADD
  8
0
 10
175.9582007587392
 20
438.6759919193683
 30
0.0
  0
VERTEX
  5
8ADE
  8
0
 10
175.95958485871409
 20
438.74614141303078
 30
0.0
  0
VERTEX
  5
8ADF
  8
0
 10
175.96235457360621
 20
438.8162836555212
 30
0.0
  0
VERTEX
  5
8AE0
  8
0
 10
175.9642589273956
 20
438.85133645101592
 30
0.0
  0
VERTEX
  5
8AE1
  8
0
 10
175.96650926457869
 20
438.88636872727932
 30
0.0
  0
VERTEX
  5
8AE2
  8
0
 10
175.97204661008621
 20
438.95635394631211
 30
0.0
  0
VERTEX
  5
8AE3
  8
0
 10
175.97896347633579
 20
439.02620536221559
 30
0.0
  0
VERTEX
  5
8AE4
  8
0
 10
175.98725380062021
 20
439.0958746948582
 30
0.0
  0
VERTEX
  5
8AE5
  8
0
 10
175.99690915675751
 20
439.16531287078362
 30
0.0
  0
VERTEX
  5
8AE6
  8
0
 10
176.00791876730861
 20
439.23447074908847
 30
0.0
  0
VERTEX
  5
8AE7
  8
0
 10
176.0139274063572
 20
439.2689292584779
 30
0.0
  0
VERTEX
  5
8AE8
  8
0
 10
176.0202695021562
 20
439.3032993519397
 30
0.0
  0
VERTEX
  5
8AE9
  8
0
 10
176.03394589708569
 20
439.37175009081608
 30
0.0
  0
VERTEX
  5
8AEA
  8
0
 10
176.0489301922689
 20
439.43977498909283
 30
0.0
  0
VERTEX
  5
8AEB
  8
0
 10
176.06520239075189
 20
439.50732690162067
 30
0.0
  0
VERTEX
  5
8AEC
  8
0
 10
176.08274033725269
 20
439.57435973197943
 30
0.0
  0
VERTEX
  5
8AED
  8
0
 10
176.10151979163669
 20
439.64082855880832
 30
0.0
  0
VERTEX
  5
8AEE
  8
0
 10
176.11136690427131
 20
439.67383760306041
 30
0.0
  0
VERTEX
  5
8AEF
  8
0
 10
176.12151427443811
 20
439.70668900302189
 30
0.0
  0
VERTEX
  5
8AF0
  8
0
 10
176.14269486568119
 20
439.77189671215422
 30
0.0
  0
VERTEX
  5
8AF1
  8
0
 10
176.16503018528189
 20
439.83640755842049
 30
0.0
  0
VERTEX
  5
8AF2
  8
0
 10
176.17662039295081
 20
439.86838799068897
 30
0.0
  0
VERTEX
  5
8AF3
  8
0
 10
176.1884864097847
 20
439.90017788656371
 30
0.0
  0
VERTEX
  5
8AF4
  8
0
 10
176.21302730959081
 20
439.96316475141981
 30
0.0
  0
VERTEX
  5
8AF5
  8
0
 10
176.23861430627579
 20
440.02532614582202
 30
0.0
  0
VERTEX
  5
8AF6
  8
0
 10
176.2517874115392
 20
440.05608447491392
 30
0.0
  0
VERTEX
  5
8AF7
  8
0
 10
176.2652065498628
 20
440.08662121961891
 30
0.0
  0
VERTEX
  5
8AF8
  8
0
 10
176.29276101619459
 20
440.14701049070987
 30
0.0
  0
VERTEX
  5
8AF9
  8
0
 10
176.32126019306361
 20
440.20651226371513
 30
0.0
  0
VERTEX
  5
8AFA
  8
0
 10
176.35096078159859
 20
440.26567412296453
 30
0.0
  0
VERTEX
  5
8AFB
  8
0
 10
176.38193498835739
 20
440.32460263058198
 30
0.0
  0
VERTEX
  5
8AFC
  8
0
 10
176.41417901345449
 20
440.38324677929592
 30
0.0
  0
VERTEX
  5
8AFD
  8
0
 10
176.43077545470189
 20
440.41244643740549
 30
0.0
  0
VERTEX
  5
8AFE
  8
0
 10
176.4476869959783
 20
440.4415561578258
 30
0.0
  0
VERTEX
  5
8AFF
  8
0
 10
176.48245109628101
 20
440.49948112588169
 30
0.0
  0
VERTEX
  5
8B00
  8
0
 10
176.51846159270511
 20
440.55697297952531
 30
0.0
  0
VERTEX
  5
8B01
  8
0
 10
176.55570699301089
 20
440.61398410738872
 30
0.0
  0
VERTEX
  5
8B02
  8
0
 10
176.59417416082351
 20
440.67046813803017
 30
0.0
  0
VERTEX
  5
8B03
  8
0
 10
176.633848457456
 20
440.72638007852362
 30
0.0
  0
VERTEX
  5
8B04
  8
0
 10
176.65413333215039
 20
440.75410786371827
 30
0.0
  0
VERTEX
  5
8B05
  8
0
 10
176.67471389948241
 20
440.78167644415828
 30
0.0
  0
VERTEX
  5
8B06
  8
0
 10
176.7167533159315
 20
440.8363153579304
 30
0.0
  0
VERTEX
  5
8B07
  8
0
 10
176.75994817404441
 20
440.89025621937259
 30
0.0
  0
VERTEX
  5
8B08
  8
0
 10
176.8042781528379
 20
440.94345914993079
 30
0.0
  0
VERTEX
  5
8B09
  8
0
 10
176.8497211436156
 20
440.99588505209209
 30
0.0
  0
VERTEX
  5
8B0A
  8
0
 10
176.8962533449448
 20
441.04749577118127
 30
0.0
  0
VERTEX
  5
8B0B
  8
0
 10
176.9199200246903
 20
441.07298380872999
 30
0.0
  0
VERTEX
  5
8B0C
  8
0
 10
176.94384936896401
 20
441.09825424551042
 30
0.0
  0
VERTEX
  5
8B0D
  8
0
 10
176.99248235903721
 20
441.14812464517178
 30
0.0
  0
VERTEX
  5
8B0E
  8
0
 10
177.0421241188869
 20
441.19707249973641
 30
0.0
  0
VERTEX
  5
8B0F
  8
0
 10
177.09274525340379
 20
441.24506481500657
 30
0.0
  0
VERTEX
  5
8B10
  8
0
 10
177.14431532138471
 20
441.29207017885261
 30
0.0
  0
VERTEX
  5
8B11
  8
0
 10
177.19680312962279
 20
441.33805896698101
 30
0.0
  0
VERTEX
  5
8B12
  8
0
 10
177.22338426579469
 20
441.36066590926208
 30
0.0
  0
VERTEX
  5
8B13
  8
0
 10
177.2501870353467
 20
441.38301176238582
 30
0.0
  0
VERTEX
  5
8B14
  8
0
 10
177.30444092761459
 20
441.42690649687898
 30
0.0
  0
VERTEX
  5
8B15
  8
0
 10
177.35953071645369
 20
441.4697164094365
 30
0.0
  0
VERTEX
  5
8B16
  8
0
 10
177.41542079695819
 20
441.51141588466601
 30
0.0
  0
VERTEX
  5
8B17
  8
0
 10
177.47207416880971
 20
441.55198059916631
 30
0.0
  0
VERTEX
  5
8B18
  8
0
 10
177.52945256518609
 20
441.59138765454469
 30
0.0
  0
VERTEX
  5
8B19
  8
0
 10
177.55840137672561
 20
441.61065032374069
 30
0.0
  0
VERTEX
  5
8B1A
  8
0
 10
177.58751659108501
 20
441.62961569732499
 30
0.0
  0
VERTEX
  5
8B1B
  8
0
 10
177.64622587117941
 20
441.66664502592857
 30
0.0
  0
VERTEX
  5
8B1C
  8
0
 10
177.70553920743961
 20
441.70245768483028
 30
0.0
  0
VERTEX
  5
8B1D
  8
0
 10
177.7354093383465
 20
441.7199026497625
 30
0.0
  0
VERTEX
  5
8B1E
  8
0
 10
177.76541474683111
 20
441.7370375459127
 30
0.0
  0
VERTEX
  5
8B1F
  8
0
 10
177.82581015718409
 20
441.7703703756971
 30
0.0
  0
VERTEX
  5
8B20
  8
0
 10
177.88668255936091
 20
441.80244375882421
 30
0.0
  0
VERTEX
  5
8B21
  8
0
 10
177.9172839006246
 20
441.81800467726271
 30
0.0
  0
VERTEX
  5
8B22
  8
0
 10
177.94798782932
 20
441.83324673080011
 30
0.0
  0
VERTEX
  5
8B23
  8
0
 10
178.00968042369729
 20
441.86276976115869
 30
0.0
  0
VERTEX
  5
8B24
  8
0
 10
178.071713521379
 20
441.8910049021739
 30
0.0
  0
VERTEX
  5
8B25
  8
0
 10
178.134039177429
 20
441.91794592341932
 30
0.0
  0
VERTEX
  5
8B26
  8
0
 10
178.19660848392999
 20
441.94358842957217
 30
0.0
  0
VERTEX
  5
8B27
  8
0
 10
178.259371737729
 20
441.96792996177749
 30
0.0
  0
VERTEX
  5
8B28
  8
0
 10
178.2908103880595
 20
441.97961264505432
 30
0.0
  0
VERTEX
  5
8B29
  8
0
 10
178.32227861528051
 20
441.99097008284258
 30
0.0
  0
VERTEX
  5
8B2A
  8
0
 10
178.38527835495731
 20
442.01271044647461
 30
0.0
  0
VERTEX
  5
8B2B
  8
0
 10
178.44831994740071
 20
442.03315485066111
 30
0.0
  0
VERTEX
  5
8B2C
  8
0
 10
178.5116489845613
 20
442.05239641415488
 30
0.0
  0
VERTEX
  5
8B2D
  8
0
 10
178.57569735058681
 20
442.0705575938992
 30
0.0
  0
VERTEX
  5
8B2E
  8
0
 10
178.6404315096274
 20
442.08760687164579
 30
0.0
  0
VERTEX
  5
8B2F
  8
0
 10
178.6730430195646
 20
442.09570460239598
 30
0.0
  0
VERTEX
  5
8B30
  8
0
 10
178.70581056695869
 20
442.10351266875762
 30
0.0
  0
VERTEX
  5
8B31
  8
0
 10
178.77179272130499
 20
442.11824538449679
 30
0.0
  0
VERTEX
  5
8B32
  8
0
 10
178.8383354560842
 20
442.1317774493823
 30
0.0
  0
VERTEX
  5
8B33
  8
0
 10
178.9053957341452
 20
442.14408336089821
 30
0.0
  0
VERTEX
  5
8B34
  8
0
 10
178.97293019648939
 20
442.15513970155831
 30
0.0
  0
VERTEX
  5
8B35
  8
0
 10
179.04089536534039
 20
442.16492513916739
 30
0.0
  0
VERTEX
  5
8B36
  8
0
 10
179.07502589642601
 20
442.1693351691934
 30
0.0
  0
VERTEX
  5
8B37
  8
0
 10
179.10924785178369
 20
442.17342040894528
 30
0.0
  0
VERTEX
  5
8B38
  8
0
 10
179.17794456734569
 20
442.18060827698719
 30
0.0
  0
VERTEX
  5
8B39
  8
0
 10
179.24694272938669
 20
442.18647346876571
 30
0.0
  0
VERTEX
  5
8B3A
  8
0
 10
179.31619909310959
 20
442.19100255939162
 30
0.0
  0
VERTEX
  5
8B3B
  8
0
 10
179.3856696669163
 20
442.19418397680931
 30
0.0
  0
VERTEX
  5
8B3C
  8
0
 10
179.45530988860651
 20
442.19600805115448
 30
0.0
  0
VERTEX
  5
8B3D
  8
0
 10
179.49017958233549
 20
442.19640859165838
 30
0.0
  0
VERTEX
  5
8B3E
  8
0
 10
179.5250748148396
 20
442.19646704864101
 30
0.0
  0
VERTEX
  5
8B3F
  8
0
 10
179.5949193099832
 20
442.19555518859579
 30
0.0
  0
VERTEX
  5
8B40
  8
0
 10
179.6647982346208
 20
442.1932686437741
 30
0.0
  0
VERTEX
  5
8B41
  8
0
 10
179.73466663396579
 20
442.18960552395998
 30
0.0
  0
VERTEX
  5
8B42
  8
0
 10
179.80447992637801
 20
442.18456584273201
 30
0.0
  0
VERTEX
  5
8B43
  8
0
 10
179.8741940921272
 20
442.17815146716208
 30
0.0
  0
VERTEX
  5
8B44
  8
0
 10
179.9090008417443
 20
442.17442979874937
 30
0.0
  0
VERTEX
  5
8B45
  8
0
 10
179.94377120171839
 20
442.17036539934873
 30
0.0
  0
VERTEX
  5
8B46
  8
0
 10
180.01318461076329
 20
442.16121044576551
 30
0.0
  0
VERTEX
  5
8B47
  8
0
 10
180.0823921703263
 20
442.1506924382511
 30
0.0
  0
VERTEX
  5
8B48
  8
0
 10
180.11690515060349
 20
442.14492467138598
 30
0.0
  0
VERTEX
  5
8B49
  8
0
 10
180.151350322501
 20
442.13881924153708
 30
0.0
  0
VERTEX
  5
8B4A
  8
0
 10
180.22001541695269
 20
442.12560065905342
 30
0.0
  0
VERTEX
  5
8B4B
  8
0
 10
180.28834390456041
 20
442.11104843604392
 30
0.0
  0
VERTEX
  5
8B4C
  8
0
 10
180.32236838624291
 20
442.10327640771732
 30
0.0
  0
VERTEX
  5
8B4D
  8
0
 10
180.35629252759509
 20
442.09517624609049
 30
0.0
  0
VERTEX
  5
8B4E
  8
0
 10
180.4238185066165
 20
442.07799966115232
 30
0.0
  0
VERTEX
  5
8B4F
  8
0
 10
180.49087972431201
 20
442.05953610509511
 30
0.0
  0
VERTEX
  5
8B50
  8
0
 10
180.5574349064855
 20
442.03980479055832
 30
0.0
  0
VERTEX
  5
8B51
  8
0
 10
180.6234438004289
 20
442.01882663889103
 30
0.0
  0
VERTEX
  5
8B52
  8
0
 10
180.688867271368
 20
441.99662421058622
 30
0.0
  0
VERTEX
  5
8B53
  8
0
 10
180.72134740787891
 20
441.98507143172128
 30
0.0
  0
VERTEX
  5
8B54
  8
0
 10
180.7536667110121
 20
441.9732218834647
 30
0.0
  0
VERTEX
  5
8B55
  8
0
 10
180.81780355160609
 20
441.9486460719146
 30
0.0
  0
VERTEX
  5
8B56
  8
0
 10
180.88123943227399
 20
441.92292524601231
 30
0.0
  0
VERTEX
  5
8B57
  8
0
 10
180.94393641238821
 20
441.89608991595389
 30
0.0
  0
VERTEX
  5
8B58
  8
0
 10
181.0058571768086
 20
441.86817259924061
 30
0.0
  0
VERTEX
  5
8B59
  8
0
 10
181.06696523318351
 20
441.8392077709691
 30
0.0
  0
VERTEX
  5
8B5A
  8
0
 10
181.09720336379721
 20
441.82434383273551
 30
0.0
  0
VERTEX
  5
8B5B
  8
0
 10
181.1272251015975
 20
441.80923179737567
 30
0.0
  0
VERTEX
  5
8B5C
  8
0
 10
181.1866024969672
 20
441.77828285261933
 30
0.0
  0
VERTEX
  5
8B5D
  8
0
 10
181.2450645046419
 20
441.74640081857262
 30
0.0
  0
VERTEX
  5
8B5E
  8
0
 10
181.2739423687849
 20
441.7301227945228
 30
0.0
  0
SEQEND
  5
8B5F
  8
0
  0
ARC
  5
46F8
  8
0
 10
153.95802787947369
 20
393.79437351102808
 30
0.0
 40
55.172413793103452
 50
299.67640732204939
 51
60.323592677950487
  0
LINE
  5
4701
  8
1
 10
153.95802787947369
 20
301.32452720287512
 30
0.0
 11
153.95802787947369
 21
486.26421981918241
 31
0.0
  0
LINE
  5
4702
  8
1
 10
246.4278741876274
 20
393.79437351102808
 30
0.0
 11
61.488181571320183
 21
393.79437351102808
 31
0.0
  0
LINE
  5
472D
  8
0
 10
481.1472523237548
 20
380.79437351102808
 30
0.0
 11
481.34725232375507
 21
380.79437351102808
 31
0.0
  0
LINE
  5
472E
  8
0
 10
481.34725232375507
 20
406.79437351102803
 30
0.0
 11
481.1472523237548
 21
406.79437351102803
 31
0.0
  0
ARC
  5
472F
  8
0
 10
480.6472523237548
 20
413.29437351102808
 30
0.0
 40
0.5000000000000017
 50
0.0
 51
90.0
  0
ARC
  5
4730
  8
0
 10
480.6472523237548
 20
374.29437351102808
 30
0.0
 40
0.5
 50
270.0
 51
0.0
  0
LINE
  5
4731
  8
0
 10
477.84725232375507
 20
373.79437351102808
 30
0.0
 11
480.6472523237548
 21
373.79437351102808
 31
0.0
  0
LINE
  5
4732
  8
0
 10
480.6472523237548
 20
413.79437351102808
 30
0.0
 11
477.84725232375507
 21
413.79437351102808
 31
0.0
  0
ARC
  5
4733
  8
0
 10
447.01391899042159
 20
465.461040177695
 30
0.0
 40
8.3333333333333002
 50
0.0
 51
90.0
  0
ARC
  5
4734
  8
0
 10
447.01391899042159
 20
322.12770684436163
 30
0.0
 40
8.3333333333333002
 50
270.0
 51
0.0
  0
LINE
  5
4735
  8
0
 10
441.9718980967732
 20
313.79437351102808
 30
0.0
 11
447.01391899042159
 21
313.79437351102808
 31
0.0
  0
LINE
  5
4736
  8
0
 10
447.01391899042159
 20
473.79437351102803
 30
0.0
 11
441.9718980967732
 21
473.79437351102803
 31
0.0
  0
ARC
  5
4737
  8
0
 10
441.9718980967732
 20
448.79437351102757
 30
0.0
 40
25.000000000000341
 50
90.0
 51
104.9999999999944
  0
ARC
  5
4738
  8
0
 10
441.9718980967732
 20
338.79437351102848
 30
0.0
 40
25.000000000000501
 50
255.00000000000551
 51
270.0
  0
LINE
  5
4739
  8
0
 10
432.20020471099861
 20
315.53078635217901
 30
0.0
 11
435.50142196921018
 21
314.64622785380158
 31
0.0
  0
LINE
  5
473A
  8
0
 10
435.50142196921018
 20
472.94251916825488
 30
0.0
 11
432.20020471099861
 21
472.0579606698771
 31
0.0
  0
ARC
  5
473B
  8
0
 10
432.84725232375507
 20
469.64314610415482
 30
0.0
 40
2.49999999999998
 50
104.9999999999944
 51
180.0
  0
ARC
  5
473C
  8
0
 10
432.84725232375507
 20
317.9456009179018
 30
0.0
 40
2.5000000000000071
 50
180.0
 51
255.00000000000551
  0
LINE
  5
4743
  8
0
 10
455.34725232375507
 20
338.83618952058657
 30
0.0
 11
477.84725232375507
 21
373.79437351102808
 31
0.0
  0
LINE
  5
4744
  8
0
 10
477.84725232375507
 20
413.79437351102808
 30
0.0
 11
455.34725232375507
 21
448.75255750146971
 31
0.0
  0
LINE
  5
4755
  8
0
 10
481.34725232375507
 20
406.79437351102803
 30
0.0
 11
481.34725232375507
 21
380.79437351102808
 31
0.0
  0
LINE
  5
4756
  8
0
 10
481.1472523237548
 20
413.29437351102808
 30
0.0
 11
481.1472523237548
 21
374.29437351102808
 31
0.0
  0
LINE
  5
4758
  8
0
 10
455.34725232375507
 20
465.461040177695
 30
0.0
 11
455.34725232375507
 21
322.12770684436163
 31
0.0
  0
LINE
  5
475D
  8
0
 10
430.34725232375507
 20
469.64314610415482
 30
0.0
 11
430.34725232375507
 21
317.9456009179018
 31
0.0
  0
LINE
  5
4763
  8
0
 10
477.84725232375507
 20
413.79437351102808
 30
0.0
 11
477.84725232375507
 21
373.79437351102808
 31
0.0
  0
POLYLINE
  5
477B
  8
0
 66
     1
 10
0.0
 20
0.0
 30
0.0
  0
VERTEX
  5
8B60
  8
0
 10
455.34725232375507
 20
444.28708213296449
 30
0.0
  0
VERTEX
  5
8B61
  8
0
 10
460.64828194288418
 20
433.42947898886092
 30
0.0
  0
VERTEX
  5
8B62
  8
0
 10
464.54457698389427
 20
425.0913821919267
 30
0.0
  0
VERTEX
  5
8B63
  8
0
 10
467.33864463631193
 20
418.63436701189949
 30
0.0
  0
VERTEX
  5
8B64
  8
0
 10
468.43957123696049
 20
415.89284745137832
 30
0.0
  0
VERTEX
  5
8B65
  8
0
 10
469.38423873214867
 20
413.39787229933341
 30
0.0
  0
VERTEX
  5
8B66
  8
0
 10
470.88968769647579
 20
408.98159954860108
 30
0.0
  0
VERTEX
  5
8B67
  8
0
 10
471.9835854767843
 20
405.12514971683549
 30
0.0
  0
VERTEX
  5
8B68
  8
0
 10
472.74721913453362
 20
401.64768836021278
 30
0.0
  0
VERTEX
  5
8B69
  8
0
 10
473.06139247955019
 20
399.73951663542869
 30
0.0
  0
VERTEX
  5
8B6A
  8
0
 10
473.13475716049737
 20
399.20640087612321
 30
0.0
  0
VERTEX
  5
8B6B
  8
0
 10
473.20107459576133
 20
398.67776400402738
 30
0.0
  0
VERTEX
  5
8B6C
  8
0
 10
473.23162558342528
 20
398.41498006609987
 30
0.0
  0
VERTEX
  5
8B6D
  8
0
 10
473.26045519049961
 20
398.153143198686
 30
0.0
  0
VERTEX
  5
8B6E
  8
0
 10
473.31299704996809
 20
397.63208683003779
 30
0.0
  0
VERTEX
  5
8B6F
  8
0
 10
473.35878639070961
 20
397.11415311330683
 30
0.0
  0
VERTEX
  5
8B70
  8
0
 10
473.39789789843229
 20
396.59890882175438
 30
0.0
  0
VERTEX
  5
8B71
  8
0
 10
473.4303950353692
 20
396.08592804920278
 30
0.0
  0
VERTEX
  5
8B72
  8
0
 10
473.45633029950972
 20
395.574791014749
 30
0.0
  0
VERTEX
  5
8B73
  8
0
 10
473.46685069022749
 20
395.31978410651362
 30
0.0
  0
VERTEX
  5
8B74
  8
0
 10
473.47574543769269
 20
395.06508290249411
 30
0.0
  0
VERTEX
  5
8B75
  8
0
 10
473.48867161418451
 20
394.55639272947531
 30
0.0
  0
VERTEX
  5
8B76
  8
0
 10
473.49512953601419
 20
394.04831223524951
 30
0.0
  0
VERTEX
  5
8B77
  8
0
 10
473.49593653426882
 20
393.7943735110249
 30
0.0
  0
VERTEX
  5
8B78
  8
0
 10
473.49512953601419
 20
393.5404347868008
 30
0.0
  0
VERTEX
  5
8B79
  8
0
 10
473.48867161418411
 20
393.03235429257501
 30
0.0
  0
VERTEX
  5
8B7A
  8
0
 10
473.47574543769173
 20
392.52366411955569
 30
0.0
  0
VERTEX
  5
8B7B
  8
0
 10
473.46685069022618
 20
392.26896291553669
 30
0.0
  0
VERTEX
  5
8B7C
  8
0
 10
473.45633029950829
 20
392.01395600730132
 30
0.0
  0
VERTEX
  5
8B7D
  8
0
 10
473.43039503536733
 20
391.50281897284742
 30
0.0
  0
VERTEX
  5
8B7E
  8
0
 10
473.39789789843047
 20
390.98983820029582
 30
0.0
  0
VERTEX
  5
8B7F
  8
0
 10
473.35878639070728
 20
390.47459390874309
 30
0.0
  0
VERTEX
  5
8B80
  8
0
 10
473.3129970499653
 20
389.95666019201201
 30
0.0
  0
VERTEX
  5
8B81
  8
0
 10
473.26045519049688
 20
389.43560382336381
 30
0.0
  0
VERTEX
  5
8B82
  8
0
 10
473.2316255834221
 20
389.17376695594987
 30
0.0
  0
VERTEX
  5
8B83
  8
0
 10
473.20107459575769
 20
388.91098301802242
 30
0.0
  0
VERTEX
  5
8B84
  8
0
 10
473.13475716049379
 20
388.38234614592608
 30
0.0
  0
VERTEX
  5
8B85
  8
0
 10
473.0613924795461
 20
387.84923038662112
 30
0.0
  0
VERTEX
  5
8B86
  8
0
 10
472.74721913452862
 20
385.94105866183611
 30
0.0
  0
VERTEX
  5
8B87
  8
0
 10
471.98358547677708
 20
382.46359730521192
 30
0.0
  0
VERTEX
  5
8B88
  8
0
 10
470.88968769646681
 20
378.60714747344502
 30
0.0
  0
VERTEX
  5
8B89
  8
0
 10
469.38423873213878
 20
374.19087472271133
 30
0.0
  0
VERTEX
  5
8B8A
  8
0
 10
468.43957123694997
 20
371.69589957066597
 30
0.0
  0
VERTEX
  5
8B8B
  8
0
 10
467.33864463630152
 20
368.95438001014469
 30
0.0
  0
VERTEX
  5
8B8C
  8
0
 10
464.54457698388478
 20
362.4973648301185
 30
0.0
  0
VERTEX
  5
8B8D
  8
0
 10
460.64828194287969
 20
354.15926803318928
 30
0.0
  0
VERTEX
  5
8B8E
  8
0
 10
455.34725232375507
 20
343.30166488908799
 30
0.0
  0
SEQEND
  5
8B8F
  8
0
  0
LINE
  5
4798
  8
1
 10
417.87740601560063
 20
393.79437351102831
 30
0.0
 11
493.8170986319094
 21
393.79437351102808
 31
0.0
  0
LINE
  5
4AFE
  8
2
 10
146.9580278794738
 20
126.4381168613921
 30
0.0
 11
146.958027879474
 21
99.438116861392132
 31
0.0
  0
LINE
  5
4AFF
  8
2
 10
160.95802787947369
 20
99.438116861392132
 30
0.0
 11
160.95802787947369
 21
126.4381168613921
 31
0.0
  0
LINE
  5
4B02
  8
0
 10
140.9580278794738
 20
99.638116861392177
 30
0.0
 11
140.9580278794738
 21
99.438116861392132
 31
0.0
  0
LINE
  5
4B03
  8
0
 10
166.9580278794738
 20
99.438116861392132
 30
0.0
 11
166.9580278794738
 21
99.638116861392177
 31
0.0
  0
ARC
  5
4B04
  8
0
 10
173.45802787947369
 20
100.13811686139221
 30
0.0
 40
0.5000000000000017
 50
270.0
 51
0.0
  0
ARC
  5
4B05
  8
0
 10
134.4580278794738
 20
100.13811686139221
 30
0.0
 40
0.5
 50
180.0
 51
270.0
  0
LINE
  5
4B06
  8
0
 10
133.95802787947369
 20
102.9381168613921
 30
0.0
 11
133.95802787947369
 21
100.13811686139221
 31
0.0
  0
LINE
  5
4B07
  8
0
 10
173.9580278794738
 20
100.13811686139221
 30
0.0
 11
173.9580278794738
 21
102.9381168613921
 31
0.0
  0
ARC
  5
4B08
  8
0
 10
225.62469454614029
 20
133.77145019472559
 30
0.0
 40
8.3333333333333073
 50
270.0
 51
0.0
  0
ARC
  5
4B09
  8
0
 10
82.291361212807033
 20
133.77145019472559
 30
0.0
 40
8.3333333333332842
 50
180.0
 51
270.0
  0
LINE
  5
4B0A
  8
0
 10
73.958027879473775
 20
138.813471088374
 30
0.0
 11
73.958027879473775
 21
133.77145019472559
 31
0.0
  0
LINE
  5
4B0B
  8
0
 10
233.9580278794738
 20
133.77145019472559
 30
0.0
 11
233.9580278794738
 21
138.813471088374
 31
0.0
  0
ARC
  5
4B0C
  8
0
 10
208.95802787947329
 20
138.813471088374
 30
0.0
 40
25.000000000000291
 50
0.0
 51
14.99999999999446
  0
ARC
  5
4B0D
  8
0
 10
98.958027879474244
 20
138.8134710883738
 30
0.0
 40
25.000000000000501
 50
165.00000000000551
 51
180.0
  0
LINE
  5
4B0E
  8
0
 10
75.69444072062447
 20
148.5851644741484
 30
0.0
 11
74.809882222247083
 21
145.28394721593699
 31
0.0
  0
LINE
  5
4B0F
  8
0
 10
233.10617353670071
 20
145.28394721593699
 30
0.0
 11
232.22161503832291
 21
148.5851644741484
 31
0.0
  0
ARC
  5
4B10
  8
0
 10
229.8068004726006
 20
147.9381168613921
 30
0.0
 40
2.500000000000012
 50
14.99999999999446
 51
90.0
  0
ARC
  5
4B11
  8
0
 10
78.109255286347206
 20
147.9381168613921
 30
0.0
 40
2.5
 50
90.0
 51
165.00000000000551
  0
ARC
  5
4B21
  8
0
 10
210.20184147550339
 20
120.4381168613919
 30
0.0
 40
5.0000000000003508
 50
90.0
 51
102.37328761382081
  0
ARC
  5
4B22
  8
0
 10
97.714214283444335
 20
120.43811686139161
 30
0.0
 40
5.0000000000005187
 50
77.626712386179122
 51
90.0
  0
LINE
  5
4B2E
  8
2
 10
169.45802787947349
 20
126.4381168613921
 30
0.0
 11
138.4580278794738
 21
126.4381168613921
 31
0.0
  0
LINE
  5
4B30
  8
0
 10
166.9580278794738
 20
99.438116861392132
 30
0.0
 11
140.9580278794738
 21
99.438116861392132
 31
0.0
  0
LINE
  5
4B31
  8
0
 10
173.45802787947369
 20
99.638116861392177
 30
0.0
 11
134.4580278794738
 21
99.638116861392177
 31
0.0
  0
LINE
  5
4B33
  8
0
 10
225.62469454614029
 20
125.4381168613921
 30
0.0
 11
82.291361212807033
 21
125.4381168613921
 31
0.0
  0
LINE
  5
4B38
  8
0
 10
229.8068004726006
 20
150.4381168613921
 30
0.0
 11
78.109255286347206
 21
150.4381168613921
 31
0.0
  0
LINE
  5
4B3E
  8
0
 10
173.9580278794738
 20
102.9381168613921
 30
0.0
 11
133.95802787947369
 21
102.9381168613921
 31
0.0
  0
LINE
  5
4B4F
  8
0
 10
180.2739423687849
 20
125.32197829086491
 30
0.0
 11
209.13044167257701
 21
125.32197829086491
 31
0.0
  0
POLYLINE
  5
4B50
  8
0
 66
     1
 10
0.0
 20
0.0
 30
0.0
  0
VERTEX
  5
8B90
  8
0
 10
174.9580278794738
 20
122.6814845770681
 30
0.0
  0
VERTEX
  5
8B91
  8
0
 10
174.9599777309738
 20
122.74017717182559
 30
0.0
  0
VERTEX
  5
8B92
  8
0
 10
174.97549115580591
 20
122.8598283355544
 30
0.0
  0
VERTEX
  5
8B93
  8
0
 10
175.00620238413151
 20
122.9817923469171
 30
0.0
  0
VERTEX
  5
8B94
  8
0
 10
175.0270970882809
 20
123.0433475357878
 30
0.0
  0
VERTEX
  5
8B95
  8
0
 10
175.05156977399309
 20
123.1051216982424
 30
0.0
  0
VERTEX
  5
8B96
  8
0
 10
175.110819501225
 20
123.22883489995171
 30
0.0
  0
VERTEX
  5
8B97
  8
0
 10
175.18295060093689
 20
123.35194451225409
 30
0.0
  0
VERTEX
  5
8B98
  8
0
 10
175.2667207518206
 20
123.473442009613
 30
0.0
  0
VERTEX
  5
8B99
  8
0
 10
175.361326863702
 20
123.5931258063996
 30
0.0
  0
VERTEX
  5
8B9A
  8
0
 10
175.4695126101642
 20
123.71448936886971
 30
0.0
  0
VERTEX
  5
8B9B
  8
0
 10
175.5288606040001
 20
123.7757650512809
 30
0.0
  0
VERTEX
  5
8B9C
  8
0
 10
175.59167151561559
 20
123.83728232502619
 30
0.0
  0
VERTEX
  5
8B9D
  8
0
 10
175.7274909309813
 20
123.9605891433654
 30
0.0
  0
VERTEX
  5
8B9E
  8
0
 10
175.8764830282862
 20
124.08352645106091
 30
0.0
  0
VERTEX
  5
8B9F
  8
0
 10
176.037974669015
 20
124.2052277527942
 30
0.0
  0
VERTEX
  5
8BA0
  8
0
 10
176.21112213299079
 20
124.32485454651589
 30
0.0
  0
VERTEX
  5
8BA1
  8
0
 10
176.39503755804591
 20
124.44167367034051
 30
0.0
  0
VERTEX
  5
8BA2
  8
0
 10
176.49070509591729
 20
124.49880061735131
 30
0.0
  0
VERTEX
  5
8BA3
  8
0
 10
176.588641343191
 20
124.554947554892
 30
0.0
  0
VERTEX
  5
8BA4
  8
0
 10
176.79065495500251
 20
124.66394582107939
 30
0.0
  0
VERTEX
  5
8BA5
  8
0
 10
176.99968372982761
 20
124.76800041714939
 30
0.0
  0
VERTEX
  5
8BA6
  8
0
 10
177.10635506150041
 20
124.8179790949165
 30
0.0
  0
VERTEX
  5
8BA7
  8
0
 10
177.18588414304691
 20
124.8533195021883
 30
0.0
  0
VERTEX
  5
8BA8
  8
0
 10
177.34851631512311
 20
124.91881815479439
 30
0.0
  0
VERTEX
  5
8BA9
  8
0
 10
177.5156613164859
 20
124.977765085464
 30
0.0
  0
VERTEX
  5
8BAA
  8
0
 10
177.60083076309411
 20
125.00491373449439
 30
0.0
  0
VERTEX
  5
8BAB
  8
0
 10
177.6870139017733
 20
125.0305817409247
 30
0.0
  0
VERTEX
  5
8BAC
  8
0
 10
177.86226900515251
 20
125.0776794632276
 30
0.0
  0
VERTEX
  5
8BAD
  8
0
 10
178.0411239562381
 20
125.1194577615484
 30
0.0
  0
VERTEX
  5
8BAE
  8
0
 10
178.2226016718532
 20
125.1561747360125
 30
0.0
  0
VERTEX
  5
8BAF
  8
0
 10
178.4053319526779
 20
125.1880788933107
 30
0.0
  0
VERTEX
  5
8BB0
  8
0
 10
178.58886241364419
 20
125.2156145127538
 30
0.0
  0
VERTEX
  5
8BB1
  8
0
 10
178.68079051491571
 20
125.2278739826364
 30
0.0
  0
VERTEX
  5
8BB2
  8
0
 10
178.77275472415971
 20
125.2391926630083
 30
0.0
  0
VERTEX
  5
8BB3
  8
0
 10
178.95657592820589
 20
125.25918804263721
 30
0.0
  0
VERTEX
  5
8BB4
  8
0
 10
179.13989785491501
 20
125.27593738565621
 30
0.0
  0
VERTEX
  5
8BB5
  8
0
 10
179.32217444524119
 20
125.2897292821302
 30
0.0
  0
VERTEX
  5
8BB6
  8
0
 10
179.5023566802715
 20
125.3007894070746
 30
0.0
  0
VERTEX
  5
8BB7
  8
0
 10
179.67992866194481
 20
125.3093525586865
 30
0.0
  0
VERTEX
  5
8BB8
  8
0
 10
179.7676033518573
 20
125.3127598284501
 30
0.0
  0
VERTEX
  5
8BB9
  8
0
 10
179.854467198164
 20
125.3156110488797
 30
0.0
  0
VERTEX
  5
8BBA
  8
0
 10
180.02545310843561
 20
125.3197048889761
 30
0.0
  0
VERTEX
  5
8BBB
  8
0
 10
180.19224526182049
 20
125.32172669228579
 30
0.0
  0
VERTEX
  5
8BBC
  8
0
 10
180.2739423687849
 20
125.32197829086491
 30
0.0
  0
SEQEND
  5
8BBD
  8
0
  0
LINE
  5
4B76
  8
1
 10
153.95802787947369
 20
166.19697924047099
 30
0.0
 11
153.95802787947369
 21
86.968270553237744
 31
0.0
  0
LINE
  5
69AD
  8
2
 10
169.45802787947369
 20
129.4381168613921
 30
0.0
 11
138.4580278794738
 21
129.4381168613921
 31
0.0
  0
LINE
  5
69CB
  8
2
 10
138.4580278794738
 20
129.4381168613921
 30
0.0
 11
138.458027879474
 21
126.4381168613921
 31
0.0
  0
LINE
  5
69CD
  8
2
 10
140.9580278794738
 20
99.638116861392177
 30
0.0
 11
140.95802787947349
 21
124.43407367005599
 31
0.0
  0
LINE
  5
69CF
  8
2
 10
141.9580278794738
 20
126.4381168613921
 30
0.0
 11
141.9580278794738
 21
124.43426009962771
 31
0.0
  0
LINE
  5
69D0
  8
2
 10
141.95802787947349
 20
124.43426009962771
 30
0.0
 11
140.95802787947349
 21
124.43407367005599
 31
0.0
  0
LINE
  5
69D1
  8
2
 10
165.958027879474
 20
124.43426009962771
 30
0.0
 11
166.958027879474
 21
124.43407367005599
 31
0.0
  0
LINE
  5
69D2
  8
2
 10
169.45802787947369
 20
129.4381168613921
 30
0.0
 11
169.45802787947349
 21
126.4381168613921
 31
0.0
  0
LINE
  5
69D3
  8
2
 10
166.9580278794738
 20
99.638116861392177
 30
0.0
 11
166.958027879474
 21
124.43407367005599
 31
0.0
  0
LINE
  5
69D4
  8
2
 10
165.9580278794738
 20
126.4381168613921
 30
0.0
 11
165.9580278794738
 21
124.43426009962771
 31
0.0
  0
LINE
  5
6A54
  8
0
 10
132.95802787947369
 20
102.9381168613921
 30
0.0
 11
174.9580278794738
 21
102.9381168613921
 31
0.0
  0
LINE
  5
6A56
  8
0
 10
174.9580278794738
 20
122.6814845770681
 30
0.0
 11
174.9580278794738
 21
102.9381168613921
 31
0.0
  0
LINE
  5
6A58
  8
0
 10
127.64211339016261
 20
125.32197829086491
 30
0.0
 11
98.785614086370515
 21
125.32197829086491
 31
0.0
  0
POLYLINE
  5
6A59
  8
0
 66
     1
 10
0.0
 20
0.0
 30
0.0
  0
VERTEX
  5
8BBE
  8
0
 10
132.95802787947369
 20
122.6814845770681
 30
0.0
  0
VERTEX
  5
8BBF
  8
0
 10
132.95607802797369
 20
122.74017717182559
 30
0.0
  0
VERTEX
  5
8BC0
  8
0
 10
132.94056460314161
 20
122.8598283355544
 30
0.0
  0
VERTEX
  5
8BC1
  8
0
 10
132.90985337481601
 20
122.9817923469171
 30
0.0
  0
VERTEX
  5
8BC2
  8
0
 10
132.8889586706666
 20
123.0433475357878
 30
0.0
  0
VERTEX
  5
8BC3
  8
0
 10
132.8644859849544
 20
123.1051216982424
 30
0.0
  0
VERTEX
  5
8BC4
  8
0
 10
132.8052362577225
 20
123.22883489995171
 30
0.0
  0
VERTEX
  5
8BC5
  8
0
 10
132.7331051580106
 20
123.35194451225409
 30
0.0
  0
VERTEX
  5
8BC6
  8
0
 10
132.64933500712689
 20
123.473442009613
 30
0.0
  0
VERTEX
  5
8BC7
  8
0
 10
132.55472889524549
 20
123.5931258063996
 30
0.0
  0
VERTEX
  5
8BC8
  8
0
 10
132.44654314878329
 20
123.71448936886971
 30
0.0
  0
VERTEX
  5
8BC9
  8
0
 10
132.38719515494739
 20
123.7757650512809
 30
0.0
  0
VERTEX
  5
8BCA
  8
0
 10
132.32438424333191
 20
123.83728232502619
 30
0.0
  0
VERTEX
  5
8BCB
  8
0
 10
132.1885648279663
 20
123.9605891433654
 30
0.0
  0
VERTEX
  5
8BCC
  8
0
 10
132.03957273066129
 20
124.08352645106091
 30
0.0
  0
VERTEX
  5
8BCD
  8
0
 10
131.87808108993249
 20
124.2052277527942
 30
0.0
  0
VERTEX
  5
8BCE
  8
0
 10
131.7049336259567
 20
124.32485454651589
 30
0.0
  0
VERTEX
  5
8BCF
  8
0
 10
131.52101820090161
 20
124.44167367034051
 30
0.0
  0
VERTEX
  5
8BD0
  8
0
 10
131.4253506630302
 20
124.49880061735131
 30
0.0
  0
VERTEX
  5
8BD1
  8
0
 10
131.32741441575649
 20
124.554947554892
 30
0.0
  0
VERTEX
  5
8BD2
  8
0
 10
131.12540080394501
 20
124.66394582107939
 30
0.0
  0
VERTEX
  5
8BD3
  8
0
 10
130.9163720291198
 20
124.76800041714939
 30
0.0
  0
VERTEX
  5
8BD4
  8
0
 10
130.80970069744711
 20
124.8179790949165
 30
0.0
  0
VERTEX
  5
8BD5
  8
0
 10
130.73017161590059
 20
124.8533195021883
 30
0.0
  0
VERTEX
  5
8BD6
  8
0
 10
130.56753944382439
 20
124.91881815479439
 30
0.0
  0
VERTEX
  5
8BD7
  8
0
 10
130.40039444246159
 20
124.977765085464
 30
0.0
  0
VERTEX
  5
8BD8
  8
0
 10
130.31522499585341
 20
125.00491373449439
 30
0.0
  0
VERTEX
  5
8BD9
  8
0
 10
130.2290418571742
 20
125.0305817409247
 30
0.0
  0
VERTEX
  5
8BDA
  8
0
 10
130.05378675379501
 20
125.0776794632276
 30
0.0
  0
VERTEX
  5
8BDB
  8
0
 10
129.8749318027094
 20
125.1194577615484
 30
0.0
  0
VERTEX
  5
8BDC
  8
0
 10
129.6934540870943
 20
125.1561747360125
 30
0.0
  0
VERTEX
  5
8BDD
  8
0
 10
129.5107238062696
 20
125.1880788933107
 30
0.0
  0
VERTEX
  5
8BDE
  8
0
 10
129.32719334530341
 20
125.2156145127538
 30
0.0
  0
VERTEX
  5
8BDF
  8
0
 10
129.23526524403169
 20
125.2278739826364
 30
0.0
  0
VERTEX
  5
8BE0
  8
0
 10
129.14330103478781
 20
125.2391926630083
 30
0.0
  0
VERTEX
  5
8BE1
  8
0
 10
128.9594798307416
 20
125.25918804263721
 30
0.0
  0
VERTEX
  5
8BE2
  8
0
 10
128.77615790403249
 20
125.27593738565621
 30
0.0
  0
VERTEX
  5
8BE3
  8
0
 10
128.59388131370631
 20
125.2897292821302
 30
0.0
  0
VERTEX
  5
8BE4
  8
0
 10
128.41369907867599
 20
125.3007894070746
 30
0.0
  0
VERTEX
  5
8BE5
  8
0
 10
128.23612709700271
 20
125.3093525586865
 30
0.0
  0
VERTEX
  5
8BE6
  8
0
 10
128.14845240709019
 20
125.3127598284501
 30
0.0
  0
VERTEX
  5
8BE7
  8
0
 10
128.06158856078349
 20
125.3156110488797
 30
0.0
  0
VERTEX
  5
8BE8
  8
0
 10
127.89060265051189
 20
125.3197048889761
 30
0.0
  0
VERTEX
  5
8BE9
  8
0
 10
127.723810497127
 20
125.32172669228579
 30
0.0
  0
VERTEX
  5
8BEA
  8
0
 10
127.64211339016261
 20
125.32197829086491
 30
0.0
  0
SEQEND
  5
8BEB
  8
0
  0
LINE
  5
6A5A
  8
0
 10
132.95802787947369
 20
122.6814845770681
 30
0.0
 11
132.95802787947369
 21
102.9381168613921
 31
0.0
  0
LINE
  5
6C25
  8
2
 10
454.34725232375598
 20
386.79437351102808
 30
0.0
 11
481.34725232375598
 21
386.79437351102843
 31
0.0
  0
LINE
  5
6C26
  8
2
 10
481.34725232375598
 20
400.79437351102808
 30
0.0
 11
454.34725232375598
 21
400.79437351102808
 31
0.0
  0
LINE
  5
6C27
  8
2
 10
454.34725232375598
 20
409.29437351102791
 30
0.0
 11
454.34725232375598
 21
378.29437351102808
 31
0.0
  0
LINE
  5
6C28
  8
2
 10
456.35110908552042
 20
381.79437351102791
 30
0.0
 11
456.35129551509198
 21
380.79437351102791
 31
0.0
  0
LINE
  5
6C29
  8
2
 10
451.34725232375598
 20
409.29437351102808
 30
0.0
 11
451.34725232375598
 21
378.29437351102808
 31
0.0
  0
LINE
  5
6C2A
  8
2
 10
451.34725232375598
 20
378.29437351102808
 30
0.0
 11
454.34725232375598
 21
378.29437351102843
 31
0.0
  0
LINE
  5
6C2B
  8
2
 10
481.14725232375599
 20
380.79437351102808
 30
0.0
 11
456.35129551509198
 21
380.79437351102791
 31
0.0
  0
LINE
  5
6C2C
  8
2
 10
454.34725232375598
 20
381.79437351102808
 30
0.0
 11
456.35110908552042
 21
381.79437351102808
 31
0.0
  0
LINE
  5
6C2D
  8
2
 10
456.35110908552042
 20
405.79437351102831
 30
0.0
 11
456.35129551509232
 21
406.79437351102831
 31
0.0
  0
LINE
  5
6C2E
  8
2
 10
451.34725232375598
 20
409.29437351102808
 30
0.0
 11
454.34725232375598
 21
409.29437351102791
 31
0.0
  0
LINE
  5
6C2F
  8
2
 10
481.14725232375599
 20
406.79437351102808
 30
0.0
 11
456.35129551509232
 21
406.79437351102831
 31
0.0
  0
LINE
  5
6C30
  8
2
 10
454.34725232375598
 20
405.79437351102808
 30
0.0
 11
456.35110908552042
 21
405.79437351102808
 31
0.0
  0
LINE
  5
6C78
  8
0
 10
168.958027879474
 20
125.4381168613921
 30
0.0
 11
168.95802787947369
 21
102.9381168613921
 31
0.0
  0
LINE
  5
6C79
  8
0
 10
138.95802787947349
 20
125.4381168613921
 30
0.0
 11
138.95802787947369
 21
102.9381168613921
 31
0.0
  0
CIRCLE
  5
8848
  8
0
 10
153.95802787947369
 20
393.79437351102882
 30
0.0
 40
60.24645761117398
  0
CIRCLE
  5
8849
  8
0
 10
153.95802787947369
 20
393.79437351102808
 30
0.0
 40
75.848772593125204
  0
LINE
  5
888D
  8
0
 10
175.9580278794738
 20
438.64093006291989
 30
0.0
 11
175.9580278794738
 21
348.94781695913628
 31
0.0
  0
LINE
  5
888E
  8
0
 10
131.95802787947369
 20
438.64093006291989
 30
0.0
 11
131.95802787947369
 21
348.94781695913628
 31
0.0
  0
TEXT
  5
88EE
  8
0
 62
     3
 10
0.0
 20
0.0
 30
0.0
 40
10.0
  1
NTWN160-OG
  7
STANDARD1
  0
ENDSEC
  0
EOF
