  0
SECTION
  2
HEADER
  9
$ACADVER
  1
AC1009
  9
$INSBASE
 10
0.0
 20
0.0
 30
0.0
  9
$EXTMIN
 10
0.0
 20
-2.960436562073669
 30
0.0
  9
$EXTMAX
 10
693.78047443112041
 20
525.773381294964
 30
0.0
  9
$LIMMIN
 10
0.0
 20
0.0
  9
$LIMMAX
 10
750.0
 20
540.0
  9
$ORTHOMODE
 70
     1
  9
$REGENMODE
 70
     1
  9
$FILLMODE
 70
     1
  9
$QTEXTMODE
 70
     0
  9
$MIRRTEXT
 70
     0
  9
$DRAGMODE
 70
     2
  9
$LTSCALE
 40
20.0
  9
$OSMODE
 70
  3071
  9
$ATTMODE
 70
     1
  9
$TEXTSIZE
 40
0.2
  9
$TRACEWID
 40
0.05
  9
$TEXTSTYLE
  7
K50
  9
$CLAYER
  8
0
  9
$CELTYPE
  6
BYLAYER
  9
$CECOLOR
 62
   256
  9
$DIMSCALE
 40
2.0
  9
$DIMASZ
 40
3.0
  9
$DIMEXO
 40
2.0
  9
$DIMDLI
 40
0.38
  9
$DIMRND
 40
0.0
  9
$DIMDLE
 40
0.0
  9
$DIMEXE
 40
2.0
  9
$DIMTP
 40
0.0
  9
$DIMTM
 40
0.0
  9
$DIMTXT
 40
3.2000000000000002
  9
$DIMCEN
 40
0.0
  9
$DIMTSZ
 40
0.0
  9
$DIMTOL
 70
     0
  9
$DIMLIM
 70
     0
  9
$DIMTIH
 70
     0
  9
$DIMTOH
 70
     0
  9
$DIMSE1
 70
     0
  9
$DIMSE2
 70
     0
  9
$DIMTAD
 70
     1
  9
$DIMZIN
 70
     0
  9
$DIMBLK
  1

  9
$DIMASO
 70
     1
  9
$DIMSHO
 70
     0
  9
$DIMPOST
  1

  9
$DIMAPOST
  1

  9
$DIMALT
 70
     0
  9
$DIMALTD
 70
     2
  9
$DIMALTF
 40
25.399999999999999
  9
$DIMLFAC
 40
1.0
  9
$DIMTOFL
 70
     0
  9
$DIMTVP
 40
1.6000000000000001
  9
$DIMTIX
 70
     1
  9
$DIMSOXD
 70
     0
  9
$DIMSAH
 70
     0
  9
$DIMBLK1
  1

  9
$DIMBLK2
  1

  9
$DIMSTYLE
  2
STANDARD
  9
$DIMCLRD
 70
     0
  9
$DIMCLRE
 70
     0
  9
$DIMCLRT
 70
     0
  9
$DIMTFAC
 40
1.0
  9
$DIMGAP
 40
0.09
  9
$LUNITS
 70
     2
  9
$LUPREC
 70
     4
  9
$SKETCHINC
 40
0.1
  9
$FILLETRAD
 40
0.0
  9
$AUNITS
 70
     0
  9
$AUPREC
 70
     0
  9
$MENU
  1
E:\r13\win\SUPPORT\ACAD
  9
$ELEVATION
 40
0.0
  9
$PELEVATION
 40
0.0
  9
$THICKNESS
 40
0.0
  9
$LIMCHECK
 70
     0
  9
$BLIPMODE
 70
     0
  9
$CHAMFERA
 40
0.0
  9
$CHAMFERB
 40
0.0
  9
$SKPOLY
 70
     0
  9
$TDCREATE
 40
2449840.5984953698
  9
$TDUPDATE
 40
2456597.7005214351
  9
$TDINDWG
 40
0.0007898611
  9
$TDUSRTIMER
 40
0.0007898611
  9
$USRTIMER
 70
     1
  9
$ANGBASE
 50
0.0
  9
$ANGDIR
 70
     0
  9
$PDMODE
 70
     0
  9
$PDSIZE
 40
0.0
  9
$PLINEWID
 40
0.0
  9
$COORDS
 70
     1
  9
$SPLFRAME
 70
     0
  9
$SPLINETYPE
 70
     6
  9
$SPLINESEGS
 70
     8
  9
$ATTDIA
 70
     0
  9
$ATTREQ
 70
     1
  9
$HANDLING
 70
     1
  9
$HANDSEED
  5
381
  9
$SURFTAB1
 70
     6
  9
$SURFTAB2
 70
     6
  9
$SURFTYPE
 70
     6
  9
$SURFU
 70
     6
  9
$SURFV
 70
     6
  9
$UCSNAME
  2

  9
$UCSORG
 10
0.0
 20
0.0
 30
0.0
  9
$UCSXDIR
 10
1.0
 20
0.0
 30
0.0
  9
$UCSYDIR
 10
0.0
 20
1.0
 30
0.0
  9
$PUCSNAME
  2

  9
$PUCSORG
 10
0.0
 20
0.0
 30
0.0
  9
$PUCSXDIR
 10
1.0
 20
0.0
 30
0.0
  9
$PUCSYDIR
 10
0.0
 20
1.0
 30
0.0
  9
$USERI1
 70
     0
  9
$USERI2
 70
     1
  9
$USERI3
 70
     1
  9
$USERI4
 70
     0
  9
$USERI5
 70
     0
  9
$USERR1
 40
0.0
  9
$USERR2
 40
0.0
  9
$USERR3
 40
0.0
  9
$USERR4
 40
0.0
  9
$USERR5
 40
0.0
  9
$WORLDVIEW
 70
     1
  9
$SHADEDGE
 70
     3
  9
$SHADEDIF
 70
    70
  9
$TILEMODE
 70
     1
  9
$MAXACTVP
 70
    16
  9
$PLIMCHECK
 70
     0
  9
$PEXTMIN
 10
1.0000000000000000E+020
 20
1.0000000000000000E+020
 30
1.0000000000000000E+020
  9
$PEXTMAX
 10
-1.0000000000000000E+020
 20
-1.0000000000000000E+020
 30
-1.0000000000000000E+020
  9
$PLIMMIN
 10
0.0
 20
0.0
  9
$PLIMMAX
 10
12.0
 20
9.0
  9
$UNITMODE
 70
     0
  9
$VISRETAIN
 70
     0
  9
$PLINEGEN
 70
     0
  9
$PSLTSCALE
 70
     0
  0
ENDSEC
  0
SECTION
  2
TABLES
  0
TABLE
  2
VPORT
 70
     1
  0
VPORT
  2
*ACTIVE
 70
     0
 10
0.0
 20
0.0
 11
1.0
 21
1.0
 12
374.98855678130462
 22
269.68405869568772
 13
0.0
 23
0.0
 14
20.0
 24
20.0
 15
20.0
 25
20.0
 16
0.0
 26
0.0
 36
1.0
 17
0.0
 27
0.0
 37
0.0
 40
551.57487251346481
 41
2.304913294797688
 42
50.0
 43
0.0
 44
0.0
 50
0.0
 51
0.0
 71
     0
 72
   500
 73
     1
 74
     0
 75
     0
 76
     0
 77
     0
 78
     2
  0
ENDTAB
  0
TABLE
  2
LTYPE
 70
     4
  0
LTYPE
  2
CONTINUOUS
 70
     0
  3
Solid Line
 72
    65
 73
     0
 40
0.0
  0
LTYPE
  2
CENTER
 70
     0
  3
____ _ ____ _ ____ _ ____ _ ____ _ ____ _ ____
 72
    65
 73
     4
 40
2.0
 49
1.25
 49
-0.25
 49
0.25
 49
-0.25
  0
LTYPE
  2
HIDDEN
 70
     0
  3
_ _ _ _ _ _ _ _ _ _ _ _ _ _ _ _ _ _ _ _ _ _ _
 72
    65
 73
     2
 40
0.375
 49
0.25
 49
-0.125
  0
LTYPE
  2
PHANTOM2
 70
     0
  3
___ _ _ ___ _ _ ___ _ _ ___ _ _
 72
    65
 73
     6
 40
1.25
 49
0.625
 49
-0.125
 49
0.125
 49
-0.125
 49
0.125
 49
-0.125
  0
ENDTAB
  0
TABLE
  2
LAYER
 70
     4
  0
LAYER
  2
0
 70
     0
 62
     7
  6
CONTINUOUS
  0
LAYER
  2
1
 70
     0
 62
     1
  6
CENTER
  0
LAYER
  2
2
 70
     0
 62
     2
  6
HIDDEN
  0
LAYER
  2
3
 70
     0
 62
     3
  6
CONTINUOUS
  0
ENDTAB
  0
TABLE
  2
STYLE
 70
     4
  0
STYLE
  2
STANDARD
 70
     0
 40
0.0
 41
1.0
 50
0.0
 71
     0
 42
0.2
  3
romans.shx
  4

  0
STYLE
  2
K80
 70
     0
 40
0.0
 41
1.0
 50
0.0
 71
     0
 42
0.2
  3
romans.shx
  4

  0
STYLE
  2
K50
 70
     0
 40
0.0
 41
1.0
 50
0.0
 71
     0
 42
0.2
  3
romans.shx
  4

  0
STYLE
  2
STANDARD1
 70
     0
 40
0.0
 41
1.0
 50
0.0
 71
     0
 42
3.0
  3
txt
  4

  0
ENDTAB
  0
TABLE
  2
VIEW
 70
     1
  0
VIEW
  2
ALL
 70
     0
 40
540.0
 10
441.98319327731087
 20
270.0
 41
0.0
 11
0.0
 21
0.0
 31
1.0
 12
0.0
 22
0.0
 32
0.0
 42
0.0
 43
0.0
 44
0.0
 50
0.0
 71
     0
  0
ENDTAB
  0
TABLE
  2
UCS
 70
     0
  0
ENDTAB
  0
TABLE
  2
APPID
 70
     3
  0
APPID
  2
ACAD
 70
     0
  0
APPID
  2
ACAD_MLEADERVER
 70
     0
  0
APPID
  2
ACAD_NAV_VCDISPLAY
 70
     0
  0
ENDTAB
  0
TABLE
  2
DIMSTYLE
 70
     1
  0
DIMSTYLE
  2
STANDARD
 70
     0
  3

  4

  5

  6

  7

 40
1.0
 41
0.18
 42
0.0625
 43
0.38
 44
0.18
 45
0.0
 46
0.0
 47
0.0
 48
0.0
140
0.18
141
0.09
142
0.0
143
25.399999999999999
144
1.0
145
0.0
146
1.0
147
0.09
 71
     0
 72
     0
 73
     1
 74
     1
 75
     0
 76
     0
 77
     0
 78
     0
170
     0
171
     2
172
     0
173
     0
174
     0
175
     0
176
     0
177
     0
178
     0
  0
ENDTAB
  0
ENDSEC
  0
SECTION
  2
BLOCKS
  0
BLOCK
  8
0
  2
$MODEL_SPACE
 70
     0
 10
0.0
 20
0.0
 30
0.0
  3
$MODEL_SPACE
  1

  0
ENDBLK
  5
1E9
  8
0
  0
BLOCK
 67
     1
  8
0
  2
$PAPER_SPACE
 70
     0
 10
0.0
 20
0.0
 30
0.0
  3
$PAPER_SPACE
  1

  0
ENDBLK
  5
1E7
 67
     1
  8
0
  0
ENDSEC
  0
SECTION
  2
ENTITIES
  0
LINE
  5
37
  8
1
 10
339.35401181640981
 20
271.51978417266179
 30
0.0
 11
411.35401181640867
 21
271.5197841726619
 31
0.0
  0
LINE
  5
38
  8
0
 10
349.35401181640952
 20
193.0197841726619
 30
0.0
 11
349.35401181640952
 21
350.0197841726619
 31
0.0
  0
LINE
  5
39
  8
0
 10
350.85401181640952
 20
351.5197841726619
 30
0.0
 11
365.85401181640952
 21
351.5197841726619
 31
0.0
  0
LINE
  5
3A
  8
0
 10
367.35401181640952
 20
193.0197841726619
 30
0.0
 11
367.35401181640941
 21
350.0197841726619
 31
0.0
  0
LINE
  5
3B
  8
0
 10
401.35401181640952
 20
255.5197841726619
 30
0.0
 11
400.35401181640952
 21
254.5197841726619
 31
0.0
  0
LINE
  5
3C
  8
0
 10
401.35401181640952
 20
287.5197841726619
 30
0.0
 11
400.35401181640952
 21
288.5197841726619
 31
0.0
  0
LINE
  5
3D
  8
0
 10
401.35401181640952
 20
287.5197841726619
 30
0.0
 11
401.35401181640952
 21
255.5197841726619
 31
0.0
  0
LINE
  5
3E
  8
0
 10
385.35401181640913
 20
254.5197841726619
 30
0.0
 11
400.35401181640952
 21
254.5197841726619
 31
0.0
  0
LINE
  5
3F
  8
0
 10
385.35401181640952
 20
288.5197841726619
 30
0.0
 11
400.35401181640952
 21
288.5197841726619
 31
0.0
  0
LINE
  5
40
  8
0
 10
385.35401181640952
 20
293.01978417266201
 30
0.0
 11
385.35401181640901
 21
250.01978417266179
 31
0.0
  0
LINE
  5
41
  8
0
 10
385.35401181640952
 20
293.01978417266201
 30
0.0
 11
378.2509736107167
 21
293.01978417266201
 31
0.0
  0
LINE
  5
42
  8
0
 10
350.85401181640952
 20
351.5197841726619
 30
0.0
 11
349.35401181640952
 21
350.0197841726619
 31
0.0
  0
LINE
  5
43
  8
0
 10
365.85401181640952
 20
351.5197841726619
 30
0.0
 11
367.35401181640941
 21
350.0197841726619
 31
0.0
  0
LINE
  5
44
  8
0
 10
373.81488960454379
 20
295.71302048945211
 30
0.0
 11
367.35401181640941
 21
308.13778546663332
 31
0.0
  0
ARC
  5
45
  8
0
 10
378.2509736107167
 20
298.01978417266201
 30
0.0
 40
5.0
 50
207.47443162627681
 51
269.99999999999989
  0
LINE
  5
46
  8
0
 10
376.0691300531206
 20
295.71302048945211
 30
0.0
 11
367.35401181640941
 21
312.47286325235831
 31
0.0
  0
ARC
  5
47
  8
0
 10
380.50521405929362
 20
298.0197841726619
 30
0.0
 40
5.0
 50
207.4744316262769
 51
269.99999999999989
  0
LINE
  5
48
  8
0
 10
365.85401181640952
 20
191.51978417266179
 30
0.0
 11
367.35401181640941
 21
193.01978417266179
 31
0.0
  0
LINE
  5
49
  8
0
 10
350.85401181640952
 20
191.51978417266179
 30
0.0
 11
349.35401181640952
 21
193.01978417266179
 31
0.0
  0
LINE
  5
4A
  8
0
 10
350.85401181640952
 20
191.51978417266179
 30
0.0
 11
365.85401181640952
 21
191.51978417266179
 31
0.0
  0
LINE
  5
4B
  8
1
 10
344.35401181640981
 20
340.5197841726619
 30
0.0
 11
368.35401181640913
 21
340.5197841726619
 31
0.0
  0
LINE
  5
4C
  8
1
 10
64.999999999999986
 20
271.51978417266179
 30
0.0
 11
245.00000000000051
 21
271.51978417266179
 31
0.0
  0
LINE
  5
4D
  8
1
 10
155.0000000000002
 20
361.51978417266213
 30
0.0
 11
155.0000000000002
 21
181.51978417266159
 31
0.0
  0
CIRCLE
  5
4E
  8
0
 10
155.0000000000002
 20
271.51978417266179
 30
0.0
 40
31.999999999999972
  0
LINE
  5
4F
  8
1
 10
139.0000000000035
 20
340.5197841726619
 30
0.0
 11
170.9999999999977
 21
340.5197841726619
 31
0.0
  0
CIRCLE
  5
50
  8
0
 10
155.0000000000002
 20
271.5197841726619
 30
0.0
 40
58.000000000000043
  0
CIRCLE
  5
51
  8
0
 10
155.0000000000002
 20
271.5197841726619
 30
0.0
 40
79.999999999999986
  0
CIRCLE
  5
52
  8
3
 10
155.0000000000002
 20
340.51978417266201
 30
0.0
 40
4.1879999999998736
  0
CIRCLE
  5
53
  8
0
 10
155.0000000000002
 20
340.51978417266201
 30
0.0
 40
5.0
  0
CIRCLE
  5
54
  8
0
 10
155.0000000000002
 20
271.51978417266179
 30
0.0
 40
60.000000000000071
  0
CIRCLE
  5
55
  8
0
 10
155.0000000000002
 20
271.51978417266179
 30
0.0
 40
78.499999999999957
  0
CIRCLE
  5
56
  8
0
 10
155.0000000000002
 20
340.51978417266201
 30
0.0
 40
3.4999999999997149
  0
CIRCLE
  5
57
  8
0
 10
155.0000000000002
 20
340.51978417266201
 30
0.0
 40
5.9999999999999432
  0
LINE
  5
58
  8
0
 10
350.85401181640952
 20
351.5197841726619
 30
0.0
 11
350.85401181640918
 21
191.51978417266179
 31
0.0
  0
LINE
  5
59
  8
0
 10
365.85401181640941
 20
351.5197841726619
 30
0.0
 11
365.85401181640913
 21
191.51978417266179
 31
0.0
  0
LINE
  5
5A
  8
0
 10
400.35401181640952
 20
288.5197841726619
 30
0.0
 11
400.35401181640952
 21
254.5197841726619
 31
0.0
  0
ARC
  5
5B
  8
0
 10
579.83165736706189
 20
345.22666418553632
 30
0.0
 40
2.0
 50
251.41710078649831
 51
324.58289921350178
  0
ARC
  5
5C
  8
0
 10
585.53634141683165
 20
341.16999314978523
 30
0.0
 40
5.0
 50
104.67824962405069
 51
144.58289921350249
  0
ARC
  5
5D
  8
0
 10
577.60092243147506
 20
338.59161922358231
 30
0.0
 40
5.0
 50
71.417100786497457
 51
111.32175037594931
  0
LINE
  5
5E
  8
0
 10
579.52264037268696
 20
346.1777207018315
 30
0.0
 11
580.29367072993966
 21
345.89253428994061
 31
0.0
  0
LINE
  5
5F
  8
0
 10
579.52264037268696
 20
346.1777207018315
 30
0.0
 11
579.06649207755379
 21
345.49379977498381
 31
0.0
  0
ARC
  5
60
  8
0
 10
582.02820786503321
 20
350.58203116348488
 30
0.0
 40
5.0
 50
249.70172423278919
 51
285.38308857563828
  0
ARC
  5
61
  8
0
 10
574.90680495494792
 20
348.26814709318768
 30
0.0
 40
5.0
 50
290.61691142436121
 51
326.2982757672101
  0
ARC
  5
62
  8
0
 10
558.22711737845361
 20
334.21860123672042
 30
0.0
 40
2.0
 50
269.41710078649828
 51
342.58289921350178
  0
ARC
  5
63
  8
0
 10
564.90617460802787
 20
332.12332213262198
 30
0.0
 40
5.0
 50
122.67824962405069
 51
162.58289921350249
  0
ARC
  5
64
  8
0
 10
558.15590403352201
 20
327.2189634847004
 30
0.0
 40
5.0
 50
89.417100786497457
 51
129.32175037594931
  0
LINE
  5
65
  8
0
 10
557.63933212616109
 20
335.02761823109529
 30
0.0
 11
558.46075301952692
 21
334.99465131927769
 31
0.0
  0
LINE
  5
66
  8
0
 10
557.63933212616109
 20
335.02761823109529
 30
0.0
 11
557.41685250688249
 21
334.23621320183503
 31
0.0
  0
ARC
  5
67
  8
0
 10
558.66126163562012
 20
339.99062933112617
 30
0.0
 40
5.0
 50
267.70172423278922
 51
303.38308857563828
  0
ARC
  5
68
  8
0
 10
552.60343449355537
 20
335.5893602851109
 30
0.0
 40
5.0
 50
308.61691142436109
 51
344.29827576720999
  0
ARC
  5
69
  8
0
 10
603.7804749339864
 20
271.51978453801547
 30
0.0
 40
77.000000000000014
 50
110.6169114243616
 51
123.3830932642953
  0
ARC
  5
6A
  8
0
 10
541.08165736706178
 20
317.0731412253287
 30
0.0
 40
2.0
 50
287.41710078649828
 51
0.5828992135017577
  0
ARC
  5
6B
  8
0
 10
548.08129511908191
 20
317.14435457026019
 30
0.0
 40
5.0
 50
140.67824962405069
 51
180.58289921350249
  0
ARC
  5
6C
  8
0
 10
543.17693647116005
 20
310.39408399575427
 30
0.0
 40
5.0
 50
107.4171007864974
 51
147.32175037594931
  0
LINE
  5
6D
  8
0
 10
540.27264037268685
 20
317.6609264776211
 30
0.0
 11
541.06404540194706
 21
317.88340609689948
 31
0.0
  0
LINE
  5
6E
  8
0
 10
540.27264037268685
 20
317.6609264776211
 30
0.0
 11
540.30560728450428
 21
316.83950558425522
 31
0.0
  0
ARC
  5
6F
  8
0
 10
539.71089831867096
 20
322.6968241102266
 30
0.0
 40
5.0
 50
285.70172423278922
 51
321.38308857563828
  0
ARC
  5
70
  8
0
 10
535.30962927265603
 20
316.63899696816202
 30
0.0
 40
5.0
 50
326.61691142436121
 51
2.298275767209998
  0
ARC
  5
71
  8
0
 10
603.78047479647375
 20
271.519784675528
 30
0.0
 40
77.000000000000014
 50
128.61691142436169
 51
141.3830932642953
  0
ARC
  5
72
  8
0
 10
530.07359441824576
 20
295.46860123672042
 30
0.0
 40
2.0
 50
305.41710078649828
 51
18.582899213501751
  0
ARC
  5
73
  8
0
 10
536.70863938019977
 20
297.69933617230731
 30
0.0
 40
5.0
 50
158.67824962405069
 51
198.58289921350249
  0
ARC
  5
74
  8
0
 10
534.13026545399691
 20
289.76391718695061
 30
0.0
 40
5.0
 50
125.4171007864974
 51
165.32175037594931
  0
LINE
  5
75
  8
0
 10
529.12253790195064
 20
295.77761823109518
 30
0.0
 11
529.8064588287981
 21
296.23376652622801
 31
0.0
  0
LINE
  5
76
  8
0
 10
529.12253790195064
 20
295.77761823109518
 30
0.0
 11
529.40772431384153
 21
295.00658787384219
 31
0.0
  0
ARC
  5
77
  8
0
 10
527.03211151059418
 20
300.39345364883428
 30
0.0
 40
5.0
 50
303.70172423278922
 51
339.38308857563828
  0
ARC
  5
78
  8
0
 10
524.71822744029726
 20
293.27205073874882
 30
0.0
 40
5.0
 50
344.61691142436121
 51
20.298275767210001
  0
ARC
  5
79
  8
0
 10
603.78047462319785
 20
271.5197847638164
 30
0.0
 40
77.000000000000014
 50
146.61691142436169
 51
159.3830932642953
  0
ARC
  5
7A
  8
0
 10
526.28047443112018
 20
271.5197841726619
 30
0.0
 40
2.0
 50
323.41710078649828
 51
36.582899213501761
  0
ARC
  5
7B
  8
0
 10
531.90144217305556
 20
275.69168082096479
 30
0.0
 40
5.0
 50
176.67824962405069
 51
216.58289921350249
  0
ARC
  5
7C
  8
0
 10
531.90144217305556
 20
267.34788752435901
 30
0.0
 40
5.0
 50
143.4171007864974
 51
183.32175037594931
  0
LINE
  5
7D
  8
0
 10
525.28047443112018
 20
271.51978417266179
 30
0.0
 11
525.78996431007795
 21
272.16495017034941
 31
0.0
  0
LINE
  5
7E
  8
0
 10
525.28047443112018
 20
271.51978417266179
 30
0.0
 11
525.78996431007795
 21
270.8746181749741
 31
0.0
  0
ARC
  5
7F
  8
0
 10
521.86598920246615
 20
275.2637272444295
 30
0.0
 40
5.0
 50
321.70172423278922
 51
357.38308857563828
  0
ARC
  5
80
  8
0
 10
521.86598920246615
 20
267.77584110089418
 30
0.0
 40
5.0
 50
2.6169114243611462
 51
38.298275767210001
  0
ARC
  5
81
  8
0
 10
603.78047443112018
 20
271.51978479423849
 30
0.0
 40
77.000000000000014
 50
164.61691142436169
 51
177.3830932642953
  0
ARC
  5
82
  8
0
 10
530.07359441824565
 20
247.5709671086035
 30
0.0
 40
2.0
 50
341.41710078649828
 51
54.582899213501747
  0
ARC
  5
83
  8
0
 10
534.13026545399669
 20
253.27565115837339
 30
0.0
 40
5.0
 50
194.67824962405069
 51
234.58289921350249
  0
ARC
  5
84
  8
0
 10
536.70863938019977
 20
245.3402321730166
 30
0.0
 40
5.0
 50
161.4171007864974
 51
201.32175037594931
  0
LINE
  5
85
  8
0
 10
529.12253790195064
 20
247.26195011422851
 30
0.0
 11
529.40772431384153
 21
248.0329804714813
 31
0.0
  0
LINE
  5
86
  8
0
 10
529.12253790195064
 20
247.26195011422851
 30
0.0
 11
529.8064588287981
 21
246.80580181909551
 31
0.0
  0
ARC
  5
87
  8
0
 10
524.71822744029714
 20
249.7675176065749
 30
0.0
 40
5.0
 50
339.70172423278922
 51
15.38308857563824
  0
ARC
  5
88
  8
0
 10
527.03211151059418
 20
242.64611469648949
 30
0.0
 40
5.0
 50
20.616911424361149
 51
56.298275767210001
  0
ARC
  5
89
  8
0
 10
603.78047423904241
 20
271.5197847638164
 30
0.0
 40
77.000000000000014
 50
182.61691142436169
 51
195.3830932642953
  0
ARC
  5
8A
  8
0
 10
541.08165736706178
 20
225.9664271199953
 30
0.0
 40
2.0
 50
359.41710078649828
 51
72.582899213501761
  0
ARC
  5
8B
  8
0
 10
543.17693647116005
 20
232.64548434956961
 30
0.0
 40
5.0
 50
212.67824962405081
 51
252.58289921350249
  0
ARC
  5
8C
  8
0
 10
548.08129511908169
 20
225.8952137750637
 30
0.0
 40
5.0
 50
179.4171007864974
 51
219.32175037594931
  0
LINE
  5
8D
  8
0
 10
540.27264037268674
 20
225.3786418677027
 30
0.0
 11
540.30560728450439
 21
226.20006276106849
 31
0.0
  0
LINE
  5
8E
  8
0
 10
540.27264037268674
 20
225.3786418677027
 30
0.0
 11
541.06404540194706
 21
225.15616224842421
 31
0.0
  0
ARC
  5
8F
  8
0
 10
535.30962927265591
 20
226.4005713771617
 30
0.0
 40
5.0
 50
357.70172423278922
 51
33.38308857563824
  0
ARC
  5
90
  8
0
 10
539.71089831867107
 20
220.34274423509709
 30
0.0
 40
5.0
 50
38.616911424361149
 51
74.298275767210001
  0
ARC
  5
91
  8
0
 10
603.78047406576661
 20
271.51978467552789
 30
0.0
 40
77.000000000000014
 50
200.61691142436169
 51
213.38309326429541
  0
ARC
  5
92
  8
0
 10
558.22711737845327
 20
208.8209671086035
 30
0.0
 40
2.0
 50
17.417100786498249
 51
90.582899213501761
  0
ARC
  5
93
  8
0
 10
558.15590403352189
 20
215.82060486062349
 30
0.0
 40
5.0
 50
230.67824962405069
 51
270.58289921350263
  0
ARC
  5
94
  8
0
 10
564.90617460802775
 20
210.91624621270179
 30
0.0
 40
5.0
 50
197.4171007864974
 51
237.32175037594931
  0
LINE
  5
95
  8
0
 10
557.63933212616087
 20
208.01195011422851
 30
0.0
 11
557.41685250688249
 21
208.8033551434886
 31
0.0
  0
LINE
  5
96
  8
0
 10
557.63933212616087
 20
208.01195011422851
 30
0.0
 11
558.46075301952692
 21
208.04491702604599
 31
0.0
  0
ARC
  5
97
  8
0
 10
552.60343449355537
 20
207.4502080602127
 30
0.0
 40
5.0
 50
15.701724232789189
 51
51.38308857563824
  0
ARC
  5
98
  8
0
 10
558.66126163562012
 20
203.0489390141976
 30
0.0
 40
5.0
 50
56.616911424361149
 51
92.298275767210001
  0
ARC
  5
99
  8
0
 10
603.78047392825408
 20
271.51978453801541
 30
0.0
 40
77.000000000000014
 50
218.61691142436169
 51
231.38309326429541
  0
ARC
  5
9A
  8
0
 10
579.83165736706155
 20
197.81290415978739
 30
0.0
 40
2.0
 50
35.417100786498253
 51
108.5828992135017
  0
ARC
  5
9B
  8
0
 10
577.60092243147471
 20
204.44794912174149
 30
0.0
 40
5.0
 50
248.67824962405081
 51
288.58289921350263
  0
ARC
  5
9C
  8
0
 10
585.53634141683142
 20
201.8695751955386
 30
0.0
 40
5.0
 50
215.41710078649751
 51
255.32175037594931
  0
LINE
  5
9D
  8
0
 10
579.52264037268674
 20
196.8618476434923
 30
0.0
 11
579.06649207755379
 21
197.54576857033979
 31
0.0
  0
LINE
  5
9E
  8
0
 10
579.52264037268674
 20
196.8618476434923
 30
0.0
 11
580.29367072993966
 21
197.1470340553831
 31
0.0
  0
ARC
  5
9F
  8
0
 10
574.90680495494769
 20
194.77142125213589
 30
0.0
 40
5.0
 50
33.701724232789203
 51
69.38308857563824
  0
ARC
  5
A0
  8
0
 10
582.02820786503321
 20
192.45753718183889
 30
0.0
 40
5.0
 50
74.616911424361149
 51
110.29827576721
  0
ARC
  5
A1
  8
0
 10
603.78047383996568
 20
271.51978436473962
 30
0.0
 40
77.000000000000014
 50
236.61691142436169
 51
249.3830932642953
  0
ARC
  5
A2
  8
0
 10
603.78047380954354
 20
271.51978417266179
 30
0.0
 40
77.000000000000014
 50
254.61691142436169
 51
267.38309326429533
  0
ARC
  5
A3
  8
0
 10
603.78047443112018
 20
271.51978417266179
 30
0.0
 40
77.000000000000014
 50
74.61690673570466
 51
105.38309280807179
  0
ARC
  5
A4
  8
0
 10
627.7292914951787
 20
345.22666418553632
 30
0.0
 40
2.0
 50
215.41710078649831
 51
288.58289921350178
  0
ARC
  5
A5
  8
0
 10
629.96002643076565
 20
338.5916192235822
 30
0.0
 40
5.0
 50
68.67824962405075
 51
108.5828992135026
  0
ARC
  5
A6
  8
0
 10
622.02460744540895
 20
341.16999314978523
 30
0.0
 40
5.0
 50
35.41710078649745
 51
75.321750375949293
  0
LINE
  5
A7
  8
0
 10
628.03830848955363
 20
346.1777207018315
 30
0.0
 11
628.49445678468635
 21
345.49379977498393
 31
0.0
  0
LINE
  5
A8
  8
0
 10
628.03830848955363
 20
346.1777207018315
 30
0.0
 11
627.26727813230059
 21
345.89253428994061
 31
0.0
  0
ARC
  5
A9
  8
0
 10
632.65414390729256
 20
348.26814709318791
 30
0.0
 40
5.0
 50
213.70172423278919
 51
249.3830885756382
  0
ARC
  5
AA
  8
0
 10
625.53274099720716
 20
350.58203116348483
 30
0.0
 40
5.0
 50
254.61691142436121
 51
290.29827576720999
  0
ARC
  5
AB
  8
0
 10
603.78047443112018
 20
271.51978417266179
 30
0.0
 40
77.000000000000014
 50
56.61690673570466
 51
69.383088575638325
  0
ARC
  5
AC
  8
0
 10
649.33383148378698
 20
334.2186012367203
 30
0.0
 40
2.0
 50
197.4171007864982
 51
270.58289921350178
  0
ARC
  5
AD
  8
0
 10
649.40504482871836
 20
327.21896348470023
 30
0.0
 40
5.0
 50
50.678249624050757
 51
90.582899213502543
  0
ARC
  5
AE
  8
0
 10
642.65477425421273
 20
332.12332213262192
 30
0.0
 40
5.0
 50
17.41710078649745
 51
57.321750375949293
  0
LINE
  5
AF
  8
0
 10
649.92161673607939
 20
335.02761823109529
 30
0.0
 11
650.14409635535765
 21
334.23621320183503
 31
0.0
  0
LINE
  5
B0
  8
0
 10
649.92161673607939
 20
335.02761823109529
 30
0.0
 11
649.10019584271345
 21
334.99465131927781
 31
0.0
  0
ARC
  5
B1
  8
0
 10
654.95751436868488
 20
335.5893602851109
 30
0.0
 40
5.0
 50
195.70172423278919
 51
231.38308857563831
  0
ARC
  5
B2
  8
0
 10
648.89968722662024
 20
339.99062933112612
 30
0.0
 40
5.0
 50
236.61691142436121
 51
272.2982757672101
  0
ARC
  5
B3
  8
0
 10
603.78047443112018
 20
271.51978417266179
 30
0.0
 40
77.000000000000014
 50
38.61690673570466
 51
51.383088575638311
  0
ARC
  5
B4
  8
0
 10
666.4792914951787
 20
317.07314122532853
 30
0.0
 40
2.0
 50
179.4171007864982
 51
252.5828992135018
  0
ARC
  5
B5
  8
0
 10
664.38401239108043
 20
310.3940839957541
 30
0.0
 40
5.0
 50
32.678249624050757
 51
72.582899213502543
  0
ARC
  5
B6
  8
0
 10
659.47965374315856
 20
317.14435457026002
 30
0.0
 40
5.0
 50
359.41710078649737
 51
39.321750375949293
  0
LINE
  5
B7
  8
0
 10
667.28830848955363
 20
317.66092647762099
 30
0.0
 11
667.25534157773598
 21
316.83950558425522
 31
0.0
  0
LINE
  5
B8
  8
0
 10
667.28830848955363
 20
317.66092647762099
 30
0.0
 11
666.49690346029331
 21
317.88340609689948
 31
0.0
  0
ARC
  5
B9
  8
0
 10
672.25131958958445
 20
316.63899696816202
 30
0.0
 40
5.0
 50
177.7017242327891
 51
213.38308857563831
  0
ARC
  5
BA
  8
0
 10
667.85005054356918
 20
322.6968241102266
 30
0.0
 40
5.0
 50
218.61691142436109
 51
254.29827576720999
  0
ARC
  5
BB
  8
0
 10
603.78047443112018
 20
271.51978417266179
 30
0.0
 40
77.000000000000014
 50
20.61690673570466
 51
33.383088575638318
  0
ARC
  5
BC
  8
0
 10
677.48735444399472
 20
295.46860123672019
 30
0.0
 40
2.0
 50
161.4171007864982
 51
234.5828992135018
  0
ARC
  5
BD
  8
0
 10
673.43068340824357
 20
289.76391718695032
 30
0.0
 40
5.0
 50
14.678249624050761
 51
54.582899213502543
  0
ARC
  5
BE
  8
0
 10
670.85230948204071
 20
297.69933617230708
 30
0.0
 40
5.0
 50
341.41710078649737
 51
21.321750375949289
  0
LINE
  5
BF
  8
0
 10
678.43841096028984
 20
295.77761823109518
 30
0.0
 11
678.15322454839895
 21
295.00658787384242
 31
0.0
  0
LINE
  5
C0
  8
0
 10
678.43841096028984
 20
295.77761823109518
 30
0.0
 11
677.75449003344215
 21
296.23376652622818
 31
0.0
  0
ARC
  5
C1
  8
0
 10
682.84272142194311
 20
293.27205073874882
 30
0.0
 40
5.0
 50
159.70172423278919
 51
195.3830885756382
  0
ARC
  5
C2
  8
0
 10
680.52883735164619
 20
300.39345364883422
 30
0.0
 40
5.0
 50
200.61691142436109
 51
236.29827576720999
  0
ARC
  5
C3
  8
0
 10
603.78047443112018
 20
271.51978417266179
 30
0.0
 40
77.000000000000014
 50
2.6169067357046569
 51
15.38308857563832
  0
ARC
  5
C4
  8
0
 10
681.28047443112007
 20
271.51978417266179
 30
0.0
 40
2.0
 50
143.4171007864982
 51
216.5828992135018
  0
ARC
  5
C5
  8
0
 10
675.65950668918481
 20
267.3478875243589
 30
0.0
 40
5.0
 50
356.67824962405081
 51
36.58289921350255
  0
ARC
  5
C6
  8
0
 10
675.65950668918481
 20
275.69168082096468
 30
0.0
 40
5.0
 50
323.41710078649737
 51
3.3217503759492941
  0
LINE
  5
C7
  8
0
 10
682.28047443112007
 20
271.51978417266179
 30
0.0
 11
681.77098455216242
 21
270.87461817497427
 31
0.0
  0
LINE
  5
C8
  8
0
 10
682.28047443112007
 20
271.51978417266179
 30
0.0
 11
681.77098455216242
 21
272.16495017034958
 31
0.0
  0
ARC
  5
C9
  8
0
 10
685.69495965977421
 20
267.77584110089418
 30
0.0
 40
5.0
 50
141.70172423278919
 51
177.3830885756382
  0
ARC
  5
CA
  8
0
 10
685.69495965977421
 20
275.2637272444295
 30
0.0
 40
5.0
 50
182.61691142436109
 51
218.29827576720999
  0
ARC
  5
CB
  8
0
 10
603.78047443112018
 20
271.51978417266179
 30
0.0
 40
77.000000000000014
 50
344.61690673570467
 51
357.38308857563828
  0
ARC
  5
CC
  8
0
 10
677.48735444399472
 20
247.5709671086033
 30
0.0
 40
2.0
 50
125.4171007864982
 51
198.58289921350169
  0
ARC
  5
CD
  8
0
 10
670.85230948204048
 20
245.3402321730164
 30
0.0
 40
5.0
 50
338.67824962405069
 51
18.58289921350255
  0
ARC
  5
CE
  8
0
 10
673.43068340824357
 20
253.27565115837311
 30
0.0
 40
5.0
 50
305.41710078649737
 51
345.32175037594931
  0
LINE
  5
CF
  8
0
 10
678.43841096028973
 20
247.2619501142284
 30
0.0
 11
677.75449003344215
 21
246.80580181909559
 31
0.0
  0
LINE
  5
D0
  8
0
 10
678.43841096028973
 20
247.2619501142284
 30
0.0
 11
678.15322454839884
 21
248.03298047148149
 31
0.0
  0
ARC
  5
D1
  8
0
 10
680.52883735164619
 20
242.64611469648941
 30
0.0
 40
5.0
 50
123.7017242327892
 51
159.3830885756382
  0
ARC
  5
D2
  8
0
 10
682.84272142194311
 20
249.7675176065749
 30
0.0
 40
5.0
 50
164.61691142436109
 51
200.29827576720999
  0
ARC
  5
D3
  8
0
 10
603.78047443112018
 20
271.51978417266179
 30
0.0
 40
77.000000000000014
 50
326.61690673570467
 51
339.38308857563828
  0
ARC
  5
D4
  8
0
 10
666.47929149517847
 20
225.9664271199951
 30
0.0
 40
2.0
 50
107.4171007864982
 51
180.58289921350169
  0
ARC
  5
D5
  8
0
 10
659.47965374315856
 20
225.89521377506361
 30
0.0
 40
5.0
 50
320.67824962405069
 51
0.5828992135025465
  0
ARC
  5
D6
  8
0
 10
664.3840123910802
 20
232.64548434956939
 30
0.0
 40
5.0
 50
287.41710078649737
 51
327.32175037594931
  0
LINE
  5
D7
  8
0
 10
667.28830848955363
 20
225.3786418677027
 30
0.0
 11
666.49690346029331
 21
225.15616224842421
 31
0.0
  0
LINE
  5
D8
  8
0
 10
667.28830848955363
 20
225.3786418677027
 30
0.0
 11
667.25534157773598
 21
226.20006276106861
 31
0.0
  0
ARC
  5
D9
  8
0
 10
667.85005054356918
 20
220.34274423509709
 30
0.0
 40
5.0
 50
105.7017242327892
 51
141.3830885756382
  0
ARC
  5
DA
  8
0
 10
672.25131958958445
 20
226.40057137716181
 30
0.0
 40
5.0
 50
146.61691142436109
 51
182.29827576720999
  0
ARC
  5
DB
  8
0
 10
603.78047443112018
 20
271.51978417266179
 30
0.0
 40
77.000000000000014
 50
308.61690673570467
 51
321.38308857563828
  0
ARC
  5
DC
  8
0
 10
649.33383148378675
 20
208.82096710860341
 30
0.0
 40
2.0
 50
89.417100786498239
 51
162.58289921350169
  0
ARC
  5
DD
  8
0
 10
642.65477425421238
 20
210.91624621270171
 30
0.0
 40
5.0
 50
302.67824962405081
 51
342.58289921350263
  0
ARC
  5
DE
  8
0
 10
649.40504482871825
 20
215.82060486062329
 30
0.0
 40
5.0
 50
269.41710078649737
 51
309.32175037594931
  0
LINE
  5
DF
  8
0
 10
649.92161673607939
 20
208.0119501142284
 30
0.0
 11
649.10019584271345
 21
208.04491702604611
 31
0.0
  0
LINE
  5
E0
  8
0
 10
649.92161673607939
 20
208.0119501142284
 30
0.0
 11
650.14409635535776
 21
208.8033551434888
 31
0.0
  0
ARC
  5
E1
  8
0
 10
648.89968722662024
 20
203.0489390141976
 30
0.0
 40
5.0
 50
87.701724232789189
 51
123.3830885756382
  0
ARC
  5
E2
  8
0
 10
654.95751436868488
 20
207.45020806021279
 30
0.0
 40
5.0
 50
128.61691142436109
 51
164.29827576720999
  0
ARC
  5
E3
  8
0
 10
603.78047443112018
 20
271.51978417266179
 30
0.0
 40
77.000000000000014
 50
290.61690673570467
 51
303.38308857563828
  0
ARC
  5
E4
  8
0
 10
627.72929149517859
 20
197.81290415978739
 30
0.0
 40
2.0
 50
71.417100786498253
 51
144.58289921350169
  0
ARC
  5
E5
  8
0
 10
622.02460744540872
 20
201.86957519553849
 30
0.0
 40
5.0
 50
284.67824962405069
 51
324.58289921350263
  0
ARC
  5
E6
  8
0
 10
629.96002643076542
 20
204.44794912174149
 30
0.0
 40
5.0
 50
251.41710078649751
 51
291.32175037594931
  0
LINE
  5
E7
  8
0
 10
628.03830848955351
 20
196.8618476434923
 30
0.0
 11
627.2672781323007
 21
197.1470340553831
 31
0.0
  0
LINE
  5
E8
  8
0
 10
628.03830848955351
 20
196.8618476434923
 30
0.0
 11
628.49445678468635
 21
197.5457685703399
 31
0.0
  0
ARC
  5
E9
  8
0
 10
625.53274099720716
 20
192.4575371818388
 30
0.0
 40
5.0
 50
69.701724232789203
 51
105.3830885756382
  0
ARC
  5
EA
  8
0
 10
632.65414390729256
 20
194.77142125213589
 30
0.0
 40
5.0
 50
110.61691142436111
 51
146.29827576720999
  0
ARC
  5
EB
  8
0
 10
607.5244175028879
 20
189.6052989440079
 30
0.0
 40
5.0
 50
92.616911424361149
 51
128.29827576720999
  0
ARC
  5
EC
  8
0
 10
600.03653135935247
 20
189.6052989440079
 30
0.0
 40
5.0
 50
51.701724232789203
 51
87.38308857563824
  0
LINE
  5
ED
  8
0
 10
603.78047443112018
 20
193.01978417266179
 30
0.0
 11
604.42564042880792
 21
193.52927405161961
 31
0.0
  0
LINE
  5
EE
  8
0
 10
603.78047443112018
 20
193.01978417266179
 30
0.0
 11
603.13530843343256
 21
193.52927405161961
 31
0.0
  0
LINE
  5
EF
  8
0
 10
583.22026499509911
 20
318.19180778367462
 30
0.0
 11
595.97708273065632
 21
330.94862551923171
 31
0.0
  0
LINE
  5
F0
  8
0
 10
579.7804744311203
 20
318.28755110425749
 30
0.0
 11
594.20931577768647
 21
332.71639247219468
 31
0.0
  0
ARC
  5
F1
  8
0
 10
603.78047443112018
 20
271.51978417266179
 30
0.0
 40
51.000000000000121
 50
113.7747076165611
 51
118.0724869358488
  0
ARC
  5
F2
  8
0
 10
580.66435790760352
 20
317.40366762777433
 30
0.0
 40
1.25
 50
134.99999999999989
 51
224.99999999999989
  0
ARC
  5
F3
  8
0
 10
626.89659095463685
 20
317.40366762777433
 30
0.0
 40
1.25
 50
315.00000000000011
 51
45.000000000000071
  0
ARC
  5
F4
  8
0
 10
603.78047443112018
 20
271.51978417266179
 30
0.0
 40
51.000000000000121
 50
61.927513064151128
 51
66.225292383438884
  0
POLYLINE
  5
F5
  8
0
 66
     1
 10
0.0
 20
0.0
 30
0.0
  0
VERTEX
  5
F6
  8
0
 10
605.03047443112007
 20
316.79163162047962
 30
0.0
 42
0.0297271237960244
  0
VERTEX
  5
F7
  8
0
 10
604.924512033371
 20
318.57230773473373
 30
0.0
 42
0.0404863675280297
  0
VERTEX
  5
F8
  8
0
 10
604.66435790760329
 20
319.85699451973687
 30
0.0
 42
0.0820311832859567
 70
     2
 50
106.0846762761466
  0
VERTEX
  5
F9
  8
0
 10
604.15217039803292
 20
320.93256834687622
 30
0.0
 42
0.2454253719397617
 50
106.0846762761466
  0
VERTEX
  5
FA
  8
0
 10
603.78047443112018
 20
321.12670940620461
 30
0.0
 42
0.2454253719398586
  0
VERTEX
  5
FB
  8
0
 10
603.40877846420767
 20
320.93256834687622
 30
0.0
 42
0.0820311832859892
  0
VERTEX
  5
FC
  8
0
 10
602.89659095463708
 20
319.85699451973687
 30
0.0
 42
0.0404863675280638
 70
     2
 50
253.91532372385339
  0
VERTEX
  5
FD
  8
0
 10
602.63643682886925
 20
318.57230773473322
 30
0.0
 42
0.029727123796032
 50
253.91532372385339
  0
VERTEX
  5
FE
  8
0
 10
602.53047443112018
 20
316.79163162047962
 30
0.0
 42
0.0297271237960415
  0
SEQEND
  5
FF
  8
0
  0
TEXT
  5
100
  8
0
 10
647.81570881319294
 20
262.78075755273238
 30
0.0
 40
5.7999999999999989
  1
0
 50
81.999999999999986
 41
0.8
  7
K80
 72
     1
 11
648.12321509340939
 21
264.96877842842798
 31
0.0
  0
TEXT
  5
101
  8
0
 10
646.43843421333725
 20
257.85354598781601
 30
0.0
 40
5.7999999999999989
  1
6
 50
75.000000000000014
 41
0.8
  7
K80
 72
     1
 11
647.03889439797513
 21
260.09449390480671
 31
0.0
  0
TEXT
  5
102
  8
0
 10
644.92798740147168
 20
253.62563080054341
 30
0.0
 40
5.7999999999999989
  1
1
 50
69.000000000000028
 41
0.8
  7
K80
 72
     1
 11
645.60103654099862
 21
255.37898375392669
 31
0.0
  0
TEXT
  5
103
  8
0
 10
641.44612201285508
 20
246.4826726174706
 30
0.0
 40
6.0
  1
P
 50
60.000000000000028
 41
0.8
  7
K80
 72
     1
 11
642.70326486999795
 21
248.66010791841441
 31
0.0
  0
TEXT
  5
104
  8
0
 10
638.53891397896552
 20
242.6554010073958
 30
0.0
 40
6.0
  1
S
 50
53.000000000000007
 41
0.8
  7
K80
 72
     1
 11
639.91449117474156
 21
244.48085360178959
 31
0.0
  0
ARC
  5
105
  8
0
 10
603.78047443112018
 20
271.51978417266179
 30
0.0
 40
41.999999999999943
 50
332.72724000000221
 51
335.90914000000151
  0
LINE
  5
106
  8
0
 10
572.18476505937849
 20
276.6880671850775
 30
0.0
 11
571.92371267493832
 21
274.70517746232952
 31
0.0
  0
LINE
  5
107
  8
0
 10
574.89804972981085
 20
274.31359856038921
 30
0.0
 11
571.92371267493843
 21
274.70517746232991
 31
0.0
  0
LINE
  5
108
  8
0
 10
575.15910211425103
 20
276.2964882831368
 30
0.0
 11
572.18476505937861
 21
276.6880671850775
 31
0.0
  0
ARC
  5
109
  8
0
 10
575.02857345127995
 20
275.3050437470435
 30
0.0
 40
0.999999999999996
 50
262.50014278515567
 51
82.499857214843345
  0
LINE
  5
10A
  8
0
 10
624.05419349969065
 20
296.29832963297252
 30
0.0
 11
622.46748681910765
 21
297.51585249099008
 31
0.0
  0
LINE
  5
10B
  8
0
 10
620.64120101500521
 20
295.13579049302319
 30
0.0
 11
622.4674868191081
 21
297.5158524909898
 31
0.0
  0
LINE
  5
10C
  8
0
 10
622.22790769558765
 20
293.91826763500569
 30
0.0
 11
624.05419349969065
 21
296.29832963297241
 31
0.0
  0
ARC
  5
10D
  8
0
 10
621.43455587237315
 20
294.52703104110742
 30
0.0
 40
0.999999999999996
 50
142.5001427851557
 51
322.49985721484342
  0
ARC
  5
10E
  8
0
 10
614.87829396970756
 20
244.72727772983461
 30
0.0
 40
0.999999999999996
 50
22.50014278515572
 51
202.49985721484339
  0
LINE
  5
10F
  8
0
 10
613.95441348352188
 20
244.34459659984299
 30
0.0
 11
615.1024647342914
 21
241.5729556999357
 31
0.0
  0
LINE
  5
110
  8
0
 10
615.80217254854438
 20
245.10996346457321
 30
0.0
 11
616.95022379931402
 21
242.33832256466579
 31
0.0
  0
LINE
  5
111
  8
0
 10
615.1024647342914
 20
241.57295569993559
 30
0.0
 11
616.95022379931436
 21
242.33832256466599
 31
0.0
  0
ARC
  5
112
  8
0
 10
607.95237107942296
 20
199.6407519145973
 30
0.0
 40
5.0
 50
233.4171007864974
 51
273.32175037594931
  0
ARC
  5
113
  8
0
 10
599.60857778281729
 20
199.6407519145973
 30
0.0
 40
5.0
 50
266.67824962405069
 51
306.58289921350263
  0
ARC
  5
114
  8
0
 10
603.78047443112018
 20
194.01978417266179
 30
0.0
 40
2.0
 50
53.417100786498253
 51
126.5828992135017
  0
ARC
  5
115
  8
0
 10
592.08799543412692
 20
334.83771281575451
 30
0.0
 40
3.0
 50
314.99999999999932
 51
25.917875196420201
  0
ARC
  5
116
  8
0
 10
598.09840307421575
 20
328.827305175672
 30
0.0
 40
3.0
 50
64.082124803602369
 51
135.0
  0
ARC
  5
117
  8
0
 10
599.53047443112007
 20
328.23412179735629
 30
0.0
 40
3.0
 50
0.0
 51
70.917875196397091
  0
ARC
  5
118
  8
0
 10
608.03047443112007
 20
328.23412179735868
 30
0.0
 40
3.0
 50
109.08212480360611
 51
180.0
  0
ARC
  5
119
  8
0
 10
615.47295342811344
 20
334.83771281575451
 30
0.0
 40
3.0
 50
154.0821248035798
 51
225.00000000000071
  0
ARC
  5
11A
  8
0
 10
609.4625457880245
 20
328.827305175672
 30
0.0
 40
3.0
 50
45.0
 51
115.9178751963976
  0
LINE
  5
11B
  8
0
 10
627.78047443111996
 20
318.28755110425749
 30
0.0
 11
613.35163308455378
 21
332.71639247219468
 31
0.0
  0
LINE
  5
11C
  8
0
 10
624.34068386714125
 20
318.19180778367462
 30
0.0
 11
611.58386613158405
 21
330.94862551923171
 31
0.0
  0
LINE
  5
11D
  8
0
 10
619.84143766623947
 20
285.81298045481458
 30
0.0
 11
647.9746444405821
 21
313.94618722915737
 31
0.0
  0
LINE
  5
11E
  8
0
 10
618.07367071327349
 20
287.58074740778147
 30
0.0
 11
646.20687748761588
 21
315.71395418212381
 31
0.0
  0
ARC
  5
11F
  8
0
 10
647.09076477879626
 20
314.83007452033792
 30
0.0
 40
1.250000000000008
 50
314.99975272073999
 51
135.00024727926001
  0
LINE
  5
120
  8
0
 10
625.24410646300134
 20
270.26978417266179
 30
0.0
 11
665.03046903632367
 21
270.26978417266179
 31
0.0
  0
LINE
  5
121
  8
0
 10
625.24410646300214
 20
272.7697841726619
 30
0.0
 11
665.03046903632367
 21
272.7697841726619
 31
0.0
  0
ARC
  5
122
  8
0
 10
665.03047443112018
 20
271.5197841726619
 30
0.0
 40
1.250000000000008
 50
269.99975272073999
 51
90.000247279260009
  0
LINE
  5
123
  8
0
 10
618.07367071327303
 20
255.45882093754261
 30
0.0
 11
646.20687748761577
 21
227.32561416319979
 31
0.0
  0
LINE
  5
124
  8
0
 10
619.84143766623993
 20
257.22658789050848
 30
0.0
 11
647.9746444405821
 21
229.0933811161662
 31
0.0
  0
ARC
  5
125
  8
0
 10
647.09076477879626
 20
228.2094938249858
 30
0.0
 40
1.250000000000008
 50
224.99975272073999
 51
45.000247279260009
  0
LINE
  5
126
  8
0
 10
602.53047443112018
 20
250.0561521407806
 30
0.0
 11
602.53047443112018
 21
210.26978956745839
 31
0.0
  0
LINE
  5
127
  8
0
 10
605.03047443112007
 20
250.05615214077989
 30
0.0
 11
605.03047443112007
 21
210.26978956745839
 31
0.0
  0
ARC
  5
128
  8
0
 10
603.78047443112018
 20
210.2697841726619
 30
0.0
 40
1.250000000000008
 50
179.99975272073999
 51
0.0002472792600133
  0
LINE
  5
129
  8
0
 10
587.71951119600078
 20
257.22658789050899
 30
0.0
 11
559.58630442165816
 21
229.09338111616631
 31
0.0
  0
LINE
  5
12A
  8
0
 10
589.48727814896677
 20
255.45882093754221
 30
0.0
 11
561.35407137462437
 21
227.3256141631999
 31
0.0
  0
ARC
  5
12B
  8
0
 10
560.47018408344411
 20
228.2094938249858
 30
0.0
 40
1.250000000000008
 50
134.99975272073999
 51
315.00024727926001
  0
LINE
  5
12C
  8
0
 10
582.31684239923891
 20
272.7697841726619
 30
0.0
 11
542.53047982591659
 21
272.7697841726619
 31
0.0
  0
LINE
  5
12D
  8
0
 10
582.31684239923823
 20
270.26978417266179
 30
0.0
 11
542.53047982591659
 21
270.26978417266179
 31
0.0
  0
ARC
  5
12E
  8
0
 10
542.53047443112007
 20
271.51978417266179
 30
0.0
 40
1.250000000000008
 50
89.999752720739991
 51
270.00024727926001
  0
LINE
  5
12F
  8
0
 10
589.48727814896733
 20
287.58074740778108
 30
0.0
 11
561.35407137462448
 21
315.71395418212393
 31
0.0
  0
LINE
  5
130
  8
0
 10
587.71951119600044
 20
285.8129804548152
 30
0.0
 11
559.58630442165816
 21
313.94618722915749
 31
0.0
  0
ARC
  5
131
  8
0
 10
560.47018408344411
 20
314.83007452033792
 30
0.0
 40
1.250000000000008
 50
44.999752720739977
 51
225.00024727926001
  0
LINE
  5
132
  8
0
 10
605.03047443112007
 20
292.98341620454312
 30
0.0
 11
605.03047443112007
 21
328.23412179735868
 31
0.0
  0
LINE
  5
133
  8
0
 10
602.53047443112018
 20
292.9834162045438
 30
0.0
 11
602.53047443112018
 21
328.23412179735629
 31
0.0
  0
ARC
  5
134
  8
0
 10
594.89047240041953
 20
346.99804504222709
 30
0.0
 40
1.0
 50
323.91868657863978
 51
96.717478802001224
  0
ARC
  5
135
  8
0
 10
612.67047646182095
 20
346.99804504222698
 30
0.0
 40
1.0
 50
83.282521197999174
 51
216.08131342135951
  0
ARC
  5
136
  8
0
 10
603.78047443112018
 20
340.51978417266201
 30
0.0
 40
10.00000000000005
 50
143.91868657863989
 51
36.081313421359908
  0
CIRCLE
  5
137
  8
0
 10
603.78047443112018
 20
340.51978417266201
 30
0.0
 40
5.5
  0
LINE
  5
138
  8
1
 10
513.78047443111996
 20
271.51978417266179
 30
0.0
 11
693.78047443112041
 21
271.51978417266179
 31
0.0
  0
LINE
  5
139
  8
1
 10
603.78047443112018
 20
361.51978417266213
 30
0.0
 11
603.78047443112018
 21
181.51978417266159
 31
0.0
  0
CIRCLE
  5
13A
  8
0
 10
603.78047443112018
 20
271.51978417266179
 30
0.0
 40
15.99999999999997
  0
CIRCLE
  5
13B
  8
0
 10
603.78047443112018
 20
271.51978417266179
 30
0.0
 40
17.0
  0
CIRCLE
  5
13C
  8
0
 10
603.78047443112018
 20
271.51978417266179
 30
0.0
 40
21.50000000000006
  0
ARC
  5
13D
  8
0
 10
603.78047443112018
 20
271.51978417266179
 30
0.0
 40
62.499999999999972
 50
98.357067337179771
 51
81.642932662820215
  0
ARC
  5
13E
  8
0
 10
603.78047443112018
 20
271.51978417266179
 30
0.0
 40
77.000000000000014
 50
272.61690673570467
 51
285.3830885756384
  0
CIRCLE
  5
13F
  8
0
 10
603.78047443112018
 20
271.51978417266179
 30
0.0
 40
78.499999999999929
  0
CIRCLE
  5
140
  8
0
 10
603.78047443112018
 20
271.51978417266179
 30
0.0
 40
79.999999999999943
  0
LINE
  5
141
  8
1
 10
583.78047443112018
 20
340.5197841726619
 30
0.0
 11
623.78047443111996
 21
340.5197841726619
 31
0.0
  0
CIRCLE
  5
142
  8
0
 10
603.78047443112018
 20
340.5197841726619
 30
0.0
 40
4.1879999999999988
  0
CIRCLE
  5
143
  8
2
 10
603.78047443112018
 20
340.5197841726619
 30
0.0
 40
5.9999999999999432
  0
CIRCLE
  5
144
  8
3
 10
603.78047443112018
 20
340.5197841726619
 30
0.0
 40
5.0
  0
LINE
  5
145
  8
0
 10
380.50521405929351
 20
270.26978417266179
 30
0.0
 11
367.35401181640952
 21
270.26978417266179
 31
0.0
  0
LINE
  5
146
  8
0
 10
380.50521405929362
 20
272.7697841726619
 30
0.0
 11
367.35401181640952
 21
272.7697841726619
 31
0.0
  0
LINE
  5
147
  8
0
 10
380.50521405929351
 20
287.58074740777931
 30
0.0
 11
378.2509736107167
 21
287.58074740777931
 31
0.0
  0
LINE
  5
148
  8
0
 10
380.50521405929362
 20
285.81298045481481
 30
0.0
 11
378.2509736107167
 21
285.81298045481481
 31
0.0
  0
LINE
  5
149
  8
0
 10
367.35401181640952
 20
296.51364710854392
 30
0.0
 11
373.81488960454368
 21
287.71927901143562
 31
0.0
  0
ARC
  5
14A
  8
0
 10
378.2509736107167
 20
291.92766155128948
 30
0.0
 40
6.1146810964735412
 50
223.4911368599229
 51
270.0
  0
ARC
  5
14B
  8
0
 10
378.25097361071693
 20
293.69542850425461
 30
0.0
 40
6.1146810964739604
 50
254.98564990629751
 51
269.99999999999841
  0
LINE
  5
14C
  8
0
 10
367.35401181640952
 20
300.46594031728762
 30
0.0
 11
376.66689846022717
 21
287.78949667014189
 31
0.0
  0
LINE
  5
14D
  8
0
 10
367.35401181640952
 20
242.5736280280363
 30
0.0
 11
376.66689846022717
 21
255.2500716751818
 31
0.0
  0
ARC
  5
14E
  8
0
 10
378.25097361071693
 20
249.34413984106931
 30
0.0
 40
6.1146810964739604
 50
90.000000000001592
 51
105.0143500937025
  0
ARC
  5
14F
  8
0
 10
378.2509736107167
 20
251.1119067940343
 30
0.0
 40
6.1146810964735412
 50
90.000000000000014
 51
136.5088631400771
  0
LINE
  5
150
  8
0
 10
367.35401181640952
 20
246.52592123677991
 30
0.0
 11
373.81488960454368
 21
255.3202893338883
 31
0.0
  0
LINE
  5
151
  8
0
 10
380.50521405929362
 20
257.22658789050888
 30
0.0
 11
378.2509736107167
 21
257.22658789050888
 31
0.0
  0
LINE
  5
152
  8
0
 10
380.50521405929351
 20
255.45882093754449
 30
0.0
 11
378.2509736107167
 21
255.45882093754449
 31
0.0
  0
ARC
  5
153
  8
0
 10
380.50521405929362
 20
245.01978417266179
 30
0.0
 40
5.0
 50
90.000000000000057
 51
152.5255683737231
  0
LINE
  5
154
  8
0
 10
376.0691300531206
 20
247.32654785587181
 30
0.0
 11
367.35401181640941
 21
230.56670509296549
 31
0.0
  0
ARC
  5
155
  8
0
 10
378.2509736107167
 20
245.01978417266179
 30
0.0
 40
5.0
 50
90.000000000000057
 51
152.5255683737231
  0
LINE
  5
156
  8
0
 10
373.81488960454379
 20
247.32654785587181
 30
0.0
 11
367.35401181640941
 21
234.90178287869051
 31
0.0
  0
LINE
  5
157
  8
0
 10
385.35401181640952
 20
250.0197841726619
 30
0.0
 11
378.2509736107167
 21
250.01978417266179
 31
0.0
  0
LINE
  5
158
  8
0
 10
385.35401181640952
 20
75.766187050359719
 30
0.0
 11
378.2509736107167
 21
75.766187050359662
 31
0.0
  0
LINE
  5
159
  8
0
 10
373.81488960454379
 20
73.072950733569627
 30
0.0
 11
367.35401181640941
 21
60.648185756388422
 31
0.0
  0
ARC
  5
15A
  8
0
 10
378.2509736107167
 20
70.766187050359662
 30
0.0
 40
5.0
 50
90.000000000000057
 51
152.5255683737231
  0
LINE
  5
15B
  8
0
 10
376.0691300531206
 20
73.072950733569627
 30
0.0
 11
367.35401181640941
 21
56.313107970663367
 31
0.0
  0
ARC
  5
15C
  8
0
 10
380.50521405929362
 20
70.766187050359719
 30
0.0
 40
5.0
 50
90.000000000000057
 51
152.5255683737231
  0
LINE
  5
15D
  8
0
 10
380.50521405929351
 20
81.205223815242377
 30
0.0
 11
378.2509736107167
 21
81.20522381524242
 31
0.0
  0
LINE
  5
15E
  8
0
 10
380.50521405929362
 20
82.972990768206813
 30
0.0
 11
378.2509736107167
 21
82.972990768206813
 31
0.0
  0
LINE
  5
15F
  8
0
 10
367.35401181640952
 20
72.272324114477755
 30
0.0
 11
373.81488960454368
 21
81.066692211586115
 31
0.0
  0
ARC
  5
160
  8
0
 10
378.2509736107167
 20
76.858309671732201
 30
0.0
 40
6.1146810964735412
 50
90.000000000000014
 51
136.5088631400771
  0
ARC
  5
161
  8
0
 10
378.25097361071693
 20
75.090542718767125
 30
0.0
 40
6.1146810964739604
 50
90.000000000001592
 51
105.0143500937025
  0
LINE
  5
162
  8
0
 10
367.35401181640952
 20
68.320030905734114
 30
0.0
 11
376.66689846022717
 21
80.996474552879732
 31
0.0
  0
LINE
  5
163
  8
0
 10
367.35401181640952
 20
126.21234319498539
 30
0.0
 11
376.66689846022717
 21
113.5358995478398
 31
0.0
  0
ARC
  5
164
  8
0
 10
378.25097361071693
 20
119.4418313819524
 30
0.0
 40
6.1146810964739604
 50
254.98564990629751
 51
269.99999999999841
  0
ARC
  5
165
  8
0
 10
378.2509736107167
 20
117.67406442898729
 30
0.0
 40
6.1146810964735412
 50
223.4911368599229
 51
270.0
  0
LINE
  5
166
  8
0
 10
367.35401181640952
 20
122.2600499862418
 30
0.0
 11
373.81488960454368
 21
113.46568188913341
 31
0.0
  0
LINE
  5
167
  8
0
 10
380.50521405929362
 20
111.5593833325127
 30
0.0
 11
378.2509736107167
 21
111.5593833325127
 31
0.0
  0
LINE
  5
168
  8
0
 10
380.50521405929351
 20
113.3271502854772
 30
0.0
 11
378.2509736107167
 21
113.3271502854771
 31
0.0
  0
LINE
  5
169
  8
0
 10
380.50521405929362
 20
98.516187050359719
 30
0.0
 11
367.35401181640952
 21
98.516187050359719
 31
0.0
  0
LINE
  5
16A
  8
0
 10
380.50521405929351
 20
96.016187050359719
 30
0.0
 11
367.35401181640952
 21
96.016187050359719
 31
0.0
  0
LINE
  5
16B
  8
0
 10
400.35401181640952
 20
114.2661870503598
 30
0.0
 11
400.35401181640952
 21
80.266187050359747
 31
0.0
  0
LINE
  5
16C
  8
0
 10
365.85401181640941
 20
177.26618705035969
 30
0.0
 11
365.85401181640913
 21
17.266187050359719
 31
0.0
  0
LINE
  5
16D
  8
0
 10
350.85401181640952
 20
177.26618705035969
 30
0.0
 11
350.85401181640918
 21
17.26618705035974
 31
0.0
  0
LINE
  5
16E
  8
0
 10
350.85401181640952
 20
17.26618705035974
 30
0.0
 11
365.85401181640952
 21
17.266187050359719
 31
0.0
  0
LINE
  5
16F
  8
0
 10
350.85401181640952
 20
17.26618705035974
 30
0.0
 11
349.35401181640952
 21
18.766187050359751
 31
0.0
  0
LINE
  5
170
  8
0
 10
365.85401181640952
 20
17.266187050359719
 30
0.0
 11
367.35401181640941
 21
18.766187050359719
 31
0.0
  0
ARC
  5
171
  8
0
 10
380.50521405929362
 20
123.7661870503598
 30
0.0
 40
5.0
 50
207.4744316262769
 51
269.99999999999989
  0
LINE
  5
172
  8
0
 10
376.0691300531206
 20
121.4594233671499
 30
0.0
 11
367.35401181640941
 21
138.21926613005621
 31
0.0
  0
ARC
  5
173
  8
0
 10
378.2509736107167
 20
123.7661870503599
 30
0.0
 40
5.0
 50
207.47443162627681
 51
269.99999999999989
  0
LINE
  5
174
  8
0
 10
373.81488960454379
 20
121.4594233671499
 30
0.0
 11
367.35401181640941
 21
133.88418834433111
 31
0.0
  0
LINE
  5
175
  8
0
 10
365.85401181640952
 20
177.26618705035969
 30
0.0
 11
367.35401181640941
 21
175.76618705035969
 31
0.0
  0
LINE
  5
176
  8
0
 10
350.85401181640952
 20
177.26618705035969
 30
0.0
 11
349.35401181640952
 21
175.76618705035969
 31
0.0
  0
LINE
  5
177
  8
0
 10
385.35401181640952
 20
118.7661870503598
 30
0.0
 11
378.2509736107167
 21
118.7661870503599
 31
0.0
  0
LINE
  5
178
  8
0
 10
385.35401181640952
 20
118.7661870503599
 30
0.0
 11
385.35401181640901
 21
75.76618705035969
 31
0.0
  0
LINE
  5
179
  8
0
 10
385.35401181640952
 20
114.2661870503598
 30
0.0
 11
400.35401181640952
 21
114.2661870503598
 31
0.0
  0
LINE
  5
17A
  8
0
 10
385.35401181640913
 20
80.266187050359747
 30
0.0
 11
400.35401181640952
 21
80.266187050359747
 31
0.0
  0
LINE
  5
17B
  8
0
 10
401.35401181640952
 20
113.2661870503598
 30
0.0
 11
401.35401181640952
 21
81.266187050359747
 31
0.0
  0
LINE
  5
17C
  8
0
 10
401.35401181640952
 20
113.2661870503598
 30
0.0
 11
400.35401181640952
 21
114.2661870503598
 31
0.0
  0
LINE
  5
17D
  8
0
 10
401.35401181640952
 20
81.266187050359747
 30
0.0
 11
400.35401181640952
 21
80.266187050359747
 31
0.0
  0
LINE
  5
17E
  8
0
 10
367.35401181640952
 20
18.766187050359768
 30
0.0
 11
367.35401181640941
 21
175.76618705035969
 31
0.0
  0
LINE
  5
17F
  8
0
 10
350.85401181640952
 20
177.26618705035969
 30
0.0
 11
365.85401181640952
 21
177.26618705035969
 31
0.0
  0
LINE
  5
180
  8
0
 10
349.35401181640952
 20
18.766187050359768
 30
0.0
 11
349.35401181640952
 21
175.76618705035969
 31
0.0
  0
LINE
  5
181
  8
1
 10
339.35401181640981
 20
97.266187050359719
 30
0.0
 11
411.35401181640867
 21
97.266187050359775
 31
0.0
  0
LINE
  5
182
  8
1
 10
339.35401181640981
 20
445.77338129496411
 30
0.0
 11
411.35401181640867
 21
445.773381294964
 31
0.0
  0
LINE
  5
183
  8
0
 10
349.35401181640952
 20
524.273381294964
 30
0.0
 11
349.35401181640952
 21
367.273381294964
 31
0.0
  0
LINE
  5
184
  8
0
 10
350.85401181640952
 20
365.773381294964
 30
0.0
 11
365.85401181640952
 21
365.773381294964
 31
0.0
  0
LINE
  5
185
  8
0
 10
367.35401181640952
 20
524.273381294964
 30
0.0
 11
367.35401181640941
 21
367.273381294964
 31
0.0
  0
LINE
  5
186
  8
0
 10
401.35401181640952
 20
461.773381294964
 30
0.0
 11
400.35401181640952
 21
462.77338129496411
 31
0.0
  0
LINE
  5
187
  8
0
 10
401.35401181640952
 20
429.773381294964
 30
0.0
 11
400.35401181640952
 21
428.773381294964
 31
0.0
  0
LINE
  5
188
  8
0
 10
401.35401181640952
 20
429.773381294964
 30
0.0
 11
401.35401181640952
 21
461.773381294964
 31
0.0
  0
LINE
  5
189
  8
0
 10
385.35401181640913
 20
462.77338129496411
 30
0.0
 11
400.35401181640952
 21
462.77338129496411
 31
0.0
  0
LINE
  5
18A
  8
0
 10
385.35401181640952
 20
428.773381294964
 30
0.0
 11
400.35401181640952
 21
428.773381294964
 31
0.0
  0
LINE
  5
18B
  8
0
 10
385.35401181640952
 20
424.27338129496383
 30
0.0
 11
385.35401181640901
 21
467.273381294964
 31
0.0
  0
LINE
  5
18C
  8
0
 10
385.35401181640952
 20
424.273381294964
 30
0.0
 11
378.2509736107167
 21
424.27338129496383
 31
0.0
  0
LINE
  5
18D
  8
0
 10
350.85401181640952
 20
365.773381294964
 30
0.0
 11
349.35401181640952
 21
367.273381294964
 31
0.0
  0
LINE
  5
18E
  8
0
 10
365.85401181640952
 20
365.773381294964
 30
0.0
 11
367.35401181640941
 21
367.273381294964
 31
0.0
  0
LINE
  5
18F
  8
0
 10
373.81488960454379
 20
421.58014497817379
 30
0.0
 11
367.35401181640941
 21
409.15538000099258
 31
0.0
  0
ARC
  5
190
  8
0
 10
378.2509736107167
 20
419.27338129496383
 30
0.0
 40
5.0
 50
90.000000000000057
 51
152.5255683737231
  0
LINE
  5
191
  8
0
 10
376.0691300531206
 20
421.58014497817379
 30
0.0
 11
367.35401181640941
 21
404.82030221526759
 31
0.0
  0
ARC
  5
192
  8
0
 10
380.50521405929362
 20
419.27338129496388
 30
0.0
 40
5.0
 50
90.000000000000057
 51
152.5255683737231
  0
LINE
  5
193
  8
0
 10
365.85401181640952
 20
525.773381294964
 30
0.0
 11
367.35401181640941
 21
524.27338129496411
 31
0.0
  0
LINE
  5
194
  8
0
 10
350.85401181640952
 20
525.773381294964
 30
0.0
 11
349.35401181640952
 21
524.27338129496411
 31
0.0
  0
LINE
  5
195
  8
0
 10
350.85401181640952
 20
525.773381294964
 30
0.0
 11
365.85401181640952
 21
525.773381294964
 31
0.0
  0
LINE
  5
196
  8
0
 10
350.85401181640952
 20
365.773381294964
 30
0.0
 11
350.85401181640918
 21
525.773381294964
 31
0.0
  0
LINE
  5
197
  8
0
 10
365.85401181640941
 20
365.773381294964
 30
0.0
 11
365.85401181640913
 21
525.773381294964
 31
0.0
  0
LINE
  5
198
  8
0
 10
400.35401181640952
 20
428.773381294964
 30
0.0
 11
400.35401181640952
 21
462.77338129496411
 31
0.0
  0
LINE
  5
199
  8
0
 10
380.50521405929351
 20
447.02338129496411
 30
0.0
 11
367.35401181640952
 21
447.02338129496411
 31
0.0
  0
LINE
  5
19A
  8
0
 10
380.50521405929362
 20
444.523381294964
 30
0.0
 11
367.35401181640952
 21
444.523381294964
 31
0.0
  0
LINE
  5
19B
  8
0
 10
380.50521405929351
 20
429.71241805984658
 30
0.0
 11
378.2509736107167
 21
429.71241805984658
 31
0.0
  0
LINE
  5
19C
  8
0
 10
380.50521405929362
 20
431.48018501281098
 30
0.0
 11
378.2509736107167
 21
431.48018501281098
 31
0.0
  0
LINE
  5
19D
  8
0
 10
367.35401181640952
 20
420.77951835908192
 30
0.0
 11
373.81488960454368
 21
429.57388645619028
 31
0.0
  0
ARC
  5
19E
  8
0
 10
378.2509736107167
 20
425.36550391633648
 30
0.0
 40
6.1146810964735412
 50
90.000000000000014
 51
136.5088631400771
  0
ARC
  5
19F
  8
0
 10
378.25097361071693
 20
423.59773696337129
 30
0.0
 40
6.1146810964739604
 50
90.000000000001592
 51
105.0143500937025
  0
LINE
  5
1A0
  8
0
 10
367.35401181640952
 20
416.82722515033828
 30
0.0
 11
376.66689846022717
 21
429.50366879748401
 31
0.0
  0
LINE
  5
1A1
  8
0
 10
367.35401181640952
 20
474.71953743958971
 30
0.0
 11
376.66689846022717
 21
462.0430937924441
 31
0.0
  0
ARC
  5
1A2
  8
0
 10
378.25097361071693
 20
467.9490256265567
 30
0.0
 40
6.1146810964739604
 50
254.98564990629751
 51
269.99999999999841
  0
ARC
  5
1A3
  8
0
 10
378.2509736107167
 20
466.18125867359163
 30
0.0
 40
6.1146810964735412
 50
223.4911368599229
 51
270.0
  0
LINE
  5
1A4
  8
0
 10
367.35401181640952
 20
470.76724423084602
 30
0.0
 11
373.81488960454368
 21
461.97287613373771
 31
0.0
  0
LINE
  5
1A5
  8
0
 10
380.50521405929362
 20
460.0665775771169
 30
0.0
 11
378.2509736107167
 21
460.0665775771169
 31
0.0
  0
LINE
  5
1A6
  8
0
 10
380.50521405929351
 20
461.83434453008152
 30
0.0
 11
378.2509736107167
 21
461.8343445300813
 31
0.0
  0
ARC
  5
1A7
  8
0
 10
380.50521405929362
 20
472.273381294964
 30
0.0
 40
5.0
 50
207.4744316262769
 51
269.99999999999989
  0
LINE
  5
1A8
  8
0
 10
376.0691300531206
 20
469.96661761175409
 30
0.0
 11
367.35401181640941
 21
486.72646037466041
 31
0.0
  0
ARC
  5
1A9
  8
0
 10
378.2509736107167
 20
472.273381294964
 30
0.0
 40
5.0
 50
207.47443162627681
 51
269.99999999999989
  0
LINE
  5
1AA
  8
0
 10
373.81488960454379
 20
469.96661761175409
 30
0.0
 11
367.35401181640941
 21
482.3913825889353
 31
0.0
  0
LINE
  5
1AB
  8
0
 10
385.35401181640952
 20
467.273381294964
 30
0.0
 11
378.2509736107167
 21
467.273381294964
 31
0.0
  0
TEXT
  5
2F3
  8
0
 62
     3
 10
0.0
 20
0.0
 30
0.0
 40
10.0
  1
NSP160
  7
STANDARD1
  0
ENDSEC
  0
EOF
