  0
SECTION
  2
HEADER
  9
$ACADVER
  1
AC1009
  9
$INSBASE
 10
0.0
 20
0.0
 30
0.0
  9
$EXTMIN
 10
0.0
 20
-2.960436562073669
 30
0.0
  9
$EXTMAX
 10
625.0
 20
554.49999999999989
 30
0.0
  9
$LIMMIN
 10
0.0
 20
0.0
  9
$LIMMAX
 10
750.0
 20
540.0
  9
$ORTHOMODE
 70
     1
  9
$REGENMODE
 70
     1
  9
$FILLMODE
 70
     1
  9
$QTEXTMODE
 70
     0
  9
$MIRRTEXT
 70
     0
  9
$DRAGMODE
 70
     2
  9
$LTSCALE
 40
20.0
  9
$OSMODE
 70
    37
  9
$ATTMODE
 70
     1
  9
$TEXTSIZE
 40
0.2
  9
$TRACEWID
 40
0.05
  9
$TEXTSTYLE
  7
STANDARD
  9
$CLAYER
  8
0
  9
$CELTYPE
  6
BYLAYER
  9
$CECOLOR
 62
   256
  9
$DIMSCALE
 40
2.0
  9
$DIMASZ
 40
3.0
  9
$DIMEXO
 40
2.0
  9
$DIMDLI
 40
0.38
  9
$DIMRND
 40
0.0
  9
$DIMDLE
 40
0.0
  9
$DIMEXE
 40
2.0
  9
$DIMTP
 40
0.0
  9
$DIMTM
 40
0.0
  9
$DIMTXT
 40
3.2000000000000002
  9
$DIMCEN
 40
0.0
  9
$DIMTSZ
 40
0.0
  9
$DIMTOL
 70
     0
  9
$DIMLIM
 70
     0
  9
$DIMTIH
 70
     0
  9
$DIMTOH
 70
     0
  9
$DIMSE1
 70
     0
  9
$DIMSE2
 70
     0
  9
$DIMTAD
 70
     1
  9
$DIMZIN
 70
     0
  9
$DIMBLK
  1

  9
$DIMASO
 70
     1
  9
$DIMSHO
 70
     0
  9
$DIMPOST
  1

  9
$DIMAPOST
  1

  9
$DIMALT
 70
     0
  9
$DIMALTD
 70
     2
  9
$DIMALTF
 40
25.399999999999999
  9
$DIMLFAC
 40
1.0
  9
$DIMTOFL
 70
     1
  9
$DIMTVP
 40
1.6000000000000001
  9
$DIMTIX
 70
     1
  9
$DIMSOXD
 70
     0
  9
$DIMSAH
 70
     0
  9
$DIMBLK1
  1

  9
$DIMBLK2
  1

  9
$DIMSTYLE
  2
STANDARD
  9
$DIMCLRD
 70
     0
  9
$DIMCLRE
 70
     0
  9
$DIMCLRT
 70
     0
  9
$DIMTFAC
 40
1.0
  9
$DIMGAP
 40
0.09
  9
$LUNITS
 70
     2
  9
$LUPREC
 70
     4
  9
$SKETCHINC
 40
0.1
  9
$FILLETRAD
 40
4.0
  9
$AUNITS
 70
     0
  9
$AUPREC
 70
     4
  9
$MENU
  1
E:\r13\win\SUPPORT\ACAD
  9
$ELEVATION
 40
0.0
  9
$PELEVATION
 40
0.0
  9
$THICKNESS
 40
0.0
  9
$LIMCHECK
 70
     0
  9
$BLIPMODE
 70
     0
  9
$CHAMFERA
 40
0.0
  9
$CHAMFERB
 40
0.0
  9
$SKPOLY
 70
     0
  9
$TDCREATE
 40
2449839.780439815
  9
$TDUPDATE
 40
2457637.5633694911
  9
$TDINDWG
 40
0.039810081
  9
$TDUSRTIMER
 40
0.039810081
  9
$USRTIMER
 70
     1
  9
$ANGBASE
 50
0.0
  9
$ANGDIR
 70
     0
  9
$PDMODE
 70
     0
  9
$PDSIZE
 40
0.0
  9
$PLINEWID
 40
0.0
  9
$COORDS
 70
     1
  9
$SPLFRAME
 70
     0
  9
$SPLINETYPE
 70
     6
  9
$SPLINESEGS
 70
     8
  9
$ATTDIA
 70
     0
  9
$ATTREQ
 70
     1
  9
$HANDLING
 70
     1
  9
$HANDSEED
  5
788
  9
$SURFTAB1
 70
     6
  9
$SURFTAB2
 70
     6
  9
$SURFTYPE
 70
     6
  9
$SURFU
 70
     6
  9
$SURFV
 70
     6
  9
$UCSNAME
  2

  9
$UCSORG
 10
0.0
 20
0.0
 30
0.0
  9
$UCSXDIR
 10
1.0
 20
0.0
 30
0.0
  9
$UCSYDIR
 10
0.0
 20
1.0
 30
0.0
  9
$PUCSNAME
  2

  9
$PUCSORG
 10
0.0
 20
0.0
 30
0.0
  9
$PUCSXDIR
 10
1.0
 20
0.0
 30
0.0
  9
$PUCSYDIR
 10
0.0
 20
1.0
 30
0.0
  9
$USERI1
 70
     0
  9
$USERI2
 70
     1
  9
$USERI3
 70
     1
  9
$USERI4
 70
     0
  9
$USERI5
 70
     0
  9
$USERR1
 40
0.0
  9
$USERR2
 40
0.0
  9
$USERR3
 40
0.0
  9
$USERR4
 40
0.0
  9
$USERR5
 40
0.0
  9
$WORLDVIEW
 70
     1
  9
$SHADEDGE
 70
     3
  9
$SHADEDIF
 70
    70
  9
$TILEMODE
 70
     1
  9
$MAXACTVP
 70
    16
  9
$PLIMCHECK
 70
     0
  9
$PEXTMIN
 10
1.0000000000000000E+020
 20
1.0000000000000000E+020
 30
1.0000000000000000E+020
  9
$PEXTMAX
 10
-1.0000000000000000E+020
 20
-1.0000000000000000E+020
 30
-1.0000000000000000E+020
  9
$PLIMMIN
 10
0.0
 20
0.0
  9
$PLIMMAX
 10
12.0
 20
9.0
  9
$UNITMODE
 70
     0
  9
$VISRETAIN
 70
     0
  9
$PLINEGEN
 70
     0
  9
$PSLTSCALE
 70
     0
  0
ENDSEC
  0
SECTION
  2
TABLES
  0
TABLE
  2
VPORT
 70
     1
  0
VPORT
  2
*ACTIVE
 70
     0
 10
0.0
 20
0.0
 11
1.0
 21
1.0
 12
383.28767485565078
 22
275.79059914060548
 13
0.0
 23
0.0
 14
20.0
 24
20.0
 15
20.0
 25
20.0
 16
0.0
 26
0.0
 36
1.0
 17
0.0
 27
0.0
 37
0.0
 40
479.18200764523931
 41
1.368715083798882
 42
50.0
 43
0.0
 44
0.0
 50
0.0
 51
0.0
 71
     0
 72
   500
 73
     1
 74
     0
 75
     0
 76
     0
 77
     0
 78
     2
  0
ENDTAB
  0
TABLE
  2
LTYPE
 70
     3
  0
LTYPE
  2
CONTINUOUS
 70
     0
  3
Solid Line
 72
    65
 73
     0
 40
0.0
  0
LTYPE
  2
CENTER
 70
     0
  3
____ _ ____ _ ____ _ ____ _ ____ _ ____ _ ____
 72
    65
 73
     4
 40
2.0
 49
1.25
 49
-0.25
 49
0.25
 49
-0.25
  0
LTYPE
  2
PHANTOM2
 70
     0
  3
___ _ _ ___ _ _ ___ _ _ ___ _ _
 72
    65
 73
     6
 40
1.25
 49
0.625
 49
-0.125
 49
0.125
 49
-0.125
 49
0.125
 49
-0.125
  0
ENDTAB
  0
TABLE
  2
LAYER
 70
     3
  0
LAYER
  2
0
 70
     0
 62
     7
  6
CONTINUOUS
  0
LAYER
  2
1
 70
     0
 62
     1
  6
CENTER
  0
LAYER
  2
DEFPOINTS
 70
     0
 62
     7
  6
CONTINUOUS
  0
ENDTAB
  0
TABLE
  2
STYLE
 70
     2
  0
STYLE
  2
STANDARD
 70
     0
 40
0.0
 41
1.0
 50
0.0
 71
     0
 42
0.2
  3
TXT
  4
BIGFONT
  0
STYLE
  2
STANDARD1
 70
     0
 40
0.0
 41
1.0
 50
0.0
 71
     0
 42
3.0
  3
txt
  4

  0
ENDTAB
  0
TABLE
  2
VIEW
 70
     1
  0
VIEW
  2
ALL
 70
     0
 40
540.0
 10
441.98319327731087
 20
270.0
 41
0.0
 11
0.0
 21
0.0
 31
1.0
 12
0.0
 22
0.0
 32
0.0
 42
0.0
 43
0.0
 44
0.0
 50
0.0
 71
     0
  0
ENDTAB
  0
TABLE
  2
UCS
 70
     0
  0
ENDTAB
  0
TABLE
  2
APPID
 70
     4
  0
APPID
  2
ACAD
 70
     0
  0
APPID
  2
ACAD_EXEMPT_FROM_CAD_STANDARDS
 70
     0
  0
APPID
  2
ACAD_MLEADERVER
 70
     0
  0
APPID
  2
ACAD_NAV_VCDISPLAY
 70
     0
  0
ENDTAB
  0
TABLE
  2
DIMSTYLE
 70
     2
  0
DIMSTYLE
  2
STANDARD
 70
     0
  3

  4

  5

  6

  7

 40
1.0
 41
0.18
 42
0.0625
 43
0.38
 44
0.18
 45
0.0
 46
0.0
 47
0.0
 48
0.0
140
0.18
141
0.09
142
0.0
143
25.399999999999999
144
1.0
145
0.0
146
1.0
147
0.09
 71
     0
 72
     0
 73
     1
 74
     1
 75
     0
 76
     0
 77
     0
 78
     0
170
     0
171
     2
172
     0
173
     0
174
     0
175
     0
176
     0
177
     0
178
     0
  0
DIMSTYLE
  2
ISO-25
 70
     0
  3

  4

  5

  6

  7

 40
1.0
 41
2.5
 42
0.625
 43
3.75
 44
1.25
 45
0.0
 46
0.0
 47
0.0
 48
0.0
140
2.5
141
2.5
142
0.0
143
0.0393700787
144
1.0
145
0.0
146
1.0
147
0.625
 71
     0
 72
     0
 73
     0
 74
     0
 75
     0
 76
     0
 77
     1
 78
     8
170
     0
171
     3
172
     1
173
     0
174
     0
175
     0
176
     0
177
     0
178
     0
  0
ENDTAB
  0
ENDSEC
  0
SECTION
  2
BLOCKS
  0
BLOCK
  8
0
  2
$MODEL_SPACE
 70
     0
 10
0.0
 20
0.0
 30
0.0
  3
$MODEL_SPACE
  1

  0
ENDBLK
  5
D6
  8
0
  0
BLOCK
 67
     1
  8
0
  2
$PAPER_SPACE
 70
     0
 10
0.0
 20
0.0
 30
0.0
  3
$PAPER_SPACE
  1

  0
ENDBLK
  5
D4
 67
     1
  8
0
  0
ENDSEC
  0
SECTION
  2
ENTITIES
  0
TEXT
  5
4A1
  8
0
 62
     3
 10
0.0
 20
0.0
 30
0.0
 40
10.0
  1
NPSN250
  7
STANDARD1
  0
LINE
  5
5DF
  8
0
 10
424.50000332314988
 20
146.24980961890009
 30
0.0
 11
424.12907322404988
 21
167.50038076210009
 31
0.0
  0
LINE
  5
5E0
  8
0
 10
175.8709267759499
 20
167.50038076210009
 30
0.0
 11
175.49999667684989
 21
146.24980961890009
 31
0.0
  0
LINE
  5
5E1
  8
0
 10
175.49999667684989
 20
146.24980961890009
 30
0.0
 11
176.72818116885
 21
145.00000000000011
 31
0.0
  0
LINE
  5
5E2
  8
0
 10
423.27181883114997
 20
145.00000000000011
 30
0.0
 11
424.50000332314988
 21
146.24980961890009
 31
0.0
  0
LINE
  5
5E3
  8
0
 10
424.12907322404988
 20
167.50038076210009
 30
0.0
 11
421.58544220795011
 21
170.00000000000011
 31
0.0
  0
LINE
  5
5E4
  8
0
 10
178.41455779205
 20
170.00000000000011
 30
0.0
 11
175.8709267759499
 21
167.50038076210009
 31
0.0
  0
LINE
  5
5E5
  8
0
 10
230.4957411916499
 20
145.00000000000011
 30
0.0
 11
263.35505035835001
 21
133.0401895447001
 31
0.0
  0
LINE
  5
5E6
  8
0
 10
336.64494964164999
 20
133.0401895447001
 30
0.0
 11
369.50425880835007
 21
145.00000000000011
 31
0.0
  0
ARC
  5
5E7
  8
0
 10
337.49999999995009
 20
130.69095799280009
 30
0.0
 40
2.4999999999999432
 50
110.0000000000035
 51
180.0
  0
ARC
  5
5E8
  8
0
 10
262.49999999995009
 20
130.69095799280009
 30
0.0
 40
2.5
 50
0.0
 51
69.999999999996504
  0
LINE
  5
5E9
  8
0
 10
264.99999999995009
 20
130.69095799280009
 30
0.0
 11
264.99999999995009
 21
120.0000000000001
 31
0.0
  0
LINE
  5
5EA
  8
0
 10
334.99999999995009
 20
120.0000000000001
 30
0.0
 11
334.99999999995009
 21
130.69095799280009
 31
0.0
  0
LINE
  5
5EB
  8
0
 10
275.49999999995009
 20
105.7500000000001
 30
0.0
 11
276.24999999995009
 21
105.0000000000001
 31
0.0
  0
LINE
  5
5EC
  8
0
 10
323.74999999995009
 20
105.0000000000001
 30
0.0
 11
324.49999999995009
 21
105.7500000000001
 31
0.0
  0
LINE
  5
5ED
  8
0
 10
275.49999999995009
 20
120.0000000000001
 30
0.0
 11
275.49999999995009
 21
105.7500000000001
 31
0.0
  0
LINE
  5
5EE
  8
0
 10
324.49999999995009
 20
105.7500000000001
 30
0.0
 11
324.49999999995009
 21
120.0000000000001
 31
0.0
  0
LINE
  5
5EF
  8
0
 10
424.50000332314988
 20
146.24980961890009
 30
0.0
 11
175.49999667684989
 21
146.24980961890009
 31
0.0
  0
LINE
  5
5F0
  8
0
 10
424.12907322404988
 20
167.50038076210009
 30
0.0
 11
175.8709267759499
 21
167.50038076210009
 31
0.0
  0
LINE
  5
5F1
  8
0
 10
176.72818116885
 20
145.00000000000011
 30
0.0
 11
423.27181883114997
 21
145.00000000000011
 31
0.0
  0
LINE
  5
5F2
  8
0
 10
421.58544220795011
 20
170.00000000000011
 30
0.0
 11
178.41455779205
 21
170.00000000000011
 31
0.0
  0
LINE
  5
5F3
  8
0
 10
264.99999999995009
 20
120.0000000000001
 30
0.0
 11
334.99999999995009
 21
120.0000000000001
 31
0.0
  0
LINE
  5
5F4
  8
0
 10
276.24999999995009
 20
105.0000000000001
 30
0.0
 11
323.74999999995009
 21
105.0000000000001
 31
0.0
  0
LINE
  5
5F5
  8
0
 10
275.49999999995009
 20
105.7500000000001
 30
0.0
 11
324.49999999995009
 21
105.7500000000001
 31
0.0
  0
LINE
  5
5F6
  8
0
 10
263.35505035835001
 20
133.0401895447001
 30
0.0
 11
336.64494964164999
 21
133.0401895447001
 31
0.0
  0
LINE
  5
5F7
  8
0
 10
334.99999999995009
 20
130.69095799280009
 30
0.0
 11
264.99999999995009
 21
130.69095799280009
 31
0.0
  0
CIRCLE
  5
5F8
  8
0
 10
300.0
 20
420.0
 30
0.0
 40
121.585442207955
  0
CIRCLE
  5
5F9
  8
0
 10
300.0
 20
420.0
 30
0.0
 40
85.634415162545679
  0
CIRCLE
  5
5FA
  8
0
 10
300.0
 20
420.0
 30
0.0
 40
124.5000033231141
  0
CIRCLE
  5
5FB
  8
0
 10
300.0
 20
420.0
 30
0.0
 40
83.663807957240692
  0
CIRCLE
  5
5FC
  8
0
 10
300.0
 20
420.0
 30
0.0
 40
55.0
  0
CIRCLE
  5
5FD
  8
0
 10
300.0
 20
420.0
 30
0.0
 40
33.0
  0
LINE
  5
606
  8
1
 10
434.49999999999989
 20
420.0
 30
0.0
 11
165.5
 21
420.0
 31
0.0
  0
LINE
  5
607
  8
1
 10
300.0
 20
554.49999999999989
 30
0.0
 11
300.0
 21
285.5
 31
0.0
  0
LINE
  5
608
  8
1
 10
300.0
 20
94.999999999999943
 30
0.0
 11
300.0
 21
179.99999999999989
 31
0.0
  0
CIRCLE
  5
609
  8
0
 10
300.0
 20
420.0
 30
0.0
 40
20.0
  0
LINE
  5
60A
  8
0
 10
573.75019038109986
 20
544.50000332314994
 30
0.0
 11
552.49961923789976
 21
544.12907322404988
 31
0.0
  0
LINE
  5
60B
  8
0
 10
552.49961923789976
 20
295.8709267759499
 30
0.0
 11
573.75019038109986
 21
295.49999667684989
 31
0.0
  0
LINE
  5
60C
  8
0
 10
573.75019038109986
 20
295.49999667684989
 30
0.0
 11
575.0
 21
296.72818116885003
 31
0.0
  0
LINE
  5
60D
  8
0
 10
575.0
 20
543.27181883114997
 30
0.0
 11
573.75019038109986
 21
544.50000332314994
 31
0.0
  0
LINE
  5
60E
  8
0
 10
552.49961923789976
 20
544.12907322404988
 30
0.0
 11
550.0
 21
541.58544220795011
 31
0.0
  0
LINE
  5
60F
  8
0
 10
550.0
 20
298.41455779205
 30
0.0
 11
552.49961923789976
 21
295.8709267759499
 31
0.0
  0
LINE
  5
610
  8
0
 10
575.0
 20
350.49574119164993
 30
0.0
 11
586.95981045529993
 21
383.35505035835001
 31
0.0
  0
LINE
  5
611
  8
0
 10
586.95981045529993
 20
456.64494964164999
 30
0.0
 11
575.0
 21
489.50425880835007
 31
0.0
  0
ARC
  5
612
  8
0
 10
589.30904200719976
 20
457.49999999995009
 30
0.0
 40
2.4999999999999432
 50
200.0000000000019
 51
270.0
  0
ARC
  5
613
  8
0
 10
589.30904200719976
 20
382.49999999995009
 30
0.0
 40
2.5
 50
90.0
 51
159.99999999999801
  0
LINE
  5
614
  8
0
 10
589.30904200719976
 20
384.99999999995009
 30
0.0
 11
600.0
 21
384.99999999995009
 31
0.0
  0
LINE
  5
615
  8
0
 10
600.0
 20
454.99999999994998
 30
0.0
 11
589.30904200719976
 21
454.99999999994998
 31
0.0
  0
LINE
  5
616
  8
0
 10
614.25
 20
395.49999999995009
 30
0.0
 11
615.0
 21
396.24999999995009
 31
0.0
  0
LINE
  5
617
  8
0
 10
615.0
 20
443.74999999994998
 30
0.0
 11
614.25
 21
444.49999999995009
 31
0.0
  0
LINE
  5
618
  8
0
 10
600.0
 20
395.49999999995009
 30
0.0
 11
614.25
 21
395.49999999995009
 31
0.0
  0
LINE
  5
619
  8
0
 10
614.25
 20
444.49999999995009
 30
0.0
 11
600.0
 21
444.49999999995009
 31
0.0
  0
LINE
  5
61A
  8
0
 10
573.75019038109986
 20
544.50000332314994
 30
0.0
 11
573.75019038109986
 21
295.49999667684989
 31
0.0
  0
LINE
  5
61B
  8
0
 10
552.49961923789976
 20
544.12907322404988
 30
0.0
 11
552.49961923789976
 21
295.8709267759499
 31
0.0
  0
LINE
  5
61C
  8
0
 10
575.0
 20
296.72818116885003
 30
0.0
 11
575.0
 21
543.27181883114997
 31
0.0
  0
LINE
  5
61D
  8
0
 10
550.0
 20
541.58544220795011
 30
0.0
 11
550.0
 21
298.41455779205
 31
0.0
  0
LINE
  5
61E
  8
0
 10
600.0
 20
384.99999999995009
 30
0.0
 11
600.0
 21
454.99999999994998
 31
0.0
  0
LINE
  5
61F
  8
0
 10
615.0
 20
396.24999999995009
 30
0.0
 11
615.0
 21
443.74999999994998
 31
0.0
  0
LINE
  5
620
  8
0
 10
614.25
 20
395.49999999995009
 30
0.0
 11
614.25
 21
444.49999999995009
 31
0.0
  0
LINE
  5
621
  8
0
 10
586.95981045529993
 20
383.35505035835001
 30
0.0
 11
586.95981045529993
 21
456.64494964164999
 31
0.0
  0
LINE
  5
622
  8
0
 10
589.30904200719976
 20
454.99999999994998
 30
0.0
 11
589.30904200719976
 21
384.99999999995009
 31
0.0
  0
LINE
  5
623
  8
1
 10
625.0
 20
420.0
 30
0.0
 11
540.0
 21
420.0
 31
0.0
  0
ENDSEC
  0
EOF
