  0
SECTION
  2
HEADER
  9
$ACADVER
  1
AC1009
  9
$INSBASE
 10
0.0
 20
0.0
 30
0.0
  9
$EXTMIN
 10
0.0
 20
-2.960436562073669
 30
0.0
  9
$EXTMAX
 10
293.66779774236699
 20
237.5
 30
0.0
  9
$LIMMIN
 10
0.0
 20
0.0
  9
$LIMMAX
 10
270.0
 20
175.0
  9
$ORTHOMODE
 70
     1
  9
$REGENMODE
 70
     1
  9
$FILLMODE
 70
     1
  9
$QTEXTMODE
 70
     0
  9
$MIRRTEXT
 70
     0
  9
$DRAGMODE
 70
     2
  9
$LTSCALE
 40
10.0
  9
$OSMODE
 70
    37
  9
$ATTMODE
 70
     1
  9
$TEXTSIZE
 40
0.2
  9
$TRACEWID
 40
0.05
  9
$TEXTSTYLE
  7
STANDARD
  9
$CLAYER
  8
0
  9
$CELTYPE
  6
BYLAYER
  9
$CECOLOR
 62
   256
  9
$DIMSCALE
 40
1.0
  9
$DIMASZ
 40
3.0
  9
$DIMEXO
 40
2.0
  9
$DIMDLI
 40
0.38
  9
$DIMRND
 40
0.0
  9
$DIMDLE
 40
0.0
  9
$DIMEXE
 40
2.0
  9
$DIMTP
 40
0.0
  9
$DIMTM
 40
0.0
  9
$DIMTXT
 40
3.2000000000000002
  9
$DIMCEN
 40
0.0
  9
$DIMTSZ
 40
0.0
  9
$DIMTOL
 70
     0
  9
$DIMLIM
 70
     0
  9
$DIMTIH
 70
     0
  9
$DIMTOH
 70
     0
  9
$DIMSE1
 70
     0
  9
$DIMSE2
 70
     0
  9
$DIMTAD
 70
     1
  9
$DIMZIN
 70
     0
  9
$DIMBLK
  1

  9
$DIMASO
 70
     1
  9
$DIMSHO
 70
     0
  9
$DIMPOST
  1

  9
$DIMAPOST
  1

  9
$DIMALT
 70
     0
  9
$DIMALTD
 70
     2
  9
$DIMALTF
 40
25.399999999999999
  9
$DIMLFAC
 40
1.0
  9
$DIMTOFL
 70
     1
  9
$DIMTVP
 40
1.6000000000000001
  9
$DIMTIX
 70
     1
  9
$DIMSOXD
 70
     0
  9
$DIMSAH
 70
     0
  9
$DIMBLK1
  1

  9
$DIMBLK2
  1

  9
$DIMSTYLE
  2
STANDARD
  9
$DIMCLRD
 70
     0
  9
$DIMCLRE
 70
     0
  9
$DIMCLRT
 70
     0
  9
$DIMTFAC
 40
1.0
  9
$DIMGAP
 40
0.09
  9
$LUNITS
 70
     2
  9
$LUPREC
 70
     4
  9
$SKETCHINC
 40
0.1
  9
$FILLETRAD
 40
0.0
  9
$AUNITS
 70
     1
  9
$AUPREC
 70
     4
  9
$MENU
  1
E:\r13\win\SUPPORT\ACAD
  9
$ELEVATION
 40
0.0
  9
$PELEVATION
 40
0.0
  9
$THICKNESS
 40
0.0
  9
$LIMCHECK
 70
     0
  9
$BLIPMODE
 70
     0
  9
$CHAMFERA
 40
0.0
  9
$CHAMFERB
 40
0.0
  9
$SKPOLY
 70
     0
  9
$TDCREATE
 40
2449839.7803587969
  9
$TDUPDATE
 40
2457637.5625109491
  9
$TDINDWG
 40
0.0091849653
  9
$TDUSRTIMER
 40
0.0091849653
  9
$USRTIMER
 70
     1
  9
$ANGBASE
 50
0.0
  9
$ANGDIR
 70
     0
  9
$PDMODE
 70
     0
  9
$PDSIZE
 40
0.0
  9
$PLINEWID
 40
0.0
  9
$COORDS
 70
     1
  9
$SPLFRAME
 70
     0
  9
$SPLINETYPE
 70
     6
  9
$SPLINESEGS
 70
     8
  9
$ATTDIA
 70
     0
  9
$ATTREQ
 70
     1
  9
$HANDLING
 70
     1
  9
$HANDSEED
  5
56A
  9
$SURFTAB1
 70
     6
  9
$SURFTAB2
 70
     6
  9
$SURFTYPE
 70
     6
  9
$SURFU
 70
     6
  9
$SURFV
 70
     6
  9
$UCSNAME
  2

  9
$UCSORG
 10
0.0
 20
0.0
 30
0.0
  9
$UCSXDIR
 10
1.0
 20
0.0
 30
0.0
  9
$UCSYDIR
 10
0.0
 20
1.0
 30
0.0
  9
$PUCSNAME
  2

  9
$PUCSORG
 10
0.0
 20
0.0
 30
0.0
  9
$PUCSXDIR
 10
1.0
 20
0.0
 30
0.0
  9
$PUCSYDIR
 10
0.0
 20
1.0
 30
0.0
  9
$USERI1
 70
     0
  9
$USERI2
 70
     1
  9
$USERI3
 70
     1
  9
$USERI4
 70
     0
  9
$USERI5
 70
     0
  9
$USERR1
 40
0.0
  9
$USERR2
 40
0.0
  9
$USERR3
 40
0.0
  9
$USERR4
 40
0.0
  9
$USERR5
 40
0.0
  9
$WORLDVIEW
 70
     1
  9
$SHADEDGE
 70
     3
  9
$SHADEDIF
 70
    70
  9
$TILEMODE
 70
     1
  9
$MAXACTVP
 70
    16
  9
$PLIMCHECK
 70
     0
  9
$PEXTMIN
 10
1.0000000000000000E+020
 20
1.0000000000000000E+020
 30
1.0000000000000000E+020
  9
$PEXTMAX
 10
-1.0000000000000000E+020
 20
-1.0000000000000000E+020
 30
-1.0000000000000000E+020
  9
$PLIMMIN
 10
0.0
 20
0.0
  9
$PLIMMAX
 10
12.0
 20
9.0
  9
$UNITMODE
 70
     0
  9
$VISRETAIN
 70
     0
  9
$PLINEGEN
 70
     0
  9
$PSLTSCALE
 70
     0
  0
ENDSEC
  0
SECTION
  2
TABLES
  0
TABLE
  2
VPORT
 70
     1
  0
VPORT
  2
*ACTIVE
 70
     0
 10
0.0
 20
0.0
 11
1.0
 21
1.0
 12
177.3603902076118
 22
117.27323797192891
 13
0.0
 23
0.0
 14
10.0
 24
10.0
 15
10.0
 25
10.0
 16
0.0
 26
0.0
 36
1.0
 17
0.0
 27
0.0
 37
0.0
 40
206.7044603105382
 41
1.368715083798882
 42
50.0
 43
0.0
 44
0.0
 50
0.0
 51
0.0
 71
     0
 72
   500
 73
     1
 74
     0
 75
     0
 76
     0
 77
     0
 78
     2
  0
ENDTAB
  0
TABLE
  2
LTYPE
 70
     3
  0
LTYPE
  2
CONTINUOUS
 70
     0
  3
Solid Line
 72
    65
 73
     0
 40
0.0
  0
LTYPE
  2
CENTER
 70
     0
  3
____ _ ____ _ ____ _ ____ _ ____ _ ____ _ ____
 72
    65
 73
     4
 40
2.0
 49
1.25
 49
-0.25
 49
0.25
 49
-0.25
  0
LTYPE
  2
PHANTOM2
 70
     0
  3
___ _ _ ___ _ _ ___ _ _ ___ _ _
 72
    65
 73
     6
 40
1.25
 49
0.625
 49
-0.125
 49
0.125
 49
-0.125
 49
0.125
 49
-0.125
  0
ENDTAB
  0
TABLE
  2
LAYER
 70
     2
  0
LAYER
  2
0
 70
     0
 62
     7
  6
CONTINUOUS
  0
LAYER
  2
1
 70
     0
 62
     1
  6
CENTER
  0
ENDTAB
  0
TABLE
  2
STYLE
 70
     2
  0
STYLE
  2
STANDARD
 70
     0
 40
0.0
 41
1.0
 50
0.0
 71
     0
 42
0.2
  3
TXT
  4
BIGFONT
  0
STYLE
  2
STANDARD1
 70
     0
 40
0.0
 41
1.0
 50
0.0
 71
     0
 42
3.0
  3
txt
  4

  0
ENDTAB
  0
TABLE
  2
VIEW
 70
     1
  0
VIEW
  2
ALL
 70
     0
 40
179.5384664489153
 10
135.0
 20
89.769233224457665
 41
0.0
 11
0.0
 21
0.0
 31
1.0
 12
0.0
 22
0.0
 32
0.0
 42
0.0
 43
0.0
 44
0.0
 50
0.0
 71
     0
  0
ENDTAB
  0
TABLE
  2
UCS
 70
     0
  0
ENDTAB
  0
TABLE
  2
APPID
 70
     4
  0
APPID
  2
ACAD
 70
     0
  0
APPID
  2
ACAD_MLEADERVER
 70
     0
  0
APPID
  2
ACAD_EXEMPT_FROM_CAD_STANDARDS
 70
     0
  0
APPID
  2
ACAD_NAV_VCDISPLAY
 70
     0
  0
ENDTAB
  0
TABLE
  2
DIMSTYLE
 70
     2
  0
DIMSTYLE
  2
STANDARD
 70
     0
  3

  4

  5

  6

  7

 40
1.0
 41
0.18
 42
0.0625
 43
0.38
 44
0.18
 45
0.0
 46
0.0
 47
0.0
 48
0.0
140
0.18
141
0.09
142
0.0
143
25.399999999999999
144
1.0
145
0.0
146
1.0
147
0.09
 71
     0
 72
     0
 73
     1
 74
     1
 75
     0
 76
     0
 77
     0
 78
     0
170
     0
171
     2
172
     0
173
     0
174
     0
175
     0
176
     0
177
     0
178
     0
  0
DIMSTYLE
  2
ISO-25
 70
     0
  3

  4

  5

  6

  7

 40
1.0
 41
2.5
 42
0.625
 43
3.75
 44
1.25
 45
0.0
 46
0.0
 47
0.0
 48
0.0
140
2.5
141
2.5
142
0.0
143
0.0393700787
144
1.0
145
0.0
146
1.0
147
0.625
 71
     0
 72
     0
 73
     0
 74
     0
 75
     0
 76
     0
 77
     1
 78
     8
170
     0
171
     3
172
     1
173
     0
174
     0
175
     0
176
     0
177
     0
178
     0
  0
ENDTAB
  0
ENDSEC
  0
SECTION
  2
BLOCKS
  0
BLOCK
  8
0
  2
$MODEL_SPACE
 70
     0
 10
0.0
 20
0.0
 30
0.0
  3
$MODEL_SPACE
  1

  0
ENDBLK
  5
D6
  8
0
  0
BLOCK
 67
     1
  8
0
  2
$PAPER_SPACE
 70
     0
 10
0.0
 20
0.0
 30
0.0
  3
$PAPER_SPACE
  1

  0
ENDBLK
  5
D4
 67
     1
  8
0
  0
ENDSEC
  0
SECTION
  2
ENTITIES
  0
LINE
  5
34
  8
1
 10
197.5
 20
170.0
 30
0.0
 11
62.5
 21
170.0
 31
0.0
  0
LINE
  5
35
  8
1
 10
130.0
 20
237.5
 30
0.0
 11
130.0
 21
102.5
 31
0.0
  0
TEXT
  5
1C6
  8
0
 62
     3
 10
0.0
 20
0.0
 30
0.0
 40
10.0
  1
NPSN125
  7
STANDARD1
  0
LINE
  5
393
  8
0
 10
192.50000199384991
 20
51.082088029032761
 30
0.0
 11
192.27744393444999
 21
63.832430714932748
 31
0.0
  0
LINE
  5
394
  8
0
 10
67.722556065549952
 20
63.832430714932748
 30
0.0
 11
67.499998006149994
 21
51.082088029032761
 31
0.0
  0
LINE
  5
395
  8
0
 10
67.499998006149994
 20
51.082088029032761
 30
0.0
 11
68.236908701349989
 21
50.332202257632758
 31
0.0
  0
LINE
  5
396
  8
0
 10
191.76309129875011
 20
50.332202257632758
 30
0.0
 11
192.50000199384991
 21
51.082088029032761
 31
0.0
  0
LINE
  5
397
  8
0
 10
192.27744393444999
 20
63.832430714932748
 30
0.0
 11
190.75126532474991
 21
65.332202257632758
 31
0.0
  0
LINE
  5
398
  8
0
 10
69.248734675250034
 20
65.332202257632758
 30
0.0
 11
67.722556065549952
 21
63.832430714932748
 31
0.0
  0
LINE
  5
399
  8
0
 10
85.770017121949991
 20
50.332202257632758
 30
0.0
 11
106.01303021504989
 21
42.964348039932759
 31
0.0
  0
LINE
  5
39A
  8
0
 10
153.98696978504989
 20
42.964348039932759
 30
0.0
 11
174.22998287805001
 21
50.332202257632758
 31
0.0
  0
ARC
  5
39B
  8
0
 10
154.50000000004991
 20
41.554809108732748
 30
0.0
 40
1.5
 50
110.0
 51
180.0
  0
ARC
  5
39C
  8
0
 10
105.50000000004989
 20
41.554809108732748
 30
0.0
 40
1.5
 50
0.0
 51
69.999999999999986
  0
LINE
  5
39D
  8
0
 10
107.00000000004989
 20
41.554809108732748
 30
0.0
 11
107.00000000004989
 21
36.332202257632758
 31
0.0
  0
LINE
  5
39E
  8
0
 10
153.00000000004991
 20
36.332202257632758
 30
0.0
 11
153.00000000004991
 21
41.554809108732748
 31
0.0
  0
LINE
  5
39F
  8
0
 10
114.00000000004989
 20
22.082202257632758
 30
0.0
 11
114.75000000004999
 21
21.332202257632758
 31
0.0
  0
LINE
  5
3A0
  8
0
 10
145.25000000004991
 20
21.332202257632758
 30
0.0
 11
146.00000000004999
 21
22.082202257632758
 31
0.0
  0
LINE
  5
3A1
  8
0
 10
114.00000000004989
 20
36.332202257632758
 30
0.0
 11
114.00000000004989
 21
22.082202257632758
 31
0.0
  0
LINE
  5
3A2
  8
0
 10
146.00000000004999
 20
22.082202257632758
 30
0.0
 11
146.00000000004999
 21
36.332202257632758
 31
0.0
  0
LINE
  5
3A3
  8
0
 10
192.50000199384991
 20
51.082088029032761
 30
0.0
 11
67.499998006149994
 21
51.082088029032761
 31
0.0
  0
LINE
  5
3A4
  8
0
 10
192.27744393444999
 20
63.832430714932748
 30
0.0
 11
67.722556065549952
 21
63.832430714932748
 31
0.0
  0
LINE
  5
3A5
  8
0
 10
68.236908701349989
 20
50.332202257632758
 30
0.0
 11
191.76309129875011
 21
50.332202257632758
 31
0.0
  0
LINE
  5
3A6
  8
0
 10
190.75126532474991
 20
65.332202257632758
 30
0.0
 11
69.248734675250034
 21
65.332202257632758
 31
0.0
  0
LINE
  5
3A7
  8
0
 10
107.00000000004989
 20
36.332202257632758
 30
0.0
 11
153.00000000004991
 21
36.332202257632758
 31
0.0
  0
LINE
  5
3A8
  8
0
 10
114.75000000004999
 20
21.332202257632758
 30
0.0
 11
145.25000000004991
 21
21.332202257632758
 31
0.0
  0
LINE
  5
3A9
  8
0
 10
114.00000000004989
 20
22.082202257632758
 30
0.0
 11
146.00000000004999
 21
22.082202257632758
 31
0.0
  0
LINE
  5
3AA
  8
0
 10
106.01303021504989
 20
42.964348039932759
 30
0.0
 11
153.98696978504989
 21
42.964348039932759
 31
0.0
  0
LINE
  5
3AB
  8
0
 10
153.00000000004991
 20
41.554809108732748
 30
0.0
 11
107.00000000004989
 21
41.554809108732748
 31
0.0
  0
CIRCLE
  5
3AC
  8
0
 10
130.0
 20
170.0
 30
0.0
 40
60.751265324772902
  0
CIRCLE
  5
3AD
  8
0
 10
130.0
 20
170.0
 30
0.0
 40
54.338028940560889
  0
CIRCLE
  5
3AE
  8
0
 10
130.0
 20
170.0
 30
0.0
 40
62.500001993868253
  0
CIRCLE
  5
3AF
  8
0
 10
130.0
 20
170.0
 30
0.0
 40
53.275207851267453
  0
CIRCLE
  5
3B0
  8
0
 10
130.0
 20
170.0
 30
0.0
 40
35.0
  0
CIRCLE
  5
3B1
  8
0
 10
130.0
 20
170.0
 30
0.0
 40
22.0
  0
LINE
  5
3B9
  8
1
 10
129.99999999999989
 20
16.332202257632812
 30
0.0
 11
129.99999999999989
 21
70.332202257632815
 31
0.0
  0
LINE
  5
3BA
  8
0
 10
258.91791197096711
 20
232.50000199384999
 30
0.0
 11
246.167569285067
 21
232.2774439344501
 31
0.0
  0
LINE
  5
3BB
  8
0
 10
246.167569285067
 20
107.72255606554999
 30
0.0
 11
258.91791197096711
 21
107.49999800614999
 31
0.0
  0
LINE
  5
3BC
  8
0
 10
258.91791197096711
 20
107.49999800614999
 30
0.0
 11
259.6677977423671
 21
108.23690870135
 31
0.0
  0
LINE
  5
3BD
  8
0
 10
259.6677977423671
 20
231.7630912987502
 30
0.0
 11
258.91791197096711
 21
232.50000199384999
 31
0.0
  0
LINE
  5
3BE
  8
0
 10
246.167569285067
 20
232.2774439344501
 30
0.0
 11
244.6677977423671
 21
230.75126532474999
 31
0.0
  0
LINE
  5
3BF
  8
0
 10
244.6677977423671
 20
109.24873467525011
 30
0.0
 11
246.167569285067
 21
107.72255606554999
 31
0.0
  0
LINE
  5
3C0
  8
0
 10
259.6677977423671
 20
125.77001712195
 30
0.0
 11
267.03565196006701
 21
146.01303021505001
 31
0.0
  0
LINE
  5
3C1
  8
0
 10
267.03565196006701
 20
193.98696978504989
 30
0.0
 11
259.6677977423671
 21
214.22998287805009
 31
0.0
  0
ARC
  5
3C2
  8
0
 10
268.44519089126698
 20
194.50000000004999
 30
0.0
 40
1.5
 50
200.00000000000111
 51
270.0
  0
ARC
  5
3C3
  8
0
 10
268.44519089126698
 20
145.50000000004999
 30
0.0
 40
1.5
 50
90.0
 51
159.99999999999881
  0
LINE
  5
3C4
  8
0
 10
268.44519089126698
 20
147.00000000004999
 30
0.0
 11
273.6677977423671
 21
147.00000000004999
 31
0.0
  0
LINE
  5
3C5
  8
0
 10
273.6677977423671
 20
193.00000000004999
 30
0.0
 11
268.44519089126698
 21
193.00000000004999
 31
0.0
  0
LINE
  5
3C6
  8
0
 10
287.9177977423671
 20
154.00000000004999
 30
0.0
 11
288.6677977423671
 21
154.75000000004999
 31
0.0
  0
LINE
  5
3C7
  8
0
 10
288.6677977423671
 20
185.25000000004999
 30
0.0
 11
287.9177977423671
 21
186.00000000004999
 31
0.0
  0
LINE
  5
3C8
  8
0
 10
273.6677977423671
 20
154.00000000004999
 30
0.0
 11
287.9177977423671
 21
154.00000000004999
 31
0.0
  0
LINE
  5
3C9
  8
0
 10
287.9177977423671
 20
186.00000000004999
 30
0.0
 11
273.6677977423671
 21
186.00000000004999
 31
0.0
  0
LINE
  5
3CA
  8
0
 10
258.91791197096711
 20
232.50000199384999
 30
0.0
 11
258.91791197096711
 21
107.49999800614999
 31
0.0
  0
LINE
  5
3CB
  8
0
 10
246.167569285067
 20
232.2774439344501
 30
0.0
 11
246.167569285067
 21
107.72255606554999
 31
0.0
  0
LINE
  5
3CC
  8
0
 10
259.6677977423671
 20
108.23690870135
 30
0.0
 11
259.6677977423671
 21
231.7630912987502
 31
0.0
  0
LINE
  5
3CD
  8
0
 10
244.6677977423671
 20
230.75126532474999
 30
0.0
 11
244.6677977423671
 21
109.24873467525011
 31
0.0
  0
LINE
  5
3CE
  8
0
 10
273.6677977423671
 20
147.00000000004999
 30
0.0
 11
273.6677977423671
 21
193.00000000004999
 31
0.0
  0
LINE
  5
3CF
  8
0
 10
288.6677977423671
 20
154.75000000004999
 30
0.0
 11
288.6677977423671
 21
185.25000000004999
 31
0.0
  0
LINE
  5
3D0
  8
0
 10
287.9177977423671
 20
154.00000000004999
 30
0.0
 11
287.9177977423671
 21
186.00000000004999
 31
0.0
  0
LINE
  5
3D1
  8
0
 10
267.03565196006701
 20
146.01303021505001
 30
0.0
 11
267.03565196006701
 21
193.98696978504989
 31
0.0
  0
LINE
  5
3D2
  8
0
 10
268.44519089126698
 20
193.00000000004999
 30
0.0
 11
268.44519089126698
 21
147.00000000004999
 31
0.0
  0
LINE
  5
3D3
  8
1
 10
293.66779774236699
 20
170.0
 30
0.0
 11
239.66779774236699
 21
170.0
 31
0.0
  0
CIRCLE
  5
409
  8
0
 10
130.0
 20
170.0
 30
0.0
 40
13.25
  0
ENDSEC
  0
EOF
