  0
SECTION
  2
HEADER
  9
$ACADVER
  1
AC1009
  9
$INSBASE
 10
0.0
 20
0.0
 30
0.0
  9
$EXTMIN
 10
0.0
 20
-2.960436562073669
 30
0.0
  9
$EXTMAX
 10
334.6744257853602
 20
195.29231762587321
 30
0.0
  9
$LIMMIN
 10
0.0
 20
0.0
  9
$LIMMAX
 10
187.5
 20
135.0
  9
$ORTHOMODE
 70
     1
  9
$REGENMODE
 70
     1
  9
$FILLMODE
 70
     1
  9
$QTEXTMODE
 70
     0
  9
$MIRRTEXT
 70
     0
  9
$DRAGMODE
 70
     2
  9
$LTSCALE
 40
10.0
  9
$OSMODE
 70
  3071
  9
$ATTMODE
 70
     1
  9
$TEXTSIZE
 40
5.0
  9
$TRACEWID
 40
0.05
  9
$TEXTSTYLE
  7
STANDARD
  9
$CLAYER
  8
0
  9
$CELTYPE
  6
BYLAYER
  9
$CECOLOR
 62
   256
  9
$DIMSCALE
 40
0.5
  9
$DIMASZ
 40
3.0
  9
$DIMEXO
 40
2.0
  9
$DIMDLI
 40
0.3799999999999999
  9
$DIMRND
 40
0.0
  9
$DIMDLE
 40
0.0
  9
$DIMEXE
 40
2.0
  9
$DIMTP
 40
0.0
  9
$DIMTM
 40
0.0
  9
$DIMTXT
 40
3.2000000000000002
  9
$DIMCEN
 40
0.09
  9
$DIMTSZ
 40
0.0
  9
$DIMTOL
 70
     0
  9
$DIMLIM
 70
     0
  9
$DIMTIH
 70
     0
  9
$DIMTOH
 70
     0
  9
$DIMSE1
 70
     0
  9
$DIMSE2
 70
     0
  9
$DIMTAD
 70
     1
  9
$DIMZIN
 70
     0
  9
$DIMBLK
  1

  9
$DIMASO
 70
     0
  9
$DIMSHO
 70
     0
  9
$DIMPOST
  1

  9
$DIMAPOST
  1

  9
$DIMALT
 70
     0
  9
$DIMALTD
 70
     2
  9
$DIMALTF
 40
25.399999999999999
  9
$DIMLFAC
 40
1.0
  9
$DIMTOFL
 70
     1
  9
$DIMTVP
 40
1.6000000000000001
  9
$DIMTIX
 70
     1
  9
$DIMSOXD
 70
     0
  9
$DIMSAH
 70
     0
  9
$DIMBLK1
  1

  9
$DIMBLK2
  1

  9
$DIMSTYLE
  2
STANDARD
  9
$DIMCLRD
 70
     0
  9
$DIMCLRE
 70
     0
  9
$DIMCLRT
 70
     0
  9
$DIMTFAC
 40
1.0
  9
$DIMGAP
 40
0.09
  9
$LUNITS
 70
     2
  9
$LUPREC
 70
     4
  9
$SKETCHINC
 40
0.1
  9
$FILLETRAD
 40
0.0
  9
$AUNITS
 70
     0
  9
$AUPREC
 70
     0
  9
$MENU
  1
E:\r13\win\SUPPORT\ACAD
  9
$ELEVATION
 40
0.0
  9
$PELEVATION
 40
0.0
  9
$THICKNESS
 40
0.0
  9
$LIMCHECK
 70
     0
  9
$BLIPMODE
 70
     0
  9
$CHAMFERA
 40
0.0
  9
$CHAMFERB
 40
0.0
  9
$SKPOLY
 70
     0
  9
$TDCREATE
 40
2449839.7772106482
  9
$TDUPDATE
 40
2456597.696088437
  9
$TDINDWG
 40
0.0305719444
  9
$TDUSRTIMER
 40
0.0305719444
  9
$USRTIMER
 70
     1
  9
$ANGBASE
 50
0.0
  9
$ANGDIR
 70
     0
  9
$PDMODE
 70
     0
  9
$PDSIZE
 40
0.0
  9
$PLINEWID
 40
0.0
  9
$COORDS
 70
     1
  9
$SPLFRAME
 70
     0
  9
$SPLINETYPE
 70
     6
  9
$SPLINESEGS
 70
     8
  9
$ATTDIA
 70
     0
  9
$ATTREQ
 70
     1
  9
$HANDLING
 70
     1
  9
$HANDSEED
  5
795
  9
$SURFTAB1
 70
     6
  9
$SURFTAB2
 70
     6
  9
$SURFTYPE
 70
     6
  9
$SURFU
 70
     6
  9
$SURFV
 70
     6
  9
$UCSNAME
  2

  9
$UCSORG
 10
0.0
 20
0.0
 30
0.0
  9
$UCSXDIR
 10
1.0
 20
0.0
 30
0.0
  9
$UCSYDIR
 10
0.0
 20
1.0
 30
0.0
  9
$PUCSNAME
  2

  9
$PUCSORG
 10
0.0
 20
0.0
 30
0.0
  9
$PUCSXDIR
 10
1.0
 20
0.0
 30
0.0
  9
$PUCSYDIR
 10
0.0
 20
1.0
 30
0.0
  9
$USERI1
 70
     0
  9
$USERI2
 70
     1
  9
$USERI3
 70
     0
  9
$USERI4
 70
     0
  9
$USERI5
 70
     0
  9
$USERR1
 40
0.0
  9
$USERR2
 40
0.0
  9
$USERR3
 40
0.0
  9
$USERR4
 40
0.0
  9
$USERR5
 40
0.0
  9
$WORLDVIEW
 70
     1
  9
$SHADEDGE
 70
     3
  9
$SHADEDIF
 70
    70
  9
$TILEMODE
 70
     1
  9
$MAXACTVP
 70
    16
  9
$PLIMCHECK
 70
     0
  9
$PEXTMIN
 10
1.0000000000000000E+020
 20
1.0000000000000000E+020
 30
1.0000000000000000E+020
  9
$PEXTMAX
 10
-1.0000000000000000E+020
 20
-1.0000000000000000E+020
 30
-1.0000000000000000E+020
  9
$PLIMMIN
 10
0.0
 20
0.0
  9
$PLIMMAX
 10
12.0
 20
9.0
  9
$UNITMODE
 70
     0
  9
$VISRETAIN
 70
     0
  9
$PLINEGEN
 70
     0
  9
$PSLTSCALE
 70
     0
  0
ENDSEC
  0
SECTION
  2
TABLES
  0
TABLE
  2
VPORT
 70
     1
  0
VPORT
  2
*ACTIVE
 70
     0
 10
0.0
 20
0.0
 11
1.0
 21
1.0
 12
167.33721367190481
 22
96.592861321116288
 13
0.0
 23
0.0
 14
5.0
 24
5.0
 15
5.0
 25
5.0
 16
0.0
 26
0.0
 36
1.0
 17
0.0
 27
0.0
 37
0.0
 40
201.406647788741
 41
2.304913294797688
 42
50.0
 43
0.0
 44
0.0
 50
0.0
 51
0.0
 71
     0
 72
   500
 73
     1
 74
     0
 75
     0
 76
     0
 77
     0
 78
     2
  0
ENDTAB
  0
TABLE
  2
LTYPE
 70
     4
  0
LTYPE
  2
CONTINUOUS
 70
     0
  3
Solid Line
 72
    65
 73
     0
 40
0.0
  0
LTYPE
  2
CENTER
 70
     0
  3
____ _ ____ _ ____ _ ____ _ ____ _ ____ _ ____
 72
    65
 73
     4
 40
2.0
 49
1.25
 49
-0.25
 49
0.25
 49
-0.25
  0
LTYPE
  2
HIDDEN
 70
     0
  3
_ _ _ _ _ _ _ _ _ _ _ _ _ _ _ _ _ _ _ _ _ _ _
 72
    65
 73
     2
 40
0.375
 49
0.25
 49
-0.125
  0
LTYPE
  2
PHANTOM2
 70
     0
  3
___ _ _ ___ _ _ ___ _ _ ___ _ _
 72
    65
 73
     6
 40
1.25
 49
0.625
 49
-0.125
 49
0.125
 49
-0.125
 49
0.125
 49
-0.125
  0
ENDTAB
  0
TABLE
  2
LAYER
 70
     4
  0
LAYER
  2
0
 70
     0
 62
     7
  6
CONTINUOUS
  0
LAYER
  2
1
 70
     0
 62
     1
  6
CENTER
  0
LAYER
  2
2
 70
     0
 62
     2
  6
HIDDEN
  0
LAYER
  2
DEFPOINTS
 70
     0
 62
     7
  6
CONTINUOUS
  0
ENDTAB
  0
TABLE
  2
STYLE
 70
     2
  0
STYLE
  2
STANDARD
 70
     0
 40
0.0
 41
1.0
 50
0.0
 71
     0
 42
5.0
  3
TXT
  4
BIGFONT
  0
STYLE
  2
STANDARD1
 70
     0
 40
0.0
 41
1.0
 50
0.0
 71
     0
 42
3.0
  3
txt
  4

  0
ENDTAB
  0
TABLE
  2
VIEW
 70
     1
  0
VIEW
  2
ALL
 70
     0
 40
135.0
 10
110.4957983193277
 20
67.5
 41
0.0
 11
0.0
 21
0.0
 31
1.0
 12
0.0
 22
0.0
 32
0.0
 42
0.0
 43
0.0
 44
0.0
 50
0.0
 71
     0
  0
ENDTAB
  0
TABLE
  2
UCS
 70
     0
  0
ENDTAB
  0
TABLE
  2
APPID
 70
     4
  0
APPID
  2
ACAD
 70
     0
  0
APPID
  2
_CALL_MAC$
 70
     0
  0
APPID
  2
ACAD_MLEADERVER
 70
     0
  0
APPID
  2
ACAD_NAV_VCDISPLAY
 70
     0
  0
ENDTAB
  0
TABLE
  2
DIMSTYLE
 70
     1
  0
DIMSTYLE
  2
STANDARD
 70
     0
  3

  4

  5

  6

  7

 40
1.0
 41
0.18
 42
0.0625
 43
0.38
 44
0.18
 45
0.0
 46
0.0
 47
0.0
 48
0.0
140
0.18
141
0.09
142
0.0
143
25.399999999999999
144
1.0
145
0.0
146
1.0
147
0.09
 71
     0
 72
     0
 73
     1
 74
     1
 75
     0
 76
     0
 77
     0
 78
     0
170
     0
171
     2
172
     0
173
     0
174
     0
175
     0
176
     0
177
     0
178
     0
  0
ENDTAB
  0
ENDSEC
  0
SECTION
  2
BLOCKS
  0
BLOCK
  8
0
  2
$MODEL_SPACE
 70
     0
 10
0.0
 20
0.0
 30
0.0
  3
$MODEL_SPACE
  1

  0
ENDBLK
  5
4F3
  8
0
  0
BLOCK
 67
     1
  8
0
  2
$PAPER_SPACE
 70
     0
 10
0.0
 20
0.0
 30
0.0
  3
$PAPER_SPACE
  1

  0
ENDBLK
  5
4F1
 67
     1
  8
0
  0
ENDSEC
  0
SECTION
  2
ENTITIES
  0
CIRCLE
  5
5D9
  8
0
 10
83.386165670479386
 20
161.79231762587321
 30
0.0
 40
28.5
  0
CIRCLE
  5
5DA
  8
0
 10
83.386165670478931
 20
161.79231762587321
 30
0.0
 40
10.0
  0
LINE
  5
5DB
  8
0
 10
73.359260970280616
 20
142.93445259070279
 30
0.0
 11
72.558734465815746
 21
141.42888120754461
 31
0.0
  0
LINE
  5
5DC
  8
0
 10
78.945618308002167
 20
140.90118480179751
 30
0.0
 11
78.500240936261662
 21
138.80584900862769
 31
0.0
  0
CIRCLE
  5
5DD
  8
0
 10
76.15243963914088
 20
141.91781869625029
 30
0.0
 40
1.25
  0
ARC
  5
5DE
  8
0
 10
75.975588441339937
 20
141.4319240236872
 30
0.0
 40
3.0170783103057142
 50
349.86828517533718
 51
150.13171482466069
  0
ARC
  5
5DF
  8
0
 10
90.796742899618707
 20
141.4319240236872
 30
0.0
 40
3.0170783103056662
 50
29.868285175337469
 51
190.1317148246612
  0
CIRCLE
  5
5E0
  8
0
 10
90.619891701817764
 20
141.91781869625029
 30
0.0
 40
1.25
  0
LINE
  5
5E1
  8
0
 10
87.82671303295659
 20
140.90118480179751
 30
0.0
 11
88.272090404696868
 21
138.80584900862769
 31
0.0
  0
LINE
  5
5E2
  8
0
 10
93.413070370678028
 20
142.93445259070279
 30
0.0
 11
94.213596875142883
 21
141.42888120754461
 31
0.0
  0
ARC
  5
5E3
  8
0
 10
83.386165670479386
 20
160.29231762587199
 30
0.0
 40
21.75
 50
299.85540972364691
 51
240.14459027635229
  0
CIRCLE
  5
5E4
  8
0
 10
83.386165670479386
 20
161.79231762587199
 30
0.0
 40
23.5
  0
LINE
  5
5E5
  8
1
 10
83.386165670479386
 20
195.29231762587321
 30
0.0
 11
83.386165670479372
 21
128.29231762587321
 31
0.0
  0
LINE
  5
5E6
  8
1
 10
116.8861656704794
 20
161.79231762587321
 30
0.0
 11
49.886165670479379
 21
161.79231762587321
 31
0.0
  0
LINE
  5
5E7
  8
1
 10
190.55525437642299
 20
195.29231762587321
 30
0.0
 11
190.55525437642299
 21
128.29231762587301
 31
0.0
  0
POINT
  5
5E9
  8
DEFPOINTS
  6
BYBLOCK
 62
     4
 10
220.55525437642299
 20
133.79231762587301
 30
0.0
  0
POINT
  5
5EA
  8
2
 10
204.55525437642299
 20
138.29231762587301
 30
0.0
  0
POINT
  5
5EB
  8
2
 10
204.55525437642299
 20
138.29231762587301
 30
0.0
  0
POINT
  5
5EC
  8
2
 10
176.55525437642299
 20
137.04231762587301
 30
0.0
  0
POINT
  5
5ED
  8
2
 10
176.55525437642299
 20
137.04231762587301
 30
0.0
  0
POINT
  5
5EE
  8
DEFPOINTS
  6
BYBLOCK
 62
     4
 10
160.55525437642299
 20
133.79231762587301
 30
0.0
  0
POINT
  5
5EF
  8
DEFPOINTS
  6
BYBLOCK
 62
     4
 10
220.55525437642299
 20
189.79231762587321
 30
0.0
  0
POINT
  5
5F0
  8
DEFPOINTS
  6
BYBLOCK
 62
     4
 10
160.55525437642299
 20
189.79231762587321
 30
0.0
  0
POINT
  5
5F1
  8
DEFPOINTS
  6
BYBLOCK
 62
     4
 10
220.05525437642299
 20
141.7923176258731
 30
0.0
  0
POINT
  5
5F2
  8
DEFPOINTS
  6
BYBLOCK
 62
     4
 10
220.05525437642299
 20
181.79231762587321
 30
0.0
  0
POINT
  5
5F3
  8
DEFPOINTS
  6
BYBLOCK
 62
     4
 10
177.55525437642299
 20
151.79231762587301
 30
0.0
  0
POINT
  5
5F4
  8
2
 10
177.55525437642299
 20
171.79231762587321
 30
0.0
  0
POINT
  5
5F5
  8
2
 10
161.55525437642299
 20
138.29231762587301
 30
0.0
  0
POINT
  5
5F6
  8
2
 10
161.55525437642299
 20
185.29231762587321
 30
0.0
  0
POINT
  5
5F7
  8
DEFPOINTS
  6
BYBLOCK
 62
     4
 10
163.9552543764228
 20
133.29231762587321
 30
0.0
  0
POINT
  5
5F8
  8
DEFPOINTS
  6
BYBLOCK
 62
     4
 10
161.05525437642299
 20
133.2923176258731
 30
0.0
  0
POINT
  5
5F9
  8
DEFPOINTS
  6
BYBLOCK
 62
     4
 10
161.05525437642299
 20
190.2923176258731
 30
0.0
  0
LINE
  5
5FA
  8
2
 10
220.05525437642299
 20
181.79231762587321
 30
0.0
 11
220.05525437642299
 21
141.7923176258731
 31
0.0
  0
LINE
  5
5FB
  8
0
 10
220.05525437642299
 20
141.7923176258731
 30
0.0
 11
220.55525437642299
 21
141.29231762587301
 31
0.0
  0
LINE
  5
5FC
  8
0
 10
220.05525437642299
 20
181.79231762587321
 30
0.0
 11
220.55525437642299
 21
182.29231762587321
 31
0.0
  0
LINE
  5
5FD
  8
0
 10
160.55525437642299
 20
133.79231762587301
 30
0.0
 11
161.05525437642299
 21
133.2923176258731
 31
0.0
  0
LINE
  5
5FE
  8
0
 10
220.05525437642299
 20
133.2923176258731
 30
0.0
 11
220.55525437642299
 21
133.79231762587301
 31
0.0
  0
LINE
  5
5FF
  8
0
 10
220.05525437642299
 20
190.2923176258731
 30
0.0
 11
220.55525437642299
 21
189.79231762587321
 31
0.0
  0
LINE
  5
600
  8
0
 10
160.55525437642299
 20
189.79231762587321
 30
0.0
 11
161.05525437642299
 21
190.2923176258731
 31
0.0
  0
LINE
  5
601
  8
0
 10
160.55525437642299
 20
189.79231762587321
 30
0.0
 11
160.55525437642299
 21
133.79231762587301
 31
0.0
  0
LINE
  5
602
  8
0
 10
220.55525437642299
 20
189.79231762587321
 30
0.0
 11
220.55525437642299
 21
133.79231762587301
 31
0.0
  0
LINE
  5
605
  8
2
 10
191.55525437642299
 20
151.79231762587301
 30
0.0
 11
203.55525437642299
 21
151.79231762587301
 31
0.0
  0
LINE
  5
606
  8
2
 10
190.55525437642279
 20
147.79231762587301
 30
0.0
 11
194.6505168667673
 21
147.79231762587301
 31
0.0
  0
LINE
  5
607
  8
2
 10
190.55525437642279
 20
142.29231762587301
 30
0.0
 11
194.6505168667673
 21
142.29231762587301
 31
0.0
  0
CIRCLE
  5
608
  8
2
 10
197.55525437642299
 20
145.04231762587301
 30
0.0
 40
4.0
  0
LINE
  5
609
  8
2
 10
200.4599918860784
 20
142.29231762587301
 30
0.0
 11
204.55525437642299
 21
142.29231762587301
 31
0.0
  0
LINE
  5
60A
  8
2
 10
200.4599918860784
 20
147.79231762587301
 30
0.0
 11
204.55525437642299
 21
147.79231762587301
 31
0.0
  0
ARC
  5
60B
  8
2
 10
203.55525437642299
 20
150.79231762587301
 30
0.0
 40
1.0
 50
0.0
 51
90.0
  0
LINE
  5
611
  8
2
 10
200.4599918860784
 20
175.79231762587321
 30
0.0
 11
204.55525437642299
 21
175.79231762587321
 31
0.0
  0
LINE
  5
612
  8
2
 10
200.4599918860784
 20
181.29231762587321
 30
0.0
 11
204.55525437642299
 21
181.29231762587321
 31
0.0
  0
CIRCLE
  5
613
  8
2
 10
197.55525437642299
 20
178.5423176258731
 30
0.0
 40
4.0
  0
LINE
  5
614
  8
2
 10
190.55525437642279
 20
181.29231762587321
 30
0.0
 11
194.6505168667673
 21
181.29231762587321
 31
0.0
  0
LINE
  5
615
  8
2
 10
190.55525437642279
 20
175.79231762587321
 30
0.0
 11
194.6505168667673
 21
175.79231762587321
 31
0.0
  0
LINE
  5
616
  8
2
 10
191.55525437642299
 20
171.79231762587321
 30
0.0
 11
204.55525437642299
 21
171.79231762587321
 31
0.0
  0
LINE
  5
619
  8
2
 10
204.55525437642299
 20
185.29231762587321
 30
0.0
 11
204.55525437642299
 21
138.29231762587301
 31
0.0
  0
LINE
  5
61A
  8
0
 10
220.05525437642299
 20
133.29231762587301
 30
0.0
 11
161.05525437642291
 21
133.2923176258731
 31
0.0
  0
LINE
  5
61B
  8
0
 10
220.05525437642299
 20
190.2923176258731
 30
0.0
 11
161.05525437642299
 21
190.2923176258731
 31
0.0
  0
LINE
  5
61C
  8
2
 10
174.75525437642281
 20
186.54231762587321
 30
0.0
 11
174.75525437642281
 21
137.04231762587301
 31
0.0
  0
LINE
  5
61D
  8
2
 10
174.75525437642281
 20
183.49053183810719
 30
0.0
 11
176.55525437642299
 21
183.49053183810719
 31
0.0
  0
LINE
  5
61E
  8
2
 10
174.75525437642281
 20
140.094103413639
 30
0.0
 11
176.55525437642299
 21
140.094103413639
 31
0.0
  0
LINE
  5
621
  8
2
 10
177.55525437642299
 20
151.79231762587301
 30
0.0
 11
191.55525437642299
 21
151.79231762587301
 31
0.0
  0
LINE
  5
622
  8
2
 10
176.55525437642271
 20
147.79231762587301
 30
0.0
 11
180.6505168667673
 21
147.79231762587301
 31
0.0
  0
LINE
  5
623
  8
2
 10
176.55525437642271
 20
142.29231762587301
 30
0.0
 11
180.6505168667673
 21
142.29231762587301
 31
0.0
  0
CIRCLE
  5
624
  8
2
 10
183.55525437642299
 20
145.04231762587301
 30
0.0
 40
4.0
  0
LINE
  5
625
  8
2
 10
186.4599918860784
 20
142.29231762587301
 30
0.0
 11
190.55525437642299
 21
142.29231762587301
 31
0.0
  0
LINE
  5
626
  8
2
 10
186.4599918860784
 20
147.79231762587301
 30
0.0
 11
190.55525437642299
 21
147.79231762587301
 31
0.0
  0
ARC
  5
628
  8
2
 10
177.55525437642299
 20
150.79231762587301
 30
0.0
 40
1.0
 50
90.0
 51
180.0
  0
LINE
  5
62D
  8
2
 10
186.4599918860784
 20
175.79231762587321
 30
0.0
 11
190.55525437642299
 21
175.79231762587321
 31
0.0
  0
LINE
  5
62E
  8
2
 10
186.4599918860784
 20
181.29231762587321
 30
0.0
 11
190.55525437642299
 21
181.29231762587321
 31
0.0
  0
CIRCLE
  5
62F
  8
2
 10
183.55525437642299
 20
178.5423176258731
 30
0.0
 40
4.0
  0
LINE
  5
630
  8
2
 10
176.55525437642271
 20
181.29231762587321
 30
0.0
 11
180.6505168667673
 21
181.29231762587321
 31
0.0
  0
LINE
  5
631
  8
2
 10
176.55525437642271
 20
175.79231762587321
 30
0.0
 11
180.6505168667673
 21
175.79231762587321
 31
0.0
  0
LINE
  5
632
  8
2
 10
176.55525437642299
 20
171.79231762587321
 30
0.0
 11
191.55525437642299
 21
171.79231762587321
 31
0.0
  0
LINE
  5
635
  8
2
 10
161.55525437642299
 20
185.29231762587321
 30
0.0
 11
174.60525437642289
 21
185.29231762587321
 31
0.0
  0
LINE
  5
636
  8
2
 10
220.05525437642299
 20
181.79231762587321
 30
0.0
 11
204.55525437642299
 21
181.79231762587321
 31
0.0
  0
LINE
  5
637
  8
2
 10
176.55525437642299
 20
186.54231762587321
 30
0.0
 11
174.60525437642289
 21
186.54231762587321
 31
0.0
  0
LINE
  5
638
  8
2
 10
176.55525437642299
 20
185.29231762587321
 30
0.0
 11
204.55525437642299
 21
185.29231762587321
 31
0.0
  0
LINE
  5
639
  8
2
 10
161.55525437642299
 20
185.29231762587321
 30
0.0
 11
160.55525437642299
 21
185.86966789506269
 31
0.0
  0
LINE
  5
63A
  8
2
 10
176.55525437642299
 20
186.54231762587321
 30
0.0
 11
176.55525437642299
 21
137.04231762587301
 31
0.0
  0
LINE
  5
63B
  8
2
 10
174.60525437642289
 20
186.54231762587321
 30
0.0
 11
174.60525437642289
 21
137.04231762587301
 31
0.0
  0
LINE
  5
63C
  8
2
 10
161.55525437642299
 20
138.29231762587301
 30
0.0
 11
161.55525437642299
 21
185.29231762587321
 31
0.0
  0
LINE
  5
63D
  8
2
 10
161.55525437642299
 20
138.29231762587301
 30
0.0
 11
160.55525437642299
 21
137.7149673566835
 31
0.0
  0
LINE
  5
63E
  8
2
 10
176.55525437642299
 20
138.29231762587301
 30
0.0
 11
204.55525437642299
 21
138.29231762587301
 31
0.0
  0
LINE
  5
63F
  8
2
 10
176.55525437642299
 20
137.04231762587301
 30
0.0
 11
174.60525437642289
 21
137.04231762587301
 31
0.0
  0
LINE
  5
640
  8
1
 10
225.2238729528429
 20
161.7923176258731
 30
0.0
 11
155.88663580000301
 21
161.7923176258731
 31
0.0
  0
LINE
  5
641
  8
2
 10
220.05525437642299
 20
141.7923176258731
 30
0.0
 11
204.55525437642279
 21
141.7923176258731
 31
0.0
  0
LINE
  5
643
  8
2
 10
161.55525437642299
 20
138.29231762587301
 30
0.0
 11
174.60525437642289
 21
138.29231762587301
 31
0.0
  0
LINE
  5
644
  8
1
 10
334.6744257853602
 20
161.79231762587321
 30
0.0
 11
267.6744257853602
 21
161.79231762587321
 31
0.0
  0
LINE
  5
645
  8
1
 10
301.1744257853602
 20
195.29231762587321
 30
0.0
 11
301.1744257853602
 21
128.29231762587321
 31
0.0
  0
CIRCLE
  5
650
  8
0
 10
301.17442578535969
 20
161.79231762587321
 30
0.0
 40
10.0
  0
CIRCLE
  5
651
  8
0
 10
301.1744257853602
 20
161.79231762587321
 30
0.0
 40
28.5
  0
CIRCLE
  5
652
  8
0
 10
301.17442578535969
 20
161.79231762587321
 30
0.0
 40
19.50000000000006
  0
LINE
  5
653
  8
2
 10
190.55525437642299
 20
151.79231762587301
 30
0.0
 11
190.55525437642299
 21
138.29231762587301
 31
0.0
  0
LINE
  5
654
  8
2
 10
190.55525437642299
 20
185.29231762587321
 30
0.0
 11
190.55525437642299
 21
171.79231762587321
 31
0.0
  0
LINE
  5
655
  8
1
 10
197.55525437642299
 20
171.79231762587321
 30
0.0
 11
197.55525437642291
 21
185.29231762587321
 31
0.0
  0
LINE
  5
657
  8
1
 10
183.55525437642299
 20
171.79231762587321
 30
0.0
 11
183.55525437642291
 21
185.29231762587321
 31
0.0
  0
LINE
  5
658
  8
1
 10
176.55525437642299
 20
178.5423176258731
 30
0.0
 11
204.55525437642299
 21
178.5423176258731
 31
0.0
  0
LINE
  5
659
  8
1
 10
176.55525437642291
 20
145.04231762587301
 30
0.0
 11
204.55525437642299
 21
145.04231762587301
 31
0.0
  0
LINE
  5
65A
  8
1
 10
183.55525437642291
 20
138.29231762587301
 30
0.0
 11
183.55525437642291
 21
151.79231762587301
 31
0.0
  0
LINE
  5
65B
  8
1
 10
197.55525437642291
 20
138.29231762587301
 30
0.0
 11
197.55525437642291
 21
151.79231762587301
 31
0.0
  0
TEXT
  5
704
  8
0
 62
     3
 10
0.0
 20
0.0
 30
0.0
 40
10.0
  1
NIPS5560
  7
STANDARD1
  0
ENDSEC
  0
EOF
