  0
SECTION
  2
HEADER
  9
$ACADVER
  1
AC1009
  9
$INSBASE
 10
0.0
 20
0.0
 30
0.0
  9
$EXTMIN
 10
0.0
 20
-2.960436562073669
 30
0.0
  9
$EXTMAX
 10
324.99893183627199
 20
170.2594078452652
 30
0.0
  9
$LIMMIN
 10
0.0
 20
0.0
  9
$LIMMAX
 10
187.5
 20
135.0
  9
$ORTHOMODE
 70
     1
  9
$REGENMODE
 70
     1
  9
$FILLMODE
 70
     1
  9
$QTEXTMODE
 70
     0
  9
$MIRRTEXT
 70
     0
  9
$DRAGMODE
 70
     2
  9
$LTSCALE
 40
10.0
  9
$OSMODE
 70
  3071
  9
$ATTMODE
 70
     1
  9
$TEXTSIZE
 40
5.0
  9
$TRACEWID
 40
0.05
  9
$TEXTSTYLE
  7
STANDARD
  9
$CLAYER
  8
0
  9
$CELTYPE
  6
BYLAYER
  9
$CECOLOR
 62
   256
  9
$DIMSCALE
 40
0.5
  9
$DIMASZ
 40
3.0
  9
$DIMEXO
 40
2.0
  9
$DIMDLI
 40
0.3799999999999999
  9
$DIMRND
 40
0.0
  9
$DIMDLE
 40
0.0
  9
$DIMEXE
 40
2.0
  9
$DIMTP
 40
0.0
  9
$DIMTM
 40
0.0
  9
$DIMTXT
 40
3.2000000000000002
  9
$DIMCEN
 40
0.09
  9
$DIMTSZ
 40
0.0
  9
$DIMTOL
 70
     0
  9
$DIMLIM
 70
     0
  9
$DIMTIH
 70
     0
  9
$DIMTOH
 70
     0
  9
$DIMSE1
 70
     0
  9
$DIMSE2
 70
     0
  9
$DIMTAD
 70
     1
  9
$DIMZIN
 70
     0
  9
$DIMBLK
  1

  9
$DIMASO
 70
     0
  9
$DIMSHO
 70
     0
  9
$DIMPOST
  1

  9
$DIMAPOST
  1

  9
$DIMALT
 70
     0
  9
$DIMALTD
 70
     2
  9
$DIMALTF
 40
25.399999999999999
  9
$DIMLFAC
 40
1.0
  9
$DIMTOFL
 70
     1
  9
$DIMTVP
 40
1.6000000000000001
  9
$DIMTIX
 70
     1
  9
$DIMSOXD
 70
     0
  9
$DIMSAH
 70
     0
  9
$DIMBLK1
  1

  9
$DIMBLK2
  1

  9
$DIMSTYLE
  2
STANDARD
  9
$DIMCLRD
 70
     0
  9
$DIMCLRE
 70
     0
  9
$DIMCLRT
 70
     0
  9
$DIMTFAC
 40
1.0
  9
$DIMGAP
 40
0.09
  9
$LUNITS
 70
     2
  9
$LUPREC
 70
     4
  9
$SKETCHINC
 40
0.1
  9
$FILLETRAD
 40
0.0
  9
$AUNITS
 70
     0
  9
$AUPREC
 70
     0
  9
$MENU
  1
E:\r13\win\SUPPORT\ACAD
  9
$ELEVATION
 40
0.0
  9
$PELEVATION
 40
0.0
  9
$THICKNESS
 40
0.0
  9
$LIMCHECK
 70
     0
  9
$BLIPMODE
 70
     0
  9
$CHAMFERA
 40
0.0
  9
$CHAMFERB
 40
0.0
  9
$SKPOLY
 70
     0
  9
$TDCREATE
 40
2449839.7772106482
  9
$TDUPDATE
 40
2456597.696081528
  9
$TDINDWG
 40
0.0253854051
  9
$TDUSRTIMER
 40
0.0253854051
  9
$USRTIMER
 70
     1
  9
$ANGBASE
 50
0.0
  9
$ANGDIR
 70
     0
  9
$PDMODE
 70
     0
  9
$PDSIZE
 40
0.0
  9
$PLINEWID
 40
0.0
  9
$COORDS
 70
     1
  9
$SPLFRAME
 70
     0
  9
$SPLINETYPE
 70
     6
  9
$SPLINESEGS
 70
     8
  9
$ATTDIA
 70
     0
  9
$ATTREQ
 70
     1
  9
$HANDLING
 70
     1
  9
$HANDSEED
  5
68C
  9
$SURFTAB1
 70
     6
  9
$SURFTAB2
 70
     6
  9
$SURFTYPE
 70
     6
  9
$SURFU
 70
     6
  9
$SURFV
 70
     6
  9
$UCSNAME
  2

  9
$UCSORG
 10
0.0
 20
0.0
 30
0.0
  9
$UCSXDIR
 10
1.0
 20
0.0
 30
0.0
  9
$UCSYDIR
 10
0.0
 20
1.0
 30
0.0
  9
$PUCSNAME
  2

  9
$PUCSORG
 10
0.0
 20
0.0
 30
0.0
  9
$PUCSXDIR
 10
1.0
 20
0.0
 30
0.0
  9
$PUCSYDIR
 10
0.0
 20
1.0
 30
0.0
  9
$USERI1
 70
     0
  9
$USERI2
 70
     1
  9
$USERI3
 70
     0
  9
$USERI4
 70
     0
  9
$USERI5
 70
     0
  9
$USERR1
 40
0.0
  9
$USERR2
 40
0.0
  9
$USERR3
 40
0.0
  9
$USERR4
 40
0.0
  9
$USERR5
 40
0.0
  9
$WORLDVIEW
 70
     1
  9
$SHADEDGE
 70
     3
  9
$SHADEDIF
 70
    70
  9
$TILEMODE
 70
     1
  9
$MAXACTVP
 70
    16
  9
$PLIMCHECK
 70
     0
  9
$PEXTMIN
 10
1.0000000000000000E+020
 20
1.0000000000000000E+020
 30
1.0000000000000000E+020
  9
$PEXTMAX
 10
-1.0000000000000000E+020
 20
-1.0000000000000000E+020
 30
-1.0000000000000000E+020
  9
$PLIMMIN
 10
0.0
 20
0.0
  9
$PLIMMAX
 10
12.0
 20
9.0
  9
$UNITMODE
 70
     0
  9
$VISRETAIN
 70
     0
  9
$PLINEGEN
 70
     0
  9
$PSLTSCALE
 70
     0
  0
ENDSEC
  0
SECTION
  2
TABLES
  0
TABLE
  2
VPORT
 70
     1
  0
VPORT
  2
*ACTIVE
 70
     0
 10
0.0
 20
0.0
 11
1.0
 21
1.0
 12
162.499466674833
 22
84.023883880237975
 13
0.0
 23
0.0
 14
5.0
 24
5.0
 15
5.0
 25
5.0
 16
0.0
 26
0.0
 36
1.0
 17
0.0
 27
0.0
 37
0.0
 40
175.97265650257901
 41
2.304913294797688
 42
50.0
 43
0.0
 44
0.0
 50
0.0
 51
0.0
 71
     0
 72
   500
 73
     1
 74
     0
 75
     0
 76
     0
 77
     0
 78
     2
  0
ENDTAB
  0
TABLE
  2
LTYPE
 70
     4
  0
LTYPE
  2
CONTINUOUS
 70
     0
  3
Solid Line
 72
    65
 73
     0
 40
0.0
  0
LTYPE
  2
CENTER
 70
     0
  3
____ _ ____ _ ____ _ ____ _ ____ _ ____ _ ____
 72
    65
 73
     4
 40
2.0
 49
1.25
 49
-0.25
 49
0.25
 49
-0.25
  0
LTYPE
  2
HIDDEN
 70
     0
  3
_ _ _ _ _ _ _ _ _ _ _ _ _ _ _ _ _ _ _ _ _ _ _
 72
    65
 73
     2
 40
0.375
 49
0.25
 49
-0.125
  0
LTYPE
  2
PHANTOM2
 70
     0
  3
___ _ _ ___ _ _ ___ _ _ ___ _ _
 72
    65
 73
     6
 40
1.25
 49
0.625
 49
-0.125
 49
0.125
 49
-0.125
 49
0.125
 49
-0.125
  0
ENDTAB
  0
TABLE
  2
LAYER
 70
     3
  0
LAYER
  2
0
 70
     0
 62
     7
  6
CONTINUOUS
  0
LAYER
  2
1
 70
     0
 62
     1
  6
CENTER
  0
LAYER
  2
2
 70
     0
 62
     2
  6
HIDDEN
  0
ENDTAB
  0
TABLE
  2
STYLE
 70
     2
  0
STYLE
  2
STANDARD
 70
     0
 40
0.0
 41
1.0
 50
0.0
 71
     0
 42
5.0
  3
TXT
  4
BIGFONT
  0
STYLE
  2
STANDARD1
 70
     0
 40
0.0
 41
1.0
 50
0.0
 71
     0
 42
3.0
  3
txt
  4

  0
ENDTAB
  0
TABLE
  2
VIEW
 70
     1
  0
VIEW
  2
ALL
 70
     0
 40
135.0
 10
110.4957983193277
 20
67.5
 41
0.0
 11
0.0
 21
0.0
 31
1.0
 12
0.0
 22
0.0
 32
0.0
 42
0.0
 43
0.0
 44
0.0
 50
0.0
 71
     0
  0
ENDTAB
  0
TABLE
  2
UCS
 70
     0
  0
ENDTAB
  0
TABLE
  2
APPID
 70
     4
  0
APPID
  2
ACAD
 70
     0
  0
APPID
  2
_CALL_MAC$
 70
     0
  0
APPID
  2
ACAD_MLEADERVER
 70
     0
  0
APPID
  2
ACAD_NAV_VCDISPLAY
 70
     0
  0
ENDTAB
  0
TABLE
  2
DIMSTYLE
 70
     1
  0
DIMSTYLE
  2
STANDARD
 70
     0
  3

  4

  5

  6

  7

 40
1.0
 41
0.18
 42
0.0625
 43
0.38
 44
0.18
 45
0.0
 46
0.0
 47
0.0
 48
0.0
140
0.18
141
0.09
142
0.0
143
25.399999999999999
144
1.0
145
0.0
146
1.0
147
0.09
 71
     0
 72
     0
 73
     1
 74
     1
 75
     0
 76
     0
 77
     0
 78
     0
170
     0
171
     2
172
     0
173
     0
174
     0
175
     0
176
     0
177
     0
178
     0
  0
ENDTAB
  0
ENDSEC
  0
SECTION
  2
BLOCKS
  0
BLOCK
  8
0
  2
$MODEL_SPACE
 70
     0
 10
0.0
 20
0.0
 30
0.0
  3
$MODEL_SPACE
  1

  0
ENDBLK
  5
4F3
  8
0
  0
BLOCK
 67
     1
  8
0
  2
$PAPER_SPACE
 70
     0
 10
0.0
 20
0.0
 30
0.0
  3
$PAPER_SPACE
  1

  0
ENDBLK
  5
4F1
 67
     1
  8
0
  0
ENDSEC
  0
SECTION
  2
ENTITIES
  0
CIRCLE
  5
417
  8
0
 10
74.821417820195052
 20
141.2594078452621
 30
0.0
 40
24.000000000003009
  0
CIRCLE
  5
419
  8
0
 10
74.821417820195052
 20
141.2594078452621
 30
0.0
 40
17.499999999999741
  0
ARC
  5
41A
  8
0
 10
74.821417820195052
 20
140.3844078452621
 30
0.0
 40
15.875
 50
299.2283546710845
 51
240.7716453289149
  0
LINE
  5
41B
  8
2
 10
185.4101748282321
 20
158.7594078452621
 30
0.0
 11
185.41017482823199
 21
123.7594078452621
 31
0.0
  0
LINE
  5
41C
  8
2
 10
196.41017482823219
 20
158.7594078452621
 30
0.0
 11
196.4101748282321
 21
123.7594078452621
 31
0.0
  0
LINE
  5
41D
  8
0
 10
209.91017482823199
 20
164.759407845265
 30
0.0
 11
209.9101748282321
 21
117.7594078452653
 31
0.0
  0
LINE
  5
41E
  8
2
 10
172.6601748282321
 20
159.75940784526199
 30
0.0
 11
172.6601748282321
 21
122.759407845262
 31
0.0
  0
LINE
  5
41F
  8
2
 10
174.4101748282321
 20
159.7594078452621
 30
0.0
 11
174.4101748282321
 21
122.7594078452621
 31
0.0
  0
LINE
  5
420
  8
2
 10
161.91017482823199
 20
123.7594078452621
 30
0.0
 11
161.91017482823199
 21
158.7594078452621
 31
0.0
  0
LINE
  5
421
  8
0
 10
160.91017482823199
 20
164.759407845265
 30
0.0
 11
160.9101748282321
 21
117.7594078452651
 31
0.0
  0
CIRCLE
  5
422
  8
0
 10
74.821417820195052
 20
141.2594078452621
 30
0.0
 40
7.5
  0
LINE
  5
423
  8
2
 10
185.41017482823199
 20
123.759407845262
 30
0.0
 11
174.4101748282321
 21
123.7594078452621
 31
0.0
  0
LINE
  5
424
  8
2
 10
174.4101748282321
 20
130.25940784526509
 30
0.0
 11
177.3120986168787
 21
130.25940784526509
 31
0.0
  0
LINE
  5
425
  8
2
 10
174.4101748282321
 20
127.259407845265
 30
0.0
 11
177.3120986168787
 21
127.2594078452651
 31
0.0
  0
LINE
  5
426
  8
2
 10
174.4101748282321
 20
133.75940784526509
 30
0.0
 11
196.41017482823219
 21
133.75940784526509
 31
0.0
  0
LINE
  5
427
  8
0
 10
161.4101748282321
 20
117.2594078452651
 30
0.0
 11
209.4101748282319
 21
117.2594078452651
 31
0.0
  0
LINE
  5
428
  8
0
 10
80.64766886523978
 20
127.8787685031141
 30
0.0
 11
82.573046861069315
 21
126.5306043165312
 31
0.0
  0
CIRCLE
  5
429
  8
0
 10
79.500515992537643
 20
126.24046441453621
 30
0.0
 40
1.25
  0
ARC
  5
42A
  8
0
 10
79.500515992537643
 20
126.24046441453621
 30
0.0
 40
2.0
 50
54.99993670022004
 51
190.00002690570111
  0
LINE
  5
42B
  8
0
 10
68.995166775150324
 20
127.8787685031141
 30
0.0
 11
67.069788779320788
 21
126.5306043165312
 31
0.0
  0
CIRCLE
  5
42C
  8
0
 10
70.142319647852446
 20
126.24046441453621
 30
0.0
 40
1.25
  0
ARC
  5
42D
  8
0
 10
70.142319647852446
 20
126.24046441453621
 30
0.0
 40
2.0
 50
349.99997309429892
 51
125.0000632997799
  0
LINE
  5
42E
  8
0
 10
72.111934990788882
 20
125.8931671342847
 30
0.0
 11
71.782574711023685
 21
124.02527216754839
 31
0.0
  0
LINE
  5
42F
  8
0
 10
77.530900649601222
 20
125.8931671342847
 30
0.0
 11
77.860260929366405
 21
124.02527216754839
 31
0.0
  0
LINE
  5
430
  8
2
 10
172.6601748282321
 20
123.7594078452621
 30
0.0
 11
161.91017482823199
 21
123.7594078452621
 31
0.0
  0
LINE
  5
431
  8
2
 10
161.91017482823179
 20
123.759407845262
 30
0.0
 11
160.91017482823179
 21
123.1820575760723
 31
0.0
  0
LINE
  5
432
  8
2
 10
174.4101748282321
 20
122.7594078452621
 30
0.0
 11
172.6601748282321
 21
122.759407845262
 31
0.0
  0
LINE
  5
433
  8
2
 10
209.4101748282321
 20
127.259407845262
 30
0.0
 11
196.4101748282321
 21
127.259407845262
 31
0.0
  0
CIRCLE
  5
434
  8
2
 10
190.91017482823219
 20
128.75940784526509
 30
0.0
 40
3.0
  0
CIRCLE
  5
435
  8
2
 10
179.9101748282321
 20
128.75940784526509
 30
0.0
 40
3.0
  0
LINE
  5
436
  8
2
 10
196.4101748282321
 20
123.759407845262
 30
0.0
 11
185.4101748282321
 21
123.7594078452621
 31
0.0
  0
LINE
  5
437
  8
2
 10
185.41017482823219
 20
127.259407845265
 30
0.0
 11
188.31209861687881
 21
127.2594078452651
 31
0.0
  0
LINE
  5
438
  8
2
 10
182.50825103958539
 20
127.2594078452651
 30
0.0
 11
185.4101748282321
 21
127.2594078452651
 31
0.0
  0
LINE
  5
439
  8
2
 10
193.50825103958539
 20
127.2594078452651
 30
0.0
 11
196.41017482823219
 21
127.2594078452651
 31
0.0
  0
LINE
  5
43A
  8
2
 10
185.41017482823219
 20
130.25940784526509
 30
0.0
 11
188.31209861687881
 21
130.25940784526509
 31
0.0
  0
LINE
  5
43B
  8
2
 10
182.50825103958539
 20
130.25940784526509
 30
0.0
 11
185.4101748282321
 21
130.25940784526509
 31
0.0
  0
LINE
  5
43C
  8
2
 10
193.50825103958539
 20
130.25940784526509
 30
0.0
 11
196.41017482823219
 21
130.25940784526509
 31
0.0
  0
LINE
  5
43D
  8
2
 10
185.41017482823199
 20
158.7594078452621
 30
0.0
 11
174.4101748282321
 21
158.7594078452621
 31
0.0
  0
LINE
  5
43E
  8
2
 10
174.4101748282321
 20
155.25940784526509
 30
0.0
 11
177.3120986168787
 21
155.25940784526509
 31
0.0
  0
LINE
  5
43F
  8
2
 10
174.4101748282321
 20
152.25940784526509
 30
0.0
 11
177.3120986168787
 21
152.25940784526509
 31
0.0
  0
LINE
  5
440
  8
2
 10
174.4101748282321
 20
148.759407845265
 30
0.0
 11
196.41017482823219
 21
148.759407845265
 31
0.0
  0
LINE
  5
441
  8
2
 10
172.6601748282321
 20
158.7594078452621
 30
0.0
 11
161.9101748282321
 21
158.7594078452621
 31
0.0
  0
LINE
  5
442
  8
2
 10
161.9101748282321
 20
158.7594078452621
 30
0.0
 11
160.91017482823199
 21
159.3367581144517
 31
0.0
  0
LINE
  5
443
  8
2
 10
174.4101748282321
 20
159.7594078452621
 30
0.0
 11
172.6601748282321
 21
159.7594078452621
 31
0.0
  0
LINE
  5
444
  8
2
 10
209.41017482823199
 20
155.2594078452621
 30
0.0
 11
196.41017482823219
 21
155.2594078452621
 31
0.0
  0
LINE
  5
445
  8
2
 10
196.4101748282321
 20
158.7594078452621
 30
0.0
 11
185.4101748282321
 21
158.7594078452621
 31
0.0
  0
LINE
  5
446
  8
2
 10
185.41017482823219
 20
152.25940784526509
 30
0.0
 11
188.31209861687881
 21
152.25940784526509
 31
0.0
  0
LINE
  5
447
  8
2
 10
185.41017482823219
 20
155.25940784526509
 30
0.0
 11
188.31209861687881
 21
155.25940784526509
 31
0.0
  0
CIRCLE
  5
448
  8
2
 10
179.9101748282321
 20
153.75940784526509
 30
0.0
 40
3.0
  0
LINE
  5
449
  8
2
 10
182.50825103958539
 20
152.25940784526509
 30
0.0
 11
185.4101748282321
 21
152.25940784526509
 31
0.0
  0
LINE
  5
44A
  8
2
 10
182.50825103958539
 20
155.25940784526509
 30
0.0
 11
185.4101748282321
 21
155.25940784526509
 31
0.0
  0
CIRCLE
  5
44B
  8
2
 10
190.91017482823219
 20
153.75940784526509
 30
0.0
 40
3.0
  0
LINE
  5
44C
  8
2
 10
193.50825103958539
 20
152.25940784526509
 30
0.0
 11
196.41017482823219
 21
152.25940784526509
 31
0.0
  0
LINE
  5
44D
  8
2
 10
193.50825103958539
 20
155.25940784526509
 30
0.0
 11
196.41017482823219
 21
155.25940784526509
 31
0.0
  0
LINE
  5
44F
  8
0
 10
160.9101748282321
 20
117.7594078452651
 30
0.0
 11
161.4101748282321
 21
117.2594078452651
 31
0.0
  0
LINE
  5
450
  8
1
 10
103.82141782019799
 20
141.2594078452621
 30
0.0
 11
45.821417820192039
 21
141.2594078452621
 31
0.0
  0
LINE
  5
451
  8
1
 10
74.821417820195052
 20
170.25940784526509
 30
0.0
 11
74.821417820195052
 21
112.2594078452591
 31
0.0
  0
LINE
  5
452
  8
1
 10
155.9101748282321
 20
141.25940784526509
 30
0.0
 11
214.91017482823199
 21
141.25940784526509
 31
0.0
  0
LINE
  5
453
  8
1
 10
185.41017482823199
 20
170.2594078452652
 30
0.0
 11
185.41017482823199
 21
112.2594078452651
 31
0.0
  0
LINE
  5
454
  8
2
 10
209.91017482823199
 20
155.7594078452621
 30
0.0
 11
209.41017482823199
 21
155.2594078452621
 31
0.0
  0
LINE
  5
455
  8
2
 10
209.4101748282321
 20
127.259407845262
 30
0.0
 11
209.9101748282321
 21
126.759407845262
 31
0.0
  0
LINE
  5
456
  8
2
 10
209.41017482823199
 20
155.2594078452621
 30
0.0
 11
209.4101748282321
 21
127.259407845262
 31
0.0
  0
LINE
  5
457
  8
0
 10
209.9101748282319
 20
117.7594078452651
 30
0.0
 11
209.4101748282319
 21
117.2594078452651
 31
0.0
  0
LINE
  5
458
  8
0
 10
161.4101748282321
 20
165.25940784526509
 30
0.0
 11
209.4101748282319
 21
165.25940784526509
 31
0.0
  0
LINE
  5
459
  8
0
 10
160.9101748282321
 20
164.75940784526509
 30
0.0
 11
161.4101748282321
 21
165.25940784526509
 31
0.0
  0
LINE
  5
45A
  8
0
 10
209.9101748282319
 20
164.75940784526509
 30
0.0
 11
209.4101748282319
 21
165.25940784526509
 31
0.0
  0
LINE
  5
47B
  8
2
 10
172.81017482823211
 20
159.7594078452621
 30
0.0
 11
172.81017482823211
 21
122.7594078452621
 31
0.0
  0
LINE
  5
47C
  8
2
 10
172.81017482823211
 20
156.2594078452621
 30
0.0
 11
174.4101748282321
 21
156.2594078452621
 31
0.0
  0
LINE
  5
47D
  8
2
 10
172.81017482823211
 20
126.2594078452681
 30
0.0
 11
174.4101748282321
 21
126.2594078452681
 31
0.0
  0
LINE
  5
518
  8
1
 10
179.9101748282321
 20
148.25940784526509
 30
0.0
 11
179.9101748282321
 21
159.25940784526509
 31
0.0
  0
LINE
  5
519
  8
1
 10
174.4101748282321
 20
153.75940784526509
 30
0.0
 11
185.4101748282321
 21
153.75940784526509
 31
0.0
  0
LINE
  5
51B
  8
1
 10
190.9101748282321
 20
148.25940784526509
 30
0.0
 11
190.9101748282321
 21
159.25940784526509
 31
0.0
  0
LINE
  5
51C
  8
1
 10
185.41017482823219
 20
153.75940784526509
 30
0.0
 11
196.41017482823219
 21
153.75940784526509
 31
0.0
  0
LINE
  5
51E
  8
1
 10
190.9101748282321
 20
123.2594078452651
 30
0.0
 11
190.9101748282321
 21
134.25940784526509
 31
0.0
  0
LINE
  5
51F
  8
1
 10
185.41017482823219
 20
128.75940784526509
 30
0.0
 11
196.41017482823219
 21
128.75940784526509
 31
0.0
  0
LINE
  5
521
  8
1
 10
179.9101748282321
 20
123.2594078452651
 30
0.0
 11
179.9101748282321
 21
134.25940784526509
 31
0.0
  0
LINE
  5
522
  8
1
 10
174.4101748282321
 20
128.75940784526509
 30
0.0
 11
185.4101748282321
 21
128.75940784526509
 31
0.0
  0
LINE
  5
53B
  8
1
 10
295.99893183626898
 20
170.25940784526509
 30
0.0
 11
295.99893183626898
 21
112.2594078452591
 31
0.0
  0
LINE
  5
53C
  8
1
 10
266.99893183626591
 20
141.2594078452621
 30
0.0
 11
324.99893183627199
 21
141.2594078452621
 31
0.0
  0
CIRCLE
  5
545
  8
0
 10
295.99893183626898
 20
141.2594078452621
 30
0.0
 40
7.5
  0
CIRCLE
  5
548
  8
0
 10
295.99893183626898
 20
141.2594078452621
 30
0.0
 40
24.000000000003009
  0
LINE
  5
549
  8
0
 10
161.4101748282321
 20
165.25940784526509
 30
0.0
 11
161.4101748282321
 21
117.2594078452651
 31
0.0
  0
LINE
  5
54A
  8
0
 10
209.4101748282319
 20
165.25940784526509
 30
0.0
 11
209.4101748282319
 21
117.2594078452651
 31
0.0
  0
CIRCLE
  5
54C
  8
0
 10
295.99893183626898
 20
141.2594078452621
 30
0.0
 40
14.000000000000011
  0
TEXT
  5
5FB
  8
0
 62
     3
 10
0.0
 20
0.0
 30
0.0
 40
10.0
  1
NIPS4550
  7
STANDARD1
  0
ENDSEC
  0
EOF
