  0
SECTION
  2
HEADER
  9
$ACADVER
  1
AC1009
  9
$INSBASE
 10
0.0
 20
0.0
 30
0.0
  9
$EXTMIN
 10
0.0
 20
-2.960436562073669
 30
0.0
  9
$EXTMAX
 10
182.86410629074931
 20
115.72461560493829
 30
0.0
  9
$LIMMIN
 10
0.0
 20
0.0
  9
$LIMMAX
 10
187.5
 20
135.0
  9
$ORTHOMODE
 70
     1
  9
$REGENMODE
 70
     1
  9
$FILLMODE
 70
     1
  9
$QTEXTMODE
 70
     0
  9
$MIRRTEXT
 70
     0
  9
$DRAGMODE
 70
     2
  9
$LTSCALE
 40
5.0
  9
$OSMODE
 70
  3071
  9
$ATTMODE
 70
     1
  9
$TEXTSIZE
 40
5.0
  9
$TRACEWID
 40
0.05
  9
$TEXTSTYLE
  7
STANDARD
  9
$CLAYER
  8
0
  9
$CELTYPE
  6
BYLAYER
  9
$CECOLOR
 62
   256
  9
$DIMSCALE
 40
0.5
  9
$DIMASZ
 40
3.0
  9
$DIMEXO
 40
2.0
  9
$DIMDLI
 40
0.38
  9
$DIMRND
 40
0.0
  9
$DIMDLE
 40
0.0
  9
$DIMEXE
 40
2.0
  9
$DIMTP
 40
0.0
  9
$DIMTM
 40
0.0
  9
$DIMTXT
 40
3.2000000000000002
  9
$DIMCEN
 40
0.09
  9
$DIMTSZ
 40
0.0
  9
$DIMTOL
 70
     0
  9
$DIMLIM
 70
     0
  9
$DIMTIH
 70
     0
  9
$DIMTOH
 70
     0
  9
$DIMSE1
 70
     0
  9
$DIMSE2
 70
     0
  9
$DIMTAD
 70
     1
  9
$DIMZIN
 70
     0
  9
$DIMBLK
  1

  9
$DIMASO
 70
     0
  9
$DIMSHO
 70
     0
  9
$DIMPOST
  1

  9
$DIMAPOST
  1

  9
$DIMALT
 70
     0
  9
$DIMALTD
 70
     2
  9
$DIMALTF
 40
25.399999999999999
  9
$DIMLFAC
 40
1.0
  9
$DIMTOFL
 70
     1
  9
$DIMTVP
 40
1.6000000000000001
  9
$DIMTIX
 70
     1
  9
$DIMSOXD
 70
     0
  9
$DIMSAH
 70
     0
  9
$DIMBLK1
  1

  9
$DIMBLK2
  1

  9
$DIMSTYLE
  2
STANDARD
  9
$DIMCLRD
 70
     0
  9
$DIMCLRE
 70
     0
  9
$DIMCLRT
 70
     0
  9
$DIMTFAC
 40
1.0
  9
$DIMGAP
 40
0.09
  9
$LUNITS
 70
     2
  9
$LUPREC
 70
     4
  9
$SKETCHINC
 40
0.1
  9
$FILLETRAD
 40
0.0
  9
$AUNITS
 70
     0
  9
$AUPREC
 70
     0
  9
$MENU
  1
E:\r13\win\SUPPORT\ACAD
  9
$ELEVATION
 40
0.0
  9
$PELEVATION
 40
0.0
  9
$THICKNESS
 40
0.0
  9
$LIMCHECK
 70
     0
  9
$BLIPMODE
 70
     0
  9
$CHAMFERA
 40
0.0
  9
$CHAMFERB
 40
0.0
  9
$SKPOLY
 70
     0
  9
$TDCREATE
 40
2450158.620717824
  9
$TDUPDATE
 40
2456597.6958973501
  9
$TDINDWG
 40
0.0004687963
  9
$TDUSRTIMER
 40
0.0004687963
  9
$USRTIMER
 70
     1
  9
$ANGBASE
 50
0.0
  9
$ANGDIR
 70
     0
  9
$PDMODE
 70
     0
  9
$PDSIZE
 40
0.0
  9
$PLINEWID
 40
0.0
  9
$COORDS
 70
     1
  9
$SPLFRAME
 70
     0
  9
$SPLINETYPE
 70
     6
  9
$SPLINESEGS
 70
     8
  9
$ATTDIA
 70
     0
  9
$ATTREQ
 70
     1
  9
$HANDLING
 70
     1
  9
$HANDSEED
  5
288
  9
$SURFTAB1
 70
     6
  9
$SURFTAB2
 70
     6
  9
$SURFTYPE
 70
     6
  9
$SURFU
 70
     6
  9
$SURFV
 70
     6
  9
$UCSNAME
  2

  9
$UCSORG
 10
0.0
 20
0.0
 30
0.0
  9
$UCSXDIR
 10
1.0
 20
0.0
 30
0.0
  9
$UCSYDIR
 10
0.0
 20
1.0
 30
0.0
  9
$PUCSNAME
  2

  9
$PUCSORG
 10
0.0
 20
0.0
 30
0.0
  9
$PUCSXDIR
 10
1.0
 20
0.0
 30
0.0
  9
$PUCSYDIR
 10
0.0
 20
1.0
 30
0.0
  9
$USERI1
 70
     0
  9
$USERI2
 70
     1
  9
$USERI3
 70
     0
  9
$USERI4
 70
     0
  9
$USERI5
 70
     0
  9
$USERR1
 40
0.0
  9
$USERR2
 40
0.0
  9
$USERR3
 40
0.0
  9
$USERR4
 40
0.0
  9
$USERR5
 40
0.0
  9
$WORLDVIEW
 70
     1
  9
$SHADEDGE
 70
     3
  9
$SHADEDIF
 70
    70
  9
$TILEMODE
 70
     1
  9
$MAXACTVP
 70
    16
  9
$PLIMCHECK
 70
     0
  9
$PEXTMIN
 10
1.0000000000000000E+020
 20
1.0000000000000000E+020
 30
1.0000000000000000E+020
  9
$PEXTMAX
 10
-1.0000000000000000E+020
 20
-1.0000000000000000E+020
 30
-1.0000000000000000E+020
  9
$PLIMMIN
 10
0.0
 20
0.0
  9
$PLIMMAX
 10
12.0
 20
9.0
  9
$UNITMODE
 70
     0
  9
$VISRETAIN
 70
     0
  9
$PLINEGEN
 70
     0
  9
$PSLTSCALE
 70
     0
  0
ENDSEC
  0
SECTION
  2
TABLES
  0
TABLE
  2
VPORT
 70
     1
  0
VPORT
  2
*ACTIVE
 70
     0
 10
0.0
 20
0.0
 11
1.0
 21
1.0
 12
93.74713919532617
 22
66.313465060797697
 13
0.0
 23
0.0
 14
5.0
 24
5.0
 15
5.0
 25
5.0
 16
0.0
 26
0.0
 36
1.0
 17
0.0
 27
0.0
 37
0.0
 40
140.15365342376049
 41
2.304913294797688
 42
50.0
 43
0.0
 44
0.0
 50
0.0
 51
0.0
 71
     0
 72
   100
 73
     1
 74
     0
 75
     0
 76
     0
 77
     0
 78
     2
  0
ENDTAB
  0
TABLE
  2
LTYPE
 70
     4
  0
LTYPE
  2
CONTINUOUS
 70
     0
  3
Solid Line
 72
    65
 73
     0
 40
0.0
  0
LTYPE
  2
CENTER
 70
     0
  3
____ _ ____ _ ____ _ ____ _ ____ _ ____ _ ____
 72
    65
 73
     4
 40
2.0
 49
1.25
 49
-0.25
 49
0.25
 49
-0.25
  0
LTYPE
  2
HIDDEN
 70
     0
  3
_ _ _ _ _ _ _ _ _ _ _ _ _ _ _ _ _ _ _ _ _ _ _
 72
    65
 73
     2
 40
0.375
 49
0.25
 49
-0.125
  0
LTYPE
  2
PHANTOM2
 70
     0
  3
___ _ _ ___ _ _ ___ _ _ ___ _ _
 72
    65
 73
     6
 40
1.25
 49
0.625
 49
-0.125
 49
0.125
 49
-0.125
 49
0.125
 49
-0.125
  0
ENDTAB
  0
TABLE
  2
LAYER
 70
     3
  0
LAYER
  2
0
 70
     0
 62
     7
  6
CONTINUOUS
  0
LAYER
  2
1
 70
     0
 62
     1
  6
CENTER
  0
LAYER
  2
2
 70
     0
 62
     2
  6
HIDDEN
  0
ENDTAB
  0
TABLE
  2
STYLE
 70
     2
  0
STYLE
  2
STANDARD
 70
     0
 40
0.0
 41
1.0
 50
0.0
 71
     0
 42
5.0
  3
TXT
  4
BIGFONT
  0
STYLE
  2
STANDARD1
 70
     0
 40
0.0
 41
1.0
 50
0.0
 71
     0
 42
3.0
  3
txt
  4

  0
ENDTAB
  0
TABLE
  2
VIEW
 70
     1
  0
VIEW
  2
ALL
 70
     0
 40
135.0
 10
110.49579799999999
 20
67.5
 41
0.0
 11
0.0
 21
0.0
 31
1.0
 12
0.0
 22
0.0
 32
0.0
 42
0.0
 43
0.0
 44
0.0
 50
0.0
 71
     0
  0
ENDTAB
  0
TABLE
  2
UCS
 70
     0
  0
ENDTAB
  0
TABLE
  2
APPID
 70
     3
  0
APPID
  2
ACAD
 70
     0
  0
APPID
  2
ACAD_MLEADERVER
 70
     0
  0
APPID
  2
ACAD_NAV_VCDISPLAY
 70
     0
  0
ENDTAB
  0
TABLE
  2
DIMSTYLE
 70
     1
  0
DIMSTYLE
  2
STANDARD
 70
     0
  3

  4

  5

  6

  7

 40
1.0
 41
0.18
 42
0.0625
 43
0.38
 44
0.18
 45
0.0
 46
0.0
 47
0.0
 48
0.0
140
0.18
141
0.09
142
0.0
143
25.399999999999999
144
1.0
145
0.0
146
1.0
147
0.09
 71
     0
 72
     0
 73
     1
 74
     1
 75
     0
 76
     0
 77
     0
 78
     0
170
     0
171
     2
172
     0
173
     0
174
     0
175
     0
176
     0
177
     0
178
     0
  0
ENDTAB
  0
ENDSEC
  0
SECTION
  2
BLOCKS
  0
BLOCK
  8
0
  2
$MODEL_SPACE
 70
     0
 10
0.0
 20
0.0
 30
0.0
  3
$MODEL_SPACE
  1

  0
ENDBLK
  5
C3
  8
0
  0
BLOCK
 67
     1
  8
0
  2
$PAPER_SPACE
 70
     0
 10
0.0
 20
0.0
 30
0.0
  3
$PAPER_SPACE
  1

  0
ENDBLK
  5
C1
 67
     1
  8
0
  0
ENDSEC
  0
SECTION
  2
ENTITIES
  0
LINE
  5
E6
  8
2
 10
173.11410629074891
 20
73.224615604938705
 30
0.0
 11
177.86410629074919
 21
68.474615604938407
 31
0.0
  0
LINE
  5
E7
  8
1
 10
170.61410629074919
 20
76.724615604938037
 30
0.0
 11
160.61410629074919
 21
76.724615604938037
 31
0.0
  0
LINE
  5
E8
  8
2
 10
163.32281844327289
 20
77.724615604941704
 30
0.0
 11
160.11410629074919
 21
77.724615604941675
 31
0.0
  0
LINE
  5
E9
  8
2
 10
163.32281844327289
 20
75.724615604938009
 30
0.0
 11
160.11410629074919
 21
75.724615604938009
 31
0.0
  0
LINE
  5
EA
  8
2
 10
171.11410629074919
 20
77.724615604941704
 30
0.0
 11
167.9053941382256
 21
77.724615604941704
 31
0.0
  0
LINE
  5
EB
  8
2
 10
171.11410629074919
 20
75.724615604938023
 30
0.0
 11
167.9053941382256
 21
75.724615604938009
 31
0.0
  0
CIRCLE
  5
EC
  8
2
 10
165.61410629074919
 20
76.724615604938037
 30
0.0
 40
2.5
  0
LINE
  5
ED
  8
2
 10
161.11410629074919
 20
81.724615604937838
 30
0.0
 11
170.11410629074919
 21
81.724615604937838
 31
0.0
  0
ARC
  5
EE
  8
2
 10
161.11410629074919
 20
80.724615604937824
 30
0.0
 40
1.0
 50
90.000000000000028
 51
179.99999999999989
  0
ARC
  5
EF
  8
2
 10
170.11410629074919
 20
80.724615604937824
 30
0.0
 40
1.0
 50
0.0
 51
90.000000000000028
  0
ARC
  5
F0
  8
2
 10
170.11410629074919
 20
72.724615604938265
 30
0.0
 40
1.0
 50
270.0
 51
0.0
  0
ARC
  5
F1
  8
2
 10
161.11410629074919
 20
72.724615604938265
 30
0.0
 40
1.0
 50
180.0
 51
270.0
  0
LINE
  5
F2
  8
2
 10
171.11410629074919
 20
72.724615604938265
 30
0.0
 11
171.11410629074911
 21
105.72461560493841
 31
0.0
  0
LINE
  5
F3
  8
2
 10
161.11410629074919
 20
71.724615604938265
 30
0.0
 11
170.11410629074919
 21
71.724615604938265
 31
0.0
  0
LINE
  5
F4
  8
2
 10
160.11410629074919
 20
105.72461560493841
 30
0.0
 11
160.11410629074919
 21
72.724615604938265
 31
0.0
  0
LINE
  5
F5
  8
2
 10
173.11410629074891
 20
73.224615604938705
 30
0.0
 11
171.11410629074919
 21
73.22461560493872
 31
0.0
  0
LINE
  5
F6
  8
2
 10
173.11410629074891
 20
105.22461560493799
 30
0.0
 11
173.11410629074891
 21
73.224615604938705
 31
0.0
  0
LINE
  5
F7
  8
2
 10
176.61410629074931
 20
69.724615604938407
 30
0.0
 11
173.61410629074891
 21
69.724615604938407
 31
0.0
  0
LINE
  5
F8
  8
2
 10
173.11410629074891
 20
73.224615604938705
 30
0.0
 11
173.11410629074891
 21
70.224615604938407
 31
0.0
  0
LINE
  5
F9
  8
2
 10
158.1141062907495
 20
73.224615604938705
 30
0.0
 11
158.11410629074939
 21
70.224615604938492
 31
0.0
  0
LINE
  5
FA
  8
2
 10
154.61410629074919
 20
69.724615604938492
 30
0.0
 11
157.61410629074939
 21
69.724615604938492
 31
0.0
  0
LINE
  5
FB
  8
2
 10
158.1141062907495
 20
105.2246156049379
 30
0.0
 11
158.1141062907495
 21
73.224615604938705
 31
0.0
  0
LINE
  5
FC
  8
2
 10
158.1141062907495
 20
73.224615604938705
 30
0.0
 11
160.11410629074919
 21
73.22461560493872
 31
0.0
  0
LINE
  5
FD
  8
2
 10
154.61410629074919
 20
69.724615604938492
 30
0.0
 11
154.61410629074931
 21
108.72461560493809
 31
0.0
  0
LINE
  5
FE
  8
2
 10
176.61410629074919
 20
108.72461560493819
 30
0.0
 11
176.61410629074931
 21
69.724615604938407
 31
0.0
  0
ARC
  5
FF
  8
2
 10
157.61410629074939
 20
70.224615604938492
 30
0.0
 40
0.5
 50
270.0
 51
0.0
  0
ARC
  5
100
  8
2
 10
173.61410629074891
 20
70.224615604938407
 30
0.0
 40
0.5
 50
180.0
 51
270.0
  0
LINE
  5
101
  8
2
 10
158.1141062907495
 20
73.224615604938705
 30
0.0
 11
153.36410629074919
 21
68.474615604938492
 31
0.0
  0
CIRCLE
  5
102
  8
0
 10
66.340475395431952
 20
89.224615604938109
 30
0.0
 40
21.5
  0
LINE
  5
103
  8
1
 10
66.340475395431952
 20
115.72461560493809
 30
0.0
 11
66.340475395431952
 21
62.724615604938109
 31
0.0
  0
LINE
  5
104
  8
1
 10
92.840475395431952
 20
89.224615604938094
 30
0.0
 11
39.840475395431952
 21
89.224615604938109
 31
0.0
  0
LINE
  5
105
  8
0
 10
177.36410629074931
 20
67.724615604938165
 30
0.0
 11
177.86410629074931
 21
68.224615604938165
 31
0.0
  0
LINE
  5
106
  8
0
 10
153.86410629074919
 20
67.724615604938165
 30
0.0
 11
153.36410629074919
 21
68.224615604938165
 31
0.0
  0
LINE
  5
107
  8
0
 10
153.86410629074919
 20
110.72461560493861
 30
0.0
 11
153.36410629074919
 21
110.22461560493861
 31
0.0
  0
LINE
  5
108
  8
0
 10
177.36410629074931
 20
110.72461560493809
 30
0.0
 11
177.86410629074931
 21
110.22461560493809
 31
0.0
  0
LINE
  5
109
  8
1
 10
165.61410629074919
 20
62.72461560493818
 30
0.0
 11
165.61410629075019
 21
115.72461560493829
 31
0.0
  0
LINE
  5
10A
  8
1
 10
182.86410629074931
 20
89.224615604938364
 30
0.0
 11
148.36410629074919
 21
89.224615604938364
 31
0.0
  0
LINE
  5
10B
  8
0
 10
67.040475395431827
 20
69.737183757719251
 30
0.0
 11
67.040475395431827
 21
73.239935439229455
 31
0.0
  0
LINE
  5
10C
  8
0
 10
74.444708375464174
 20
71.488454582739493
 30
0.0
 11
73.104263339261294
 21
74.724575168756274
 31
0.0
  0
LINE
  5
10D
  8
0
 10
73.151277029948673
 20
70.952697777428483
 30
0.0
 11
71.810831993745794
 21
74.188818363445264
 31
0.0
  0
LINE
  5
10E
  8
0
 10
80.61514534934156
 20
75.93989514468943
 30
0.0
 11
78.138325882533138
 21
78.416714611497881
 31
0.0
  0
LINE
  5
10F
  8
0
 10
79.625195855680658
 20
74.949945651028486
 30
0.0
 11
77.148376388872165
 21
77.426765117836936
 31
0.0
  0
LINE
  5
110
  8
0
 10
84.612393222941606
 20
82.413813970421387
 30
0.0
 11
81.376272636924796
 21
83.754259006624295
 31
0.0
  0
LINE
  5
111
  8
0
 10
84.076636417630596
 20
81.120382624905872
 30
0.0
 11
80.840515831613857
 21
82.460827661108794
 31
0.0
  0
LINE
  5
112
  8
0
 10
85.827907242650838
 20
89.924615604937941
 30
0.0
 11
82.325155561140605
 21
89.924615604937941
 31
0.0
  0
LINE
  5
113
  8
0
 10
85.827907242650838
 20
88.524615604938248
 30
0.0
 11
82.325155561140605
 21
88.524615604938248
 31
0.0
  0
LINE
  5
114
  8
0
 10
84.076636417630596
 20
97.328848584970331
 30
0.0
 11
80.840515831613857
 21
95.988403548767394
 31
0.0
  0
LINE
  5
115
  8
0
 10
84.612393222941606
 20
96.035417239454816
 30
0.0
 11
81.376272636924796
 21
94.694972203251893
 31
0.0
  0
LINE
  5
116
  8
0
 10
79.625195855680658
 20
103.4992855588477
 30
0.0
 11
77.148376388872165
 21
101.0224660920392
 31
0.0
  0
LINE
  5
117
  8
0
 10
80.615145349341617
 20
102.5093360651867
 30
0.0
 11
78.138325882533195
 21
100.03251659837829
 31
0.0
  0
LINE
  5
118
  8
0
 10
73.151277029948673
 20
107.49653343244771
 30
0.0
 11
71.810831993745794
 21
104.2604128464309
 31
0.0
  0
LINE
  5
119
  8
0
 10
74.444708375464174
 20
106.9607766271367
 30
0.0
 11
73.104263339261294
 21
103.7246560411199
 31
0.0
  0
LINE
  5
11A
  8
0
 10
67.040475395431827
 20
108.7120474521569
 30
0.0
 11
67.040475395431827
 21
105.2092957706467
 31
0.0
  0
CIRCLE
  5
11B
  8
0
 10
66.340475395431952
 20
89.224615604938066
 30
0.0
 40
19.5
  0
CIRCLE
  5
11C
  8
0
 10
66.340475395431952
 20
89.224615604938066
 30
0.0
 40
16.000000000000039
  0
CIRCLE
  5
11D
  8
0
 10
66.340475395431952
 20
89.224615604938094
 30
0.0
 40
7.5000000000000986
  0
ARC
  5
11E
  8
2
 10
173.61410629074891
 20
108.22461560493829
 30
0.0
 40
0.5
 50
90.0
 51
179.99999999999989
  0
ARC
  5
11F
  8
2
 10
157.61410629074939
 20
108.22461560493819
 30
0.0
 40
0.5
 50
0.0
 51
90.0
  0
LINE
  5
120
  8
0
 10
65.640475395432077
 20
108.7120474521569
 30
0.0
 11
65.640475395432077
 21
105.2092957706467
 31
0.0
  0
LINE
  5
121
  8
0
 10
58.236242415399708
 20
106.9607766271367
 30
0.0
 11
59.576687451602652
 21
103.7246560411199
 31
0.0
  0
LINE
  5
122
  8
0
 10
59.529673760915209
 20
107.49653343244771
 30
0.0
 11
60.870118797118153
 21
104.2604128464309
 31
0.0
  0
LINE
  5
123
  8
0
 10
52.06580544152235
 20
102.5093360651867
 30
0.0
 11
54.542624908330772
 21
100.03251659837829
 31
0.0
  0
LINE
  5
124
  8
0
 10
53.055754935183252
 20
103.4992855588477
 30
0.0
 11
55.532574401991717
 21
101.0224660920392
 31
0.0
  0
LINE
  5
125
  8
0
 10
48.068557567922312
 20
96.035417239454816
 30
0.0
 11
51.304678153939101
 21
94.694972203251893
 31
0.0
  0
LINE
  5
126
  8
0
 10
48.604314373233358
 20
97.328848584970331
 30
0.0
 11
51.840434959250103
 21
95.988403548767394
 31
0.0
  0
LINE
  5
127
  8
0
 10
46.853043548213122
 20
88.524615604938248
 30
0.0
 11
50.355795229723299
 21
88.524615604938248
 31
0.0
  0
LINE
  5
128
  8
0
 10
46.853043548213122
 20
89.924615604937941
 30
0.0
 11
50.355795229723299
 21
89.924615604937941
 31
0.0
  0
LINE
  5
129
  8
0
 10
48.604314373233358
 20
81.120382624905872
 30
0.0
 11
51.840434959250103
 21
82.460827661108794
 31
0.0
  0
LINE
  5
12A
  8
0
 10
48.068557567922312
 20
82.413813970421387
 30
0.0
 11
51.304678153939101
 21
83.754259006624295
 31
0.0
  0
LINE
  5
12B
  8
0
 10
53.055754935183252
 20
74.949945651028486
 30
0.0
 11
55.532574401991717
 21
77.426765117836936
 31
0.0
  0
LINE
  5
12C
  8
0
 10
52.06580544152235
 20
75.93989514468943
 30
0.0
 11
54.542624908330772
 21
78.416714611497881
 31
0.0
  0
LINE
  5
12D
  8
0
 10
59.529673760915209
 20
70.952697777428483
 30
0.0
 11
60.870118797118153
 21
74.188818363445264
 31
0.0
  0
LINE
  5
12E
  8
0
 10
58.236242415399708
 20
71.488454582739493
 30
0.0
 11
59.576687451602652
 21
74.724575168756274
 31
0.0
  0
LINE
  5
12F
  8
0
 10
65.640475395432077
 20
69.737183757719251
 30
0.0
 11
65.640475395432077
 21
73.239935439229455
 31
0.0
  0
LINE
  5
130
  8
2
 10
158.1141062907495
 20
105.22461560493799
 30
0.0
 11
160.11410629074919
 21
105.22461560493799
 31
0.0
  0
LINE
  5
131
  8
2
 10
158.1141062907495
 20
105.22461560493799
 30
0.0
 11
153.36410629074919
 21
109.97461560493819
 31
0.0
  0
LINE
  5
132
  8
2
 10
154.61410629074919
 20
108.72461560493819
 30
0.0
 11
157.61410629074939
 21
108.72461560493819
 31
0.0
  0
LINE
  5
133
  8
2
 10
158.1141062907495
 20
105.22461560493799
 30
0.0
 11
158.11410629074939
 21
108.22461560493819
 31
0.0
  0
LINE
  5
134
  8
2
 10
173.11410629074891
 20
105.22461560493799
 30
0.0
 11
173.11410629074891
 21
108.22461560493829
 31
0.0
  0
LINE
  5
135
  8
2
 10
176.61410629074931
 20
108.72461560493829
 30
0.0
 11
173.61410629074891
 21
108.72461560493829
 31
0.0
  0
LINE
  5
136
  8
2
 10
173.11410629074891
 20
105.22461560493799
 30
0.0
 11
177.86410629074919
 21
109.97461560493829
 31
0.0
  0
LINE
  5
137
  8
2
 10
173.11410629074891
 20
105.22461560493799
 30
0.0
 11
171.11410629074919
 21
105.22461560493799
 31
0.0
  0
LINE
  5
138
  8
2
 10
161.11410629074919
 20
106.72461560493841
 30
0.0
 11
170.11410629074919
 21
106.72461560493841
 31
0.0
  0
ARC
  5
139
  8
2
 10
161.11410629074919
 20
105.72461560493841
 30
0.0
 40
1.0
 50
90.0
 51
179.99999999999989
  0
ARC
  5
13A
  8
2
 10
170.11410629074919
 20
105.72461560493841
 30
0.0
 40
1.0
 50
0.0
 51
90.0
  0
ARC
  5
13B
  8
2
 10
170.11410629074919
 20
97.72461560493889
 30
0.0
 40
1.0
 50
270.0
 51
0.0
  0
ARC
  5
13C
  8
2
 10
161.11410629074919
 20
97.72461560493889
 30
0.0
 40
1.0
 50
180.0
 51
270.0
  0
LINE
  5
13D
  8
2
 10
161.11410629074919
 20
96.72461560493889
 30
0.0
 11
170.11410629074919
 21
96.72461560493889
 31
0.0
  0
CIRCLE
  5
13E
  8
2
 10
165.61410629074919
 20
101.72461560493871
 30
0.0
 40
2.5
  0
LINE
  5
13F
  8
2
 10
171.11410629074919
 20
102.72461560493871
 30
0.0
 11
167.9053941382256
 21
102.72461560493871
 31
0.0
  0
LINE
  5
140
  8
2
 10
171.11410629074919
 20
100.724615604935
 30
0.0
 11
167.9053941382256
 21
100.724615604935
 31
0.0
  0
LINE
  5
141
  8
2
 10
163.32281844327289
 20
102.72461560493871
 30
0.0
 11
160.11410629074919
 21
102.72461560493871
 31
0.0
  0
LINE
  5
142
  8
2
 10
163.32281844327289
 20
100.724615604935
 30
0.0
 11
160.11410629074919
 21
100.724615604935
 31
0.0
  0
LINE
  5
143
  8
1
 10
170.61410629074919
 20
101.72461560493871
 30
0.0
 11
160.61410629074919
 21
101.72461560493871
 31
0.0
  0
LINE
  5
144
  8
0
 10
153.86410629074919
 20
67.724615604938165
 30
0.0
 11
177.36410629074931
 21
67.724615604938165
 31
0.0
  0
LINE
  5
145
  8
0
 10
153.36410629074919
 20
110.22461560493861
 30
0.0
 11
153.36410629074919
 21
68.224615604938165
 31
0.0
  0
LINE
  5
146
  8
0
 10
177.36410629074931
 20
110.72461560493809
 30
0.0
 11
153.86410629074919
 21
110.72461560493861
 31
0.0
  0
LINE
  5
147
  8
0
 10
177.86410629074931
 20
68.224615604938165
 30
0.0
 11
177.86410629074931
 21
110.22461560493809
 31
0.0
  0
TEXT
  5
1F7
  8
0
 62
     3
 10
0.0
 20
0.0
 30
0.0
 40
10.0
  1
NIP2045
  7
STANDARD1
  0
ENDSEC
  0
EOF
