  0
SECTION
  2
HEADER
  9
$ACADVER
  1
AC1009
  9
$INSBASE
 10
0.0
 20
0.0
 30
0.0
  9
$EXTMIN
 10
0.0
 20
-1.4802182810368341
 30
0.0
  9
$EXTMAX
 10
120.9375539194571
 20
80.376808962896462
 30
0.0
  9
$LIMMIN
 10
0.0
 20
0.0
  9
$LIMMAX
 10
187.5
 20
135.0
  9
$ORTHOMODE
 70
     1
  9
$REGENMODE
 70
     1
  9
$FILLMODE
 70
     1
  9
$QTEXTMODE
 70
     0
  9
$MIRRTEXT
 70
     0
  9
$DRAGMODE
 70
     2
  9
$LTSCALE
 40
5.0
  9
$OSMODE
 70
  3071
  9
$ATTMODE
 70
     1
  9
$TEXTSIZE
 40
4.0
  9
$TRACEWID
 40
0.05
  9
$TEXTSTYLE
  7
STANDARD
  9
$CLAYER
  8
0
  9
$CELTYPE
  6
BYLAYER
  9
$CECOLOR
 62
   256
  9
$DIMSCALE
 40
0.5
  9
$DIMASZ
 40
3.0
  9
$DIMEXO
 40
2.0
  9
$DIMDLI
 40
0.38
  9
$DIMRND
 40
0.0
  9
$DIMDLE
 40
0.0
  9
$DIMEXE
 40
2.0
  9
$DIMTP
 40
0.0
  9
$DIMTM
 40
0.0
  9
$DIMTXT
 40
3.0
  9
$DIMCEN
 40
0.0
  9
$DIMTSZ
 40
0.0
  9
$DIMTOL
 70
     0
  9
$DIMLIM
 70
     0
  9
$DIMTIH
 70
     0
  9
$DIMTOH
 70
     0
  9
$DIMSE1
 70
     0
  9
$DIMSE2
 70
     0
  9
$DIMTAD
 70
     1
  9
$DIMZIN
 70
     0
  9
$DIMBLK
  1

  9
$DIMASO
 70
     0
  9
$DIMSHO
 70
     0
  9
$DIMPOST
  1

  9
$DIMAPOST
  1

  9
$DIMALT
 70
     0
  9
$DIMALTD
 70
     2
  9
$DIMALTF
 40
25.399999999999999
  9
$DIMLFAC
 40
1.0
  9
$DIMTOFL
 70
     0
  9
$DIMTVP
 40
1.6000000000000001
  9
$DIMTIX
 70
     1
  9
$DIMSOXD
 70
     0
  9
$DIMSAH
 70
     0
  9
$DIMBLK1
  1

  9
$DIMBLK2
  1

  9
$DIMSTYLE
  2
STANDARD
  9
$DIMCLRD
 70
     0
  9
$DIMCLRE
 70
     0
  9
$DIMCLRT
 70
     0
  9
$DIMTFAC
 40
1.0
  9
$DIMGAP
 40
0.09
  9
$LUNITS
 70
     2
  9
$LUPREC
 70
     4
  9
$SKETCHINC
 40
0.1
  9
$FILLETRAD
 40
0.4
  9
$AUNITS
 70
     0
  9
$AUPREC
 70
     0
  9
$MENU
  1
E:\r13\win\SUPPORT\ACAD
  9
$ELEVATION
 40
0.0
  9
$PELEVATION
 40
0.0
  9
$THICKNESS
 40
0.0
  9
$LIMCHECK
 70
     0
  9
$BLIPMODE
 70
     0
  9
$CHAMFERA
 40
0.0
  9
$CHAMFERB
 40
0.0
  9
$SKPOLY
 70
     0
  9
$TDCREATE
 40
2449840.6143865739
  9
$TDUPDATE
 40
2456597.6899015862
  9
$TDINDWG
 40
0.2760625347
  9
$TDUSRTIMER
 40
0.2760625347
  9
$USRTIMER
 70
     1
  9
$ANGBASE
 50
0.0
  9
$ANGDIR
 70
     0
  9
$PDMODE
 70
     0
  9
$PDSIZE
 40
0.0
  9
$PLINEWID
 40
0.0
  9
$COORDS
 70
     1
  9
$SPLFRAME
 70
     0
  9
$SPLINETYPE
 70
     6
  9
$SPLINESEGS
 70
     8
  9
$ATTDIA
 70
     0
  9
$ATTREQ
 70
     1
  9
$HANDLING
 70
     1
  9
$HANDSEED
  5
1EE1
  9
$SURFTAB1
 70
     6
  9
$SURFTAB2
 70
     6
  9
$SURFTYPE
 70
     6
  9
$SURFU
 70
     6
  9
$SURFV
 70
     6
  9
$UCSNAME
  2

  9
$UCSORG
 10
0.0
 20
0.0
 30
0.0
  9
$UCSXDIR
 10
1.0
 20
0.0
 30
0.0
  9
$UCSYDIR
 10
0.0
 20
1.0
 30
0.0
  9
$PUCSNAME
  2

  9
$PUCSORG
 10
0.0
 20
0.0
 30
0.0
  9
$PUCSXDIR
 10
1.0
 20
0.0
 30
0.0
  9
$PUCSYDIR
 10
0.0
 20
1.0
 30
0.0
  9
$USERI1
 70
     0
  9
$USERI2
 70
     1
  9
$USERI3
 70
     1
  9
$USERI4
 70
     0
  9
$USERI5
 70
     0
  9
$USERR1
 40
0.0
  9
$USERR2
 40
0.0
  9
$USERR3
 40
0.0
  9
$USERR4
 40
0.0
  9
$USERR5
 40
0.0
  9
$WORLDVIEW
 70
     1
  9
$SHADEDGE
 70
     3
  9
$SHADEDIF
 70
    70
  9
$TILEMODE
 70
     1
  9
$MAXACTVP
 70
    16
  9
$PLIMCHECK
 70
     0
  9
$PEXTMIN
 10
1.0000000000000000E+020
 20
1.0000000000000000E+020
 30
1.0000000000000000E+020
  9
$PEXTMAX
 10
-1.0000000000000000E+020
 20
-1.0000000000000000E+020
 30
-1.0000000000000000E+020
  9
$PLIMMIN
 10
0.0
 20
0.0
  9
$PLIMMAX
 10
12.0
 20
9.0
  9
$UNITMODE
 70
     0
  9
$VISRETAIN
 70
     0
  9
$PLINEGEN
 70
     0
  9
$PSLTSCALE
 70
     0
  0
ENDSEC
  0
SECTION
  2
TABLES
  0
TABLE
  2
VPORT
 70
     1
  0
VPORT
  2
*ACTIVE
 70
     0
 10
0.0
 20
0.0
 11
1.0
 21
1.0
 12
93.747139195326156
 22
67.05183146954721
 13
0.0
 23
0.0
 14
5.0
 24
5.0
 15
5.0
 25
5.0
 16
0.0
 26
0.0
 36
1.0
 17
0.0
 27
0.0
 37
0.0
 40
138.6470298934976
 41
2.304913294797688
 42
50.0
 43
0.0
 44
0.0
 50
0.0
 51
0.0
 71
     0
 72
   100
 73
     1
 74
     0
 75
     0
 76
     0
 77
     0
 78
     0
  0
ENDTAB
  0
TABLE
  2
LTYPE
 70
     4
  0
LTYPE
  2
CONTINUOUS
 70
     0
  3
Solid Line
 72
    65
 73
     0
 40
0.0
  0
LTYPE
  2
CENTER
 70
     0
  3
____ _ ____ _ ____ _ ____ _ ____ _ ____ _ ____
 72
    65
 73
     4
 40
2.0
 49
1.25
 49
-0.25
 49
0.25
 49
-0.25
  0
LTYPE
  2
HIDDEN
 70
     0
  3
_ _ _ _ _ _ _ _ _ _ _ _ _ _ _ _ _ _ _ _ _ _ _
 72
    65
 73
     2
 40
0.375
 49
0.25
 49
-0.125
  0
LTYPE
  2
PHANTOM2
 70
     0
  3
___ _ _ ___ _ _ ___ _ _ ___ _ _
 72
    65
 73
     6
 40
1.25
 49
0.625
 49
-0.125
 49
0.125
 49
-0.125
 49
0.125
 49
-0.125
  0
ENDTAB
  0
TABLE
  2
LAYER
 70
     4
  0
LAYER
  2
0
 70
     0
 62
     7
  6
CONTINUOUS
  0
LAYER
  2
1
 70
     0
 62
     1
  6
CENTER
  0
LAYER
  2
3
 70
     0
 62
     3
  6
CONTINUOUS
  0
LAYER
  2
2
 70
     0
 62
     2
  6
HIDDEN
  0
ENDTAB
  0
TABLE
  2
STYLE
 70
     2
  0
STYLE
  2
STANDARD
 70
     0
 40
0.0
 41
1.0
 50
0.0
 71
     0
 42
4.0
  3
TXT
  4
BIGFONT
  0
STYLE
  2
STANDARD1
 70
     0
 40
0.0
 41
1.0
 50
0.0
 71
     0
 42
3.0
  3
txt
  4

  0
ENDTAB
  0
TABLE
  2
VIEW
 70
     1
  0
VIEW
  2
ALL
 70
     0
 40
179.66152299999999
 10
141.903918
 20
89.830760999999995
 41
0.0
 11
0.0
 21
0.0
 31
1.0
 12
0.0
 22
0.0
 32
0.0
 42
0.0
 43
0.0
 44
0.0
 50
0.0
 71
     0
  0
ENDTAB
  0
TABLE
  2
UCS
 70
     0
  0
ENDTAB
  0
TABLE
  2
APPID
 70
     4
  0
APPID
  2
ACAD
 70
     0
  0
APPID
  2
DCO15
 70
     0
  0
APPID
  2
ACAD_MLEADERVER
 70
     0
  0
APPID
  2
ACAD_NAV_VCDISPLAY
 70
     0
  0
ENDTAB
  0
TABLE
  2
DIMSTYLE
 70
     1
  0
DIMSTYLE
  2
STANDARD
 70
     0
  3

  4

  5

  6

  7

 40
1.0
 41
0.18
 42
0.0625
 43
0.38
 44
0.18
 45
0.0
 46
0.0
 47
0.0
 48
0.0
140
0.18
141
0.09
142
0.0
143
25.399999999999999
144
1.0
145
0.0
146
1.0
147
0.09
 71
     0
 72
     0
 73
     1
 74
     1
 75
     0
 76
     0
 77
     0
 78
     0
170
     0
171
     2
172
     0
173
     0
174
     0
175
     0
176
     0
177
     0
178
     0
  0
ENDTAB
  0
ENDSEC
  0
SECTION
  2
BLOCKS
  0
BLOCK
  8
0
  2
$MODEL_SPACE
 70
     0
 10
0.0
 20
0.0
 30
0.0
  3
$MODEL_SPACE
  1

  0
ENDBLK
  5
1BD
  8
0
  0
BLOCK
 67
     1
  8
0
  2
$PAPER_SPACE
 70
     0
 10
0.0
 20
0.0
 30
0.0
  3
$PAPER_SPACE
  1

  0
ENDBLK
  5
1BB
 67
     1
  8
0
  0
ENDSEC
  0
SECTION
  2
ENTITIES
  0
LINE
  5
183A
  8
1
 10
81.437552645521578
 20
18.376807688960891
 30
0.0
 11
45.343279412509119
 21
18.376807688960891
 31
0.0
  0
LINE
  5
183C
  8
3
 10
52.937552645521571
 20
21.763307688960911
 30
0.0
 11
56.791757035669441
 21
21.763307688960911
 31
0.0
  0
LINE
  5
183E
  8
3
 10
52.937552645521571
 20
14.990307688960881
 30
0.0
 11
56.791757035669391
 21
14.990307688960881
 31
0.0
  0
LINE
  5
183F
  8
0
  6
CONTINUOUS
 62
     0
 10
64.490970658136376
 20
18.376807688960891
 30
0.0
 11
58.937552645521578
 21
18.376807688960891
 31
0.0
  0
POLYLINE
  5
1840
  8
0
  6
CONTINUOUS
 62
     0
 66
     1
 10
0.0
 20
0.0
 30
0.0
  0
VERTEX
  5
1B79
  8
0
  6
CONTINUOUS
 62
     0
 10
64.937552645521578
 20
20.876807688960898
 30
0.0
  0
VERTEX
  5
1B7A
  8
0
  6
CONTINUOUS
 62
     0
 10
64.937194010938754
 20
20.808550167154891
 30
0.0
  0
VERTEX
  5
1B7B
  8
0
  6
CONTINUOUS
 62
     0
 10
64.934344959487746
 20
20.672620973669691
 30
0.0
  0
VERTEX
  5
1B7C
  8
0
  6
CONTINUOUS
 62
     0
 10
64.92869319591253
 20
20.537301829613309
 30
0.0
  0
VERTEX
  5
1B7D
  8
0
  6
CONTINUOUS
 62
     0
 10
64.924829064806516
 20
20.4698084097428
 30
0.0
  0
VERTEX
  5
1B7E
  8
0
  6
CONTINUOUS
 62
     0
 10
64.920278492968691
 20
20.402393085608509
 30
0.0
  0
VERTEX
  5
1B7F
  8
0
  6
CONTINUOUS
 62
     0
 10
64.909132069831713
 20
20.26770055668468
 30
0.0
  0
VERTEX
  5
1B80
  8
0
  6
CONTINUOUS
 62
     0
 10
64.895276956937664
 20
20.133034484083421
 30
0.0
  0
VERTEX
  5
1B81
  8
0
  6
CONTINUOUS
 62
     0
 10
64.878728293536597
 20
19.998208558201132
 30
0.0
  0
VERTEX
  5
1B82
  8
0
  6
CONTINUOUS
 62
     0
 10
64.85949356302072
 20
19.86303899125928
 30
0.0
  0
VERTEX
  5
1B83
  8
0
  6
CONTINUOUS
 62
     0
 10
64.837572770115571
 20
19.727343629333198
 30
0.0
  0
VERTEX
  5
1B84
  8
0
  6
CONTINUOUS
 62
     0
 10
64.825603087970194
 20
19.659242087254171
 30
0.0
  0
VERTEX
  5
1B85
  8
0
  6
CONTINUOUS
 62
     0
 10
64.812958563147731
 20
19.590941094200701
 30
0.0
  0
VERTEX
  5
1B86
  8
0
  6
CONTINUOUS
 62
     0
 10
64.785636303813874
 20
19.453649946120009
 30
0.0
  0
VERTEX
  5
1B87
  8
0
  6
CONTINUOUS
 62
     0
 10
64.755584086148161
 20
19.315287859127661
 30
0.0
  0
VERTEX
  5
1B88
  8
0
  6
CONTINUOUS
 62
     0
 10
64.722772705702653
 20
19.175670800779439
 30
0.0
  0
VERTEX
  5
1B89
  8
0
  6
CONTINUOUS
 62
     0
 10
64.687165579306154
 20
19.034612208450849
 30
0.0
  0
VERTEX
  5
1B8A
  8
0
  6
CONTINUOUS
 62
     0
 10
64.648718615133134
 20
18.891922154375521
 30
0.0
  0
VERTEX
  5
1B8B
  8
0
  6
CONTINUOUS
 62
     0
 10
64.62841431867264
 20
18.819904846930079
 30
0.0
  0
VERTEX
  5
1B8C
  8
0
  6
CONTINUOUS
 62
     0
 10
64.607380032183755
 20
18.74740649153167
 30
0.0
  0
VERTEX
  5
1B8D
  8
0
  6
CONTINUOUS
 62
     0
 10
64.563090127639612
 20
18.600865972289601
 30
0.0
  0
VERTEX
  5
1B8E
  8
0
  6
CONTINUOUS
 62
     0
 10
64.515780989896143
 20
18.452095331408341
 30
0.0
  0
VERTEX
  5
1B8F
  8
0
  6
CONTINUOUS
 62
     0
 10
64.490970658136376
 20
18.376807688960891
 30
0.0
  0
SEQEND
  5
1B90
  8
0
  6
CONTINUOUS
 62
     0
  0
POLYLINE
  5
1841
  8
0
  6
CONTINUOUS
 62
     0
 66
     1
 10
0.0
 20
0.0
 30
0.0
  0
VERTEX
  5
1B91
  8
0
  6
CONTINUOUS
 62
     0
 10
64.490970658136348
 20
23.376807688960898
 30
0.0
  0
VERTEX
  5
1B92
  8
0
  6
CONTINUOUS
 62
     0
 10
64.515780989896143
 20
23.301520046513449
 30
0.0
  0
VERTEX
  5
1B93
  8
0
  6
CONTINUOUS
 62
     0
 10
64.563090127639612
 20
23.152749405632189
 30
0.0
  0
VERTEX
  5
1B94
  8
0
  6
CONTINUOUS
 62
     0
 10
64.607380032183755
 20
23.006208886390109
 30
0.0
  0
VERTEX
  5
1B95
  8
0
  6
CONTINUOUS
 62
     0
 10
64.62841431867264
 20
22.9337105309917
 30
0.0
  0
VERTEX
  5
1B96
  8
0
  6
CONTINUOUS
 62
     0
 10
64.648718615133106
 20
22.861693223546268
 30
0.0
  0
VERTEX
  5
1B97
  8
0
  6
CONTINUOUS
 62
     0
 10
64.687165579306154
 20
22.719003169470941
 30
0.0
  0
VERTEX
  5
1B98
  8
0
  6
CONTINUOUS
 62
     0
 10
64.722772705702653
 20
22.57794457714235
 30
0.0
  0
VERTEX
  5
1B99
  8
0
  6
CONTINUOUS
 62
     0
 10
64.755584086148161
 20
22.438327518794129
 30
0.0
  0
VERTEX
  5
1B9A
  8
0
  6
CONTINUOUS
 62
     0
 10
64.785636303813874
 20
22.29996543180178
 30
0.0
  0
VERTEX
  5
1B9B
  8
0
  6
CONTINUOUS
 62
     0
 10
64.812958563147731
 20
22.162674283721088
 30
0.0
  0
VERTEX
  5
1B9C
  8
0
  6
CONTINUOUS
 62
     0
 10
64.825603087970194
 20
22.094373290667619
 30
0.0
  0
VERTEX
  5
1B9D
  8
0
  6
CONTINUOUS
 62
     0
 10
64.837572770115571
 20
22.026271748588531
 30
0.0
  0
VERTEX
  5
1B9E
  8
0
  6
CONTINUOUS
 62
     0
 10
64.85949356302072
 20
21.890576386662499
 30
0.0
  0
VERTEX
  5
1B9F
  8
0
  6
CONTINUOUS
 62
     0
 10
64.878728293536597
 20
21.755406819720658
 30
0.0
  0
VERTEX
  5
1BA0
  8
0
  6
CONTINUOUS
 62
     0
 10
64.895276956937664
 20
21.620580893838369
 30
0.0
  0
VERTEX
  5
1BA1
  8
0
  6
CONTINUOUS
 62
     0
 10
64.909132069831713
 20
21.48591482123712
 30
0.0
  0
VERTEX
  5
1BA2
  8
0
  6
CONTINUOUS
 62
     0
 10
64.920278492968691
 20
21.351222292313281
 30
0.0
  0
VERTEX
  5
1BA3
  8
0
  6
CONTINUOUS
 62
     0
 10
64.924829064806516
 20
21.28380696817899
 30
0.0
  0
VERTEX
  5
1BA4
  8
0
  6
CONTINUOUS
 62
     0
 10
64.92869319591253
 20
21.216313548308481
 30
0.0
  0
VERTEX
  5
1BA5
  8
0
  6
CONTINUOUS
 62
     0
 10
64.934344959487746
 20
21.080994404252099
 30
0.0
  0
VERTEX
  5
1BA6
  8
0
  6
CONTINUOUS
 62
     0
 10
64.937194010938754
 20
20.945065210766899
 30
0.0
  0
VERTEX
  5
1BA7
  8
0
  6
CONTINUOUS
 62
     0
 10
64.937552645521578
 20
20.876807688960898
 30
0.0
  0
SEQEND
  5
1BA8
  8
0
  6
CONTINUOUS
 62
     0
  0
LINE
  5
1842
  8
0
  6
CONTINUOUS
 62
     0
 10
64.490970658136348
 20
23.376807688960898
 30
0.0
 11
58.937552645521578
 21
23.376807688960898
 31
0.0
  0
POLYLINE
  5
1843
  8
0
  6
CONTINUOUS
 62
     0
 66
     1
 10
0.0
 20
0.0
 30
0.0
  0
VERTEX
  5
1BA9
  8
0
  6
CONTINUOUS
 62
     0
 10
64.937552645521578
 20
20.876807688960898
 30
0.0
  0
VERTEX
  5
1BAA
  8
0
  6
CONTINUOUS
 62
     0
 10
64.937194010938754
 20
20.945065210766899
 30
0.0
  0
VERTEX
  5
1BAB
  8
0
  6
CONTINUOUS
 62
     0
 10
64.934344959487746
 20
21.080994404252099
 30
0.0
  0
VERTEX
  5
1BAC
  8
0
  6
CONTINUOUS
 62
     0
 10
64.92869319591253
 20
21.216313548308481
 30
0.0
  0
VERTEX
  5
1BAD
  8
0
  6
CONTINUOUS
 62
     0
 10
64.924829064806516
 20
21.28380696817899
 30
0.0
  0
VERTEX
  5
1BAE
  8
0
  6
CONTINUOUS
 62
     0
 10
64.920278492968691
 20
21.351222292313281
 30
0.0
  0
VERTEX
  5
1BAF
  8
0
  6
CONTINUOUS
 62
     0
 10
64.909132069831713
 20
21.48591482123712
 30
0.0
  0
VERTEX
  5
1BB0
  8
0
  6
CONTINUOUS
 62
     0
 10
64.895276956937664
 20
21.620580893838369
 30
0.0
  0
VERTEX
  5
1BB1
  8
0
  6
CONTINUOUS
 62
     0
 10
64.878728293536597
 20
21.755406819720658
 30
0.0
  0
VERTEX
  5
1BB2
  8
0
  6
CONTINUOUS
 62
     0
 10
64.85949356302072
 20
21.890576386662499
 30
0.0
  0
VERTEX
  5
1BB3
  8
0
  6
CONTINUOUS
 62
     0
 10
64.837572770115571
 20
22.026271748588591
 30
0.0
  0
VERTEX
  5
1BB4
  8
0
  6
CONTINUOUS
 62
     0
 10
64.825603087970194
 20
22.094373290667619
 30
0.0
  0
VERTEX
  5
1BB5
  8
0
  6
CONTINUOUS
 62
     0
 10
64.812958563147731
 20
22.162674283721088
 30
0.0
  0
VERTEX
  5
1BB6
  8
0
  6
CONTINUOUS
 62
     0
 10
64.785636303813874
 20
22.29996543180178
 30
0.0
  0
VERTEX
  5
1BB7
  8
0
  6
CONTINUOUS
 62
     0
 10
64.755584086148161
 20
22.438327518794129
 30
0.0
  0
VERTEX
  5
1BB8
  8
0
  6
CONTINUOUS
 62
     0
 10
64.722772705702653
 20
22.57794457714235
 30
0.0
  0
VERTEX
  5
1BB9
  8
0
  6
CONTINUOUS
 62
     0
 10
64.687165579306154
 20
22.719003169470941
 30
0.0
  0
VERTEX
  5
1BBA
  8
0
  6
CONTINUOUS
 62
     0
 10
64.648718615133106
 20
22.861693223546212
 30
0.0
  0
VERTEX
  5
1BBB
  8
0
  6
CONTINUOUS
 62
     0
 10
64.62841431867264
 20
22.9337105309917
 30
0.0
  0
VERTEX
  5
1BBC
  8
0
  6
CONTINUOUS
 62
     0
 10
64.607380032183755
 20
23.006208886390109
 30
0.0
  0
VERTEX
  5
1BBD
  8
0
  6
CONTINUOUS
 62
     0
 10
64.563090127639612
 20
23.152749405632189
 30
0.0
  0
VERTEX
  5
1BBE
  8
0
  6
CONTINUOUS
 62
     0
 10
64.515780989896143
 20
23.301520046513449
 30
0.0
  0
VERTEX
  5
1BBF
  8
0
  6
CONTINUOUS
 62
     0
 10
64.490970658136348
 20
23.376807688960898
 30
0.0
  0
SEQEND
  5
1BC0
  8
0
  6
CONTINUOUS
 62
     0
  0
POLYLINE
  5
1844
  8
0
  6
CONTINUOUS
 62
     0
 66
     1
 10
0.0
 20
0.0
 30
0.0
  0
VERTEX
  5
1BC1
  8
0
  6
CONTINUOUS
 62
     0
 10
64.490970658136376
 20
18.376807688960891
 30
0.0
  0
VERTEX
  5
1BC2
  8
0
  6
CONTINUOUS
 62
     0
 10
64.515780989896143
 20
18.452095331408341
 30
0.0
  0
VERTEX
  5
1BC3
  8
0
  6
CONTINUOUS
 62
     0
 10
64.563090127639612
 20
18.600865972289601
 30
0.0
  0
VERTEX
  5
1BC4
  8
0
  6
CONTINUOUS
 62
     0
 10
64.607380032183755
 20
18.74740649153167
 30
0.0
  0
VERTEX
  5
1BC5
  8
0
  6
CONTINUOUS
 62
     0
 10
64.62841431867264
 20
18.819904846930079
 30
0.0
  0
VERTEX
  5
1BC6
  8
0
  6
CONTINUOUS
 62
     0
 10
64.648718615133134
 20
18.891922154375521
 30
0.0
  0
VERTEX
  5
1BC7
  8
0
  6
CONTINUOUS
 62
     0
 10
64.687165579306154
 20
19.034612208450849
 30
0.0
  0
VERTEX
  5
1BC8
  8
0
  6
CONTINUOUS
 62
     0
 10
64.722772705702653
 20
19.175670800779439
 30
0.0
  0
VERTEX
  5
1BC9
  8
0
  6
CONTINUOUS
 62
     0
 10
64.755584086148161
 20
19.315287859127661
 30
0.0
  0
VERTEX
  5
1BCA
  8
0
  6
CONTINUOUS
 62
     0
 10
64.785636303813874
 20
19.453649946120009
 30
0.0
  0
VERTEX
  5
1BCB
  8
0
  6
CONTINUOUS
 62
     0
 10
64.812958563147731
 20
19.590941094200701
 30
0.0
  0
VERTEX
  5
1BCC
  8
0
  6
CONTINUOUS
 62
     0
 10
64.825603087970194
 20
19.65924208725411
 30
0.0
  0
VERTEX
  5
1BCD
  8
0
  6
CONTINUOUS
 62
     0
 10
64.837572770115571
 20
19.727343629333198
 30
0.0
  0
VERTEX
  5
1BCE
  8
0
  6
CONTINUOUS
 62
     0
 10
64.85949356302072
 20
19.86303899125928
 30
0.0
  0
VERTEX
  5
1BCF
  8
0
  6
CONTINUOUS
 62
     0
 10
64.878728293536597
 20
19.998208558201132
 30
0.0
  0
VERTEX
  5
1BD0
  8
0
  6
CONTINUOUS
 62
     0
 10
64.895276956937664
 20
20.133034484083421
 30
0.0
  0
VERTEX
  5
1BD1
  8
0
  6
CONTINUOUS
 62
     0
 10
64.909132069831713
 20
20.26770055668468
 30
0.0
  0
VERTEX
  5
1BD2
  8
0
  6
CONTINUOUS
 62
     0
 10
64.920278492968691
 20
20.402393085608509
 30
0.0
  0
VERTEX
  5
1BD3
  8
0
  6
CONTINUOUS
 62
     0
 10
64.924829064806516
 20
20.4698084097428
 30
0.0
  0
VERTEX
  5
1BD4
  8
0
  6
CONTINUOUS
 62
     0
 10
64.92869319591253
 20
20.537301829613309
 30
0.0
  0
VERTEX
  5
1BD5
  8
0
  6
CONTINUOUS
 62
     0
 10
64.934344959487746
 20
20.672620973669691
 30
0.0
  0
VERTEX
  5
1BD6
  8
0
  6
CONTINUOUS
 62
     0
 10
64.937194010938754
 20
20.808550167154891
 30
0.0
  0
VERTEX
  5
1BD7
  8
0
  6
CONTINUOUS
 62
     0
 10
64.937552645521578
 20
20.876807688960898
 30
0.0
  0
SEQEND
  5
1BD8
  8
0
  6
CONTINUOUS
 62
     0
  0
POLYLINE
  5
1845
  8
0
  6
CONTINUOUS
 62
     0
 66
     1
 10
0.0
 20
0.0
 30
0.0
  0
VERTEX
  5
1BD9
  8
0
  6
CONTINUOUS
 62
     0
 10
64.937552645521578
 20
23.376807688960898
 30
0.0
  0
VERTEX
  5
1BDA
  8
0
  6
CONTINUOUS
 62
     0
 10
64.937194010938754
 20
23.376807688960898
 30
0.0
  0
VERTEX
  5
1BDB
  8
0
  6
CONTINUOUS
 62
     0
 10
64.934344959487746
 20
23.376807688960898
 30
0.0
  0
VERTEX
  5
1BDC
  8
0
  6
CONTINUOUS
 62
     0
 10
64.92869319591253
 20
23.376807688960898
 30
0.0
  0
VERTEX
  5
1BDD
  8
0
  6
CONTINUOUS
 62
     0
 10
64.924829064806516
 20
23.376807688960898
 30
0.0
  0
VERTEX
  5
1BDE
  8
0
  6
CONTINUOUS
 62
     0
 10
64.920278492968691
 20
23.376807688960898
 30
0.0
  0
VERTEX
  5
1BDF
  8
0
  6
CONTINUOUS
 62
     0
 10
64.909132069831713
 20
23.376807688960898
 30
0.0
  0
VERTEX
  5
1BE0
  8
0
  6
CONTINUOUS
 62
     0
 10
64.895276956937664
 20
23.376807688960898
 30
0.0
  0
VERTEX
  5
1BE1
  8
0
  6
CONTINUOUS
 62
     0
 10
64.878728293536597
 20
23.376807688960898
 30
0.0
  0
VERTEX
  5
1BE2
  8
0
  6
CONTINUOUS
 62
     0
 10
64.85949356302072
 20
23.376807688960898
 30
0.0
  0
VERTEX
  5
1BE3
  8
0
  6
CONTINUOUS
 62
     0
 10
64.837572770115571
 20
23.376807688960898
 30
0.0
  0
VERTEX
  5
1BE4
  8
0
  6
CONTINUOUS
 62
     0
 10
64.825603087970194
 20
23.376807688960898
 30
0.0
  0
VERTEX
  5
1BE5
  8
0
  6
CONTINUOUS
 62
     0
 10
64.812958563147731
 20
23.376807688960898
 30
0.0
  0
VERTEX
  5
1BE6
  8
0
  6
CONTINUOUS
 62
     0
 10
64.785636303813874
 20
23.376807688960898
 30
0.0
  0
VERTEX
  5
1BE7
  8
0
  6
CONTINUOUS
 62
     0
 10
64.755584086148161
 20
23.376807688960898
 30
0.0
  0
VERTEX
  5
1BE8
  8
0
  6
CONTINUOUS
 62
     0
 10
64.722772705702653
 20
23.376807688960898
 30
0.0
  0
VERTEX
  5
1BE9
  8
0
  6
CONTINUOUS
 62
     0
 10
64.687165579306154
 20
23.376807688960898
 30
0.0
  0
VERTEX
  5
1BEA
  8
0
  6
CONTINUOUS
 62
     0
 10
64.648718615133106
 20
23.376807688960898
 30
0.0
  0
VERTEX
  5
1BEB
  8
0
  6
CONTINUOUS
 62
     0
 10
64.62841431867264
 20
23.376807688960898
 30
0.0
  0
VERTEX
  5
1BEC
  8
0
  6
CONTINUOUS
 62
     0
 10
64.607380032183755
 20
23.376807688960898
 30
0.0
  0
VERTEX
  5
1BED
  8
0
  6
CONTINUOUS
 62
     0
 10
64.563090127639612
 20
23.376807688960898
 30
0.0
  0
VERTEX
  5
1BEE
  8
0
  6
CONTINUOUS
 62
     0
 10
64.515780989896143
 20
23.376807688960898
 30
0.0
  0
VERTEX
  5
1BEF
  8
0
  6
CONTINUOUS
 62
     0
 10
64.490970658136348
 20
23.376807688960898
 30
0.0
  0
SEQEND
  5
1BF0
  8
0
  6
CONTINUOUS
 62
     0
  0
POLYLINE
  5
1846
  8
0
  6
CONTINUOUS
 62
     0
 66
     1
 10
0.0
 20
0.0
 30
0.0
  0
VERTEX
  5
1BF1
  8
0
  6
CONTINUOUS
 62
     0
 10
64.937552645521578
 20
15.87680768896089
 30
0.0
  0
VERTEX
  5
1BF2
  8
0
  6
CONTINUOUS
 62
     0
 10
64.937194010938754
 20
15.9450652107669
 30
0.0
  0
VERTEX
  5
1BF3
  8
0
  6
CONTINUOUS
 62
     0
 10
64.934344959487746
 20
16.080994404252088
 30
0.0
  0
VERTEX
  5
1BF4
  8
0
  6
CONTINUOUS
 62
     0
 10
64.92869319591253
 20
16.216313548308481
 30
0.0
  0
VERTEX
  5
1BF5
  8
0
  6
CONTINUOUS
 62
     0
 10
64.924829064806516
 20
16.28380696817899
 30
0.0
  0
VERTEX
  5
1BF6
  8
0
  6
CONTINUOUS
 62
     0
 10
64.920278492968691
 20
16.351222292313281
 30
0.0
  0
VERTEX
  5
1BF7
  8
0
  6
CONTINUOUS
 62
     0
 10
64.909132069831713
 20
16.48591482123712
 30
0.0
  0
VERTEX
  5
1BF8
  8
0
  6
CONTINUOUS
 62
     0
 10
64.895276956937664
 20
16.620580893838358
 30
0.0
  0
VERTEX
  5
1BF9
  8
0
  6
CONTINUOUS
 62
     0
 10
64.878728293536597
 20
16.755406819720658
 30
0.0
  0
VERTEX
  5
1BFA
  8
0
  6
CONTINUOUS
 62
     0
 10
64.85949356302072
 20
16.890576386662499
 30
0.0
  0
VERTEX
  5
1BFB
  8
0
  6
CONTINUOUS
 62
     0
 10
64.837572770115571
 20
17.026271748588581
 30
0.0
  0
VERTEX
  5
1BFC
  8
0
  6
CONTINUOUS
 62
     0
 10
64.825603087970194
 20
17.094373290667619
 30
0.0
  0
VERTEX
  5
1BFD
  8
0
  6
CONTINUOUS
 62
     0
 10
64.812958563147731
 20
17.162674283721088
 30
0.0
  0
VERTEX
  5
1BFE
  8
0
  6
CONTINUOUS
 62
     0
 10
64.785636303813874
 20
17.29996543180178
 30
0.0
  0
VERTEX
  5
1BFF
  8
0
  6
CONTINUOUS
 62
     0
 10
64.755584086148161
 20
17.438327518794122
 30
0.0
  0
VERTEX
  5
1C00
  8
0
  6
CONTINUOUS
 62
     0
 10
64.722772705702653
 20
17.57794457714235
 30
0.0
  0
VERTEX
  5
1C01
  8
0
  6
CONTINUOUS
 62
     0
 10
64.687165579306154
 20
17.719003169470941
 30
0.0
  0
VERTEX
  5
1C02
  8
0
  6
CONTINUOUS
 62
     0
 10
64.648718615133134
 20
17.861693223546268
 30
0.0
  0
VERTEX
  5
1C03
  8
0
  6
CONTINUOUS
 62
     0
 10
64.62841431867264
 20
17.9337105309917
 30
0.0
  0
VERTEX
  5
1C04
  8
0
  6
CONTINUOUS
 62
     0
 10
64.607380032183755
 20
18.006208886390109
 30
0.0
  0
VERTEX
  5
1C05
  8
0
  6
CONTINUOUS
 62
     0
 10
64.563090127639612
 20
18.152749405632189
 30
0.0
  0
VERTEX
  5
1C06
  8
0
  6
CONTINUOUS
 62
     0
 10
64.515780989896143
 20
18.301520046513438
 30
0.0
  0
VERTEX
  5
1C07
  8
0
  6
CONTINUOUS
 62
     0
 10
64.490970658136376
 20
18.376807688960891
 30
0.0
  0
SEQEND
  5
1C08
  8
0
  6
CONTINUOUS
 62
     0
  0
POLYLINE
  5
1847
  8
0
  6
CONTINUOUS
 62
     0
 66
     1
 10
0.0
 20
0.0
 30
0.0
  0
VERTEX
  5
1C09
  8
0
  6
CONTINUOUS
 62
     0
 10
64.490970658136376
 20
13.37680768896089
 30
0.0
  0
VERTEX
  5
1C0A
  8
0
  6
CONTINUOUS
 62
     0
 10
64.515780989896143
 20
13.452095331408399
 30
0.0
  0
VERTEX
  5
1C0B
  8
0
  6
CONTINUOUS
 62
     0
 10
64.563090127639612
 20
13.60086597228959
 30
0.0
  0
VERTEX
  5
1C0C
  8
0
  6
CONTINUOUS
 62
     0
 10
64.607380032183755
 20
13.74740649153167
 30
0.0
  0
VERTEX
  5
1C0D
  8
0
  6
CONTINUOUS
 62
     0
 10
64.62841431867264
 20
13.819904846930079
 30
0.0
  0
VERTEX
  5
1C0E
  8
0
  6
CONTINUOUS
 62
     0
 10
64.648718615133134
 20
13.89192215437552
 30
0.0
  0
VERTEX
  5
1C0F
  8
0
  6
CONTINUOUS
 62
     0
 10
64.687165579306154
 20
14.03461220845079
 30
0.0
  0
VERTEX
  5
1C10
  8
0
  6
CONTINUOUS
 62
     0
 10
64.722772705702653
 20
14.175670800779439
 30
0.0
  0
VERTEX
  5
1C11
  8
0
  6
CONTINUOUS
 62
     0
 10
64.755584086148161
 20
14.315287859127659
 30
0.0
  0
VERTEX
  5
1C12
  8
0
  6
CONTINUOUS
 62
     0
 10
64.785636303813874
 20
14.453649946119951
 30
0.0
  0
VERTEX
  5
1C13
  8
0
  6
CONTINUOUS
 62
     0
 10
64.812958563147731
 20
14.5909410942007
 30
0.0
  0
VERTEX
  5
1C14
  8
0
  6
CONTINUOUS
 62
     0
 10
64.825603087970194
 20
14.65924208725411
 30
0.0
  0
VERTEX
  5
1C15
  8
0
  6
CONTINUOUS
 62
     0
 10
64.837572770115571
 20
14.7273436293332
 30
0.0
  0
VERTEX
  5
1C16
  8
0
  6
CONTINUOUS
 62
     0
 10
64.85949356302072
 20
14.86303899125928
 30
0.0
  0
VERTEX
  5
1C17
  8
0
  6
CONTINUOUS
 62
     0
 10
64.878728293536597
 20
14.99820855820113
 30
0.0
  0
VERTEX
  5
1C18
  8
0
  6
CONTINUOUS
 62
     0
 10
64.895276956937664
 20
15.133034484083421
 30
0.0
  0
VERTEX
  5
1C19
  8
0
  6
CONTINUOUS
 62
     0
 10
64.909132069831713
 20
15.26770055668467
 30
0.0
  0
VERTEX
  5
1C1A
  8
0
  6
CONTINUOUS
 62
     0
 10
64.920278492968691
 20
15.402393085608511
 30
0.0
  0
VERTEX
  5
1C1B
  8
0
  6
CONTINUOUS
 62
     0
 10
64.924829064806516
 20
15.4698084097428
 30
0.0
  0
VERTEX
  5
1C1C
  8
0
  6
CONTINUOUS
 62
     0
 10
64.92869319591253
 20
15.537301829613311
 30
0.0
  0
VERTEX
  5
1C1D
  8
0
  6
CONTINUOUS
 62
     0
 10
64.934344959487746
 20
15.672620973669691
 30
0.0
  0
VERTEX
  5
1C1E
  8
0
  6
CONTINUOUS
 62
     0
 10
64.937194010938754
 20
15.808550167154889
 30
0.0
  0
VERTEX
  5
1C1F
  8
0
  6
CONTINUOUS
 62
     0
 10
64.937552645521578
 20
15.87680768896089
 30
0.0
  0
SEQEND
  5
1C20
  8
0
  6
CONTINUOUS
 62
     0
  0
POLYLINE
  5
1848
  8
0
  6
CONTINUOUS
 62
     0
 66
     1
 10
0.0
 20
0.0
 30
0.0
  0
VERTEX
  5
1C21
  8
0
  6
CONTINUOUS
 62
     0
 10
64.490970658136376
 20
13.37680768896089
 30
0.0
  0
VERTEX
  5
1C22
  8
0
  6
CONTINUOUS
 62
     0
 10
64.515780989896143
 20
13.37680768896089
 30
0.0
  0
VERTEX
  5
1C23
  8
0
  6
CONTINUOUS
 62
     0
 10
64.563090127639612
 20
13.37680768896089
 30
0.0
  0
VERTEX
  5
1C24
  8
0
  6
CONTINUOUS
 62
     0
 10
64.607380032183755
 20
13.37680768896089
 30
0.0
  0
VERTEX
  5
1C25
  8
0
  6
CONTINUOUS
 62
     0
 10
64.62841431867264
 20
13.37680768896089
 30
0.0
  0
VERTEX
  5
1C26
  8
0
  6
CONTINUOUS
 62
     0
 10
64.648718615133134
 20
13.37680768896089
 30
0.0
  0
VERTEX
  5
1C27
  8
0
  6
CONTINUOUS
 62
     0
 10
64.687165579306154
 20
13.37680768896089
 30
0.0
  0
VERTEX
  5
1C28
  8
0
  6
CONTINUOUS
 62
     0
 10
64.722772705702653
 20
13.37680768896089
 30
0.0
  0
VERTEX
  5
1C29
  8
0
  6
CONTINUOUS
 62
     0
 10
64.755584086148161
 20
13.37680768896089
 30
0.0
  0
VERTEX
  5
1C2A
  8
0
  6
CONTINUOUS
 62
     0
 10
64.785636303813874
 20
13.37680768896089
 30
0.0
  0
VERTEX
  5
1C2B
  8
0
  6
CONTINUOUS
 62
     0
 10
64.812958563147731
 20
13.37680768896089
 30
0.0
  0
VERTEX
  5
1C2C
  8
0
  6
CONTINUOUS
 62
     0
 10
64.825603087970194
 20
13.37680768896089
 30
0.0
  0
VERTEX
  5
1C2D
  8
0
  6
CONTINUOUS
 62
     0
 10
64.837572770115571
 20
13.37680768896089
 30
0.0
  0
VERTEX
  5
1C2E
  8
0
  6
CONTINUOUS
 62
     0
 10
64.85949356302072
 20
13.37680768896089
 30
0.0
  0
VERTEX
  5
1C2F
  8
0
  6
CONTINUOUS
 62
     0
 10
64.878728293536597
 20
13.37680768896089
 30
0.0
  0
VERTEX
  5
1C30
  8
0
  6
CONTINUOUS
 62
     0
 10
64.895276956937664
 20
13.37680768896089
 30
0.0
  0
VERTEX
  5
1C31
  8
0
  6
CONTINUOUS
 62
     0
 10
64.909132069831713
 20
13.37680768896089
 30
0.0
  0
VERTEX
  5
1C32
  8
0
  6
CONTINUOUS
 62
     0
 10
64.920278492968691
 20
13.37680768896089
 30
0.0
  0
VERTEX
  5
1C33
  8
0
  6
CONTINUOUS
 62
     0
 10
64.924829064806516
 20
13.37680768896089
 30
0.0
  0
VERTEX
  5
1C34
  8
0
  6
CONTINUOUS
 62
     0
 10
64.92869319591253
 20
13.37680768896089
 30
0.0
  0
VERTEX
  5
1C35
  8
0
  6
CONTINUOUS
 62
     0
 10
64.934344959487746
 20
13.37680768896089
 30
0.0
  0
VERTEX
  5
1C36
  8
0
  6
CONTINUOUS
 62
     0
 10
64.937194010938754
 20
13.37680768896089
 30
0.0
  0
VERTEX
  5
1C37
  8
0
  6
CONTINUOUS
 62
     0
 10
64.937552645521578
 20
13.37680768896089
 30
0.0
  0
SEQEND
  5
1C38
  8
0
  6
CONTINUOUS
 62
     0
  0
LINE
  5
1849
  8
0
  6
CONTINUOUS
 62
     0
 10
64.490970658136376
 20
13.37680768896089
 30
0.0
 11
58.937552645521578
 21
13.37680768896089
 31
0.0
  0
LINE
  5
184A
  8
0
  6
CONTINUOUS
 62
     0
 10
58.937552645521578
 20
13.37680768896089
 30
0.0
 11
58.937552645521578
 21
23.376807688960898
 31
0.0
  0
POLYLINE
  5
184B
  8
0
  6
CONTINUOUS
 62
     0
 66
     1
 10
0.0
 20
0.0
 30
0.0
  0
VERTEX
  5
1C39
  8
0
  6
CONTINUOUS
 62
     0
 10
64.937552645521578
 20
15.87680768896089
 30
0.0
  0
VERTEX
  5
1C3A
  8
0
  6
CONTINUOUS
 62
     0
 10
64.937194010938754
 20
15.808550167154889
 30
0.0
  0
VERTEX
  5
1C3B
  8
0
  6
CONTINUOUS
 62
     0
 10
64.934344959487746
 20
15.672620973669691
 30
0.0
  0
VERTEX
  5
1C3C
  8
0
  6
CONTINUOUS
 62
     0
 10
64.92869319591253
 20
15.537301829613311
 30
0.0
  0
VERTEX
  5
1C3D
  8
0
  6
CONTINUOUS
 62
     0
 10
64.924829064806516
 20
15.4698084097428
 30
0.0
  0
VERTEX
  5
1C3E
  8
0
  6
CONTINUOUS
 62
     0
 10
64.920278492968691
 20
15.402393085608511
 30
0.0
  0
VERTEX
  5
1C3F
  8
0
  6
CONTINUOUS
 62
     0
 10
64.909132069831713
 20
15.26770055668467
 30
0.0
  0
VERTEX
  5
1C40
  8
0
  6
CONTINUOUS
 62
     0
 10
64.895276956937664
 20
15.133034484083421
 30
0.0
  0
VERTEX
  5
1C41
  8
0
  6
CONTINUOUS
 62
     0
 10
64.878728293536597
 20
14.99820855820113
 30
0.0
  0
VERTEX
  5
1C42
  8
0
  6
CONTINUOUS
 62
     0
 10
64.85949356302072
 20
14.86303899125928
 30
0.0
  0
VERTEX
  5
1C43
  8
0
  6
CONTINUOUS
 62
     0
 10
64.837572770115571
 20
14.7273436293332
 30
0.0
  0
VERTEX
  5
1C44
  8
0
  6
CONTINUOUS
 62
     0
 10
64.825603087970194
 20
14.65924208725411
 30
0.0
  0
VERTEX
  5
1C45
  8
0
  6
CONTINUOUS
 62
     0
 10
64.812958563147731
 20
14.5909410942007
 30
0.0
  0
VERTEX
  5
1C46
  8
0
  6
CONTINUOUS
 62
     0
 10
64.785636303813874
 20
14.453649946120009
 30
0.0
  0
VERTEX
  5
1C47
  8
0
  6
CONTINUOUS
 62
     0
 10
64.755584086148161
 20
14.315287859127659
 30
0.0
  0
VERTEX
  5
1C48
  8
0
  6
CONTINUOUS
 62
     0
 10
64.722772705702653
 20
14.175670800779439
 30
0.0
  0
VERTEX
  5
1C49
  8
0
  6
CONTINUOUS
 62
     0
 10
64.687165579306154
 20
14.03461220845079
 30
0.0
  0
VERTEX
  5
1C4A
  8
0
  6
CONTINUOUS
 62
     0
 10
64.648718615133134
 20
13.89192215437552
 30
0.0
  0
VERTEX
  5
1C4B
  8
0
  6
CONTINUOUS
 62
     0
 10
64.62841431867264
 20
13.819904846930079
 30
0.0
  0
VERTEX
  5
1C4C
  8
0
  6
CONTINUOUS
 62
     0
 10
64.607380032183755
 20
13.74740649153167
 30
0.0
  0
VERTEX
  5
1C4D
  8
0
  6
CONTINUOUS
 62
     0
 10
64.563090127639612
 20
13.60086597228959
 30
0.0
  0
VERTEX
  5
1C4E
  8
0
  6
CONTINUOUS
 62
     0
 10
64.515780989896143
 20
13.452095331408341
 30
0.0
  0
VERTEX
  5
1C4F
  8
0
  6
CONTINUOUS
 62
     0
 10
64.490970658136376
 20
13.37680768896089
 30
0.0
  0
SEQEND
  5
1C50
  8
0
  6
CONTINUOUS
 62
     0
  0
POLYLINE
  5
184C
  8
0
  6
CONTINUOUS
 62
     0
 66
     1
 10
0.0
 20
0.0
 30
0.0
  0
VERTEX
  5
1C51
  8
0
  6
CONTINUOUS
 62
     0
 10
64.490970658136376
 20
18.376807688960891
 30
0.0
  0
VERTEX
  5
1C52
  8
0
  6
CONTINUOUS
 62
     0
 10
64.515780989896143
 20
18.301520046513438
 30
0.0
  0
VERTEX
  5
1C53
  8
0
  6
CONTINUOUS
 62
     0
 10
64.563090127639612
 20
18.152749405632189
 30
0.0
  0
VERTEX
  5
1C54
  8
0
  6
CONTINUOUS
 62
     0
 10
64.607380032183755
 20
18.006208886390109
 30
0.0
  0
VERTEX
  5
1C55
  8
0
  6
CONTINUOUS
 62
     0
 10
64.62841431867264
 20
17.9337105309917
 30
0.0
  0
VERTEX
  5
1C56
  8
0
  6
CONTINUOUS
 62
     0
 10
64.648718615133134
 20
17.861693223546268
 30
0.0
  0
VERTEX
  5
1C57
  8
0
  6
CONTINUOUS
 62
     0
 10
64.687165579306154
 20
17.719003169470941
 30
0.0
  0
VERTEX
  5
1C58
  8
0
  6
CONTINUOUS
 62
     0
 10
64.722772705702653
 20
17.57794457714235
 30
0.0
  0
VERTEX
  5
1C59
  8
0
  6
CONTINUOUS
 62
     0
 10
64.755584086148161
 20
17.438327518794122
 30
0.0
  0
VERTEX
  5
1C5A
  8
0
  6
CONTINUOUS
 62
     0
 10
64.785636303813874
 20
17.29996543180178
 30
0.0
  0
VERTEX
  5
1C5B
  8
0
  6
CONTINUOUS
 62
     0
 10
64.812958563147731
 20
17.162674283721088
 30
0.0
  0
VERTEX
  5
1C5C
  8
0
  6
CONTINUOUS
 62
     0
 10
64.825603087970194
 20
17.094373290667619
 30
0.0
  0
VERTEX
  5
1C5D
  8
0
  6
CONTINUOUS
 62
     0
 10
64.837572770115571
 20
17.026271748588581
 30
0.0
  0
VERTEX
  5
1C5E
  8
0
  6
CONTINUOUS
 62
     0
 10
64.85949356302072
 20
16.890576386662499
 30
0.0
  0
VERTEX
  5
1C5F
  8
0
  6
CONTINUOUS
 62
     0
 10
64.878728293536597
 20
16.755406819720658
 30
0.0
  0
VERTEX
  5
1C60
  8
0
  6
CONTINUOUS
 62
     0
 10
64.895276956937664
 20
16.620580893838358
 30
0.0
  0
VERTEX
  5
1C61
  8
0
  6
CONTINUOUS
 62
     0
 10
64.909132069831713
 20
16.48591482123712
 30
0.0
  0
VERTEX
  5
1C62
  8
0
  6
CONTINUOUS
 62
     0
 10
64.920278492968691
 20
16.351222292313281
 30
0.0
  0
VERTEX
  5
1C63
  8
0
  6
CONTINUOUS
 62
     0
 10
64.924829064806516
 20
16.28380696817899
 30
0.0
  0
VERTEX
  5
1C64
  8
0
  6
CONTINUOUS
 62
     0
 10
64.92869319591253
 20
16.216313548308481
 30
0.0
  0
VERTEX
  5
1C65
  8
0
  6
CONTINUOUS
 62
     0
 10
64.934344959487746
 20
16.080994404252088
 30
0.0
  0
VERTEX
  5
1C66
  8
0
  6
CONTINUOUS
 62
     0
 10
64.937194010938754
 20
15.9450652107669
 30
0.0
  0
VERTEX
  5
1C67
  8
0
  6
CONTINUOUS
 62
     0
 10
64.937552645521578
 20
15.87680768896089
 30
0.0
  0
SEQEND
  5
1C68
  8
0
  6
CONTINUOUS
 62
     0
  0
LINE
  5
184D
  8
0
  6
CONTINUOUS
 62
     0
 10
64.937552645521578
 20
23.376807688960898
 30
0.0
 11
64.937552645521578
 21
13.37680768896089
 31
0.0
  0
LINE
  5
184E
  8
0
  6
CONTINUOUS
 62
     0
 10
52.937552645521571
 20
21.763307688960911
 30
0.0
 11
52.937552645521571
 21
14.990307688960881
 31
0.0
  0
LINE
  5
184F
  8
0
  6
CONTINUOUS
 62
     0
 10
53.551052645521587
 20
22.376807688960898
 30
0.0
 11
53.551052645521587
 21
14.37680768896089
 31
0.0
  0
LINE
  5
1852
  8
0
  6
CONTINUOUS
 62
     0
 10
65.291106036114854
 20
23.376807688960898
 30
0.0
 11
65.291106036114854
 21
13.37680768896089
 31
0.0
  0
LINE
  5
1853
  8
0
  6
CONTINUOUS
 62
     0
 10
71.5375526455216
 20
23.376807688960898
 30
0.0
 11
71.5375526455216
 21
13.37680768896089
 31
0.0
  0
LINE
  5
1854
  8
0
  6
CONTINUOUS
 62
     0
 10
77.043080327406301
 20
27.376807688960898
 30
0.0
 11
77.043080327406273
 21
9.3768076889608931
 31
0.0
  0
LINE
  5
1855
  8
0
  6
CONTINUOUS
 62
     0
 10
77.437552645521578
 20
27.376807688960898
 30
0.0
 11
77.437552645521578
 21
9.3768076889608931
 31
0.0
  0
LINE
  5
1856
  8
0
  6
CONTINUOUS
 62
     0
 10
78.437552645521563
 20
26.376807688960891
 30
0.0
 11
78.437552645521563
 21
10.37680768896089
 31
0.0
  0
LINE
  5
1857
  8
0
  6
CONTINUOUS
 62
     0
 10
53.551052645521587
 20
22.376807688960898
 30
0.0
 11
52.937552645521571
 21
21.763307688960911
 31
0.0
  0
LINE
  5
1858
  8
0
  6
CONTINUOUS
 62
     0
 10
52.937552645521571
 20
14.990307688960881
 30
0.0
 11
53.551052645521587
 21
14.37680768896089
 31
0.0
  0
LINE
  5
1859
  8
0
  6
CONTINUOUS
 62
     0
 10
56.437552645521578
 20
22.376807688960898
 30
0.0
 11
53.551052645521587
 21
22.376807688960898
 31
0.0
  0
LINE
  5
185A
  8
0
  6
CONTINUOUS
 62
     0
 10
53.551052645521587
 20
14.37680768896089
 30
0.0
 11
56.437552645521578
 21
14.37680768896089
 31
0.0
  0
LINE
  5
185F
  8
0
  6
CONTINUOUS
 62
     0
 10
65.291106036114854
 20
23.376807688960898
 30
0.0
 11
64.937552645521578
 21
23.023254298367618
 31
0.0
  0
LINE
  5
1860
  8
0
  6
CONTINUOUS
 62
     0
 10
64.937552645521578
 20
13.73036107955417
 30
0.0
 11
65.291106036114854
 21
13.37680768896089
 31
0.0
  0
LINE
  5
1861
  8
0
  6
CONTINUOUS
 62
     0
 10
71.5375526455216
 20
23.376807688960898
 30
0.0
 11
65.291106036114854
 21
23.376807688960898
 31
0.0
  0
LINE
  5
1862
  8
0
  6
CONTINUOUS
 62
     0
 10
65.291106036114854
 20
13.37680768896089
 30
0.0
 11
71.5375526455216
 21
13.37680768896089
 31
0.0
  0
LINE
  5
1863
  8
0
  6
CONTINUOUS
 62
     0
 10
77.043080327406301
 20
27.376807688960898
 30
0.0
 11
71.537552645521572
 21
23.376807688960898
 31
0.0
  0
LINE
  5
1864
  8
0
  6
CONTINUOUS
 62
     0
 10
71.537552645521572
 20
13.37680768896089
 30
0.0
 11
77.043080327406273
 21
9.3768076889608931
 31
0.0
  0
LINE
  5
1865
  8
0
  6
CONTINUOUS
 62
     0
 10
77.437552645521578
 20
27.376807688960898
 30
0.0
 11
77.043080327406301
 21
27.376807688960898
 31
0.0
  0
LINE
  5
1866
  8
0
  6
CONTINUOUS
 62
     0
 10
77.043080327406273
 20
9.3768076889608931
 30
0.0
 11
77.437552645521578
 21
9.3768076889608931
 31
0.0
  0
ARC
  5
1867
  8
0
  6
CONTINUOUS
 62
     0
 10
77.437552645521578
 20
10.37680768896085
 30
0.0
 40
0.9999999999999982
 50
270.0
 51
0.0
  0
ARC
  5
1868
  8
0
  6
CONTINUOUS
 62
     0
 10
77.437552645521578
 20
26.376807688960842
 30
0.0
 40
1.0000000000000011
 50
0.0
 51
89.999999999999986
  0
ARC
  5
1869
  8
2
 10
87.937552645521606
 20
18.376807688960849
 30
0.0
 40
12.000000000000011
 50
142.34153799379189
 51
217.65846200620811
  0
LINE
  5
1886
  8
1
 10
5.884874817776903
 20
68.376807688960994
 30
0.0
 11
29.884874817776911
 21
68.37680768896098
 31
0.0
  0
LINE
  5
1887
  8
1
 10
17.8848748177769
 20
80.376807688960923
 30
0.0
 11
17.8848748177769
 21
56.37680768896093
 31
0.0
  0
POLYLINE
  5
1889
  8
0
  6
CONTINUOUS
 62
     0
 66
     1
 10
0.0
 20
0.0
 30
0.0
  0
VERTEX
  5
1C69
  8
0
  6
CONTINUOUS
 62
     0
 10
12.884874817776851
 20
68.376807688960966
 30
0.0
  0
VERTEX
  5
1C6A
  8
0
  6
CONTINUOUS
 62
     0
 10
12.88487481777687
 20
68.297990691783156
 30
0.0
  0
VERTEX
  5
1C6B
  8
0
  6
CONTINUOUS
 62
     0
 10
12.88487481777689
 20
68.141033178884342
 30
0.0
  0
VERTEX
  5
1C6C
  8
0
  6
CONTINUOUS
 62
     0
 10
12.88487481777687
 20
67.984780090389421
 30
0.0
  0
VERTEX
  5
1C6D
  8
0
  6
CONTINUOUS
 62
     0
 10
12.884874817776881
 20
67.906845402127885
 30
0.0
  0
VERTEX
  5
1C6E
  8
0
  6
CONTINUOUS
 62
     0
 10
12.884874817776851
 20
67.829000891054989
 30
0.0
  0
VERTEX
  5
1C6F
  8
0
  6
CONTINUOUS
 62
     0
 10
12.88487481777687
 20
67.673471355390973
 30
0.0
  0
VERTEX
  5
1C70
  8
0
  6
CONTINUOUS
 62
     0
 10
12.88487481777687
 20
67.517972368856903
 30
0.0
  0
VERTEX
  5
1C71
  8
0
  6
CONTINUOUS
 62
     0
 10
12.884874817776851
 20
67.362288799653129
 30
0.0
  0
VERTEX
  5
1C72
  8
0
  6
CONTINUOUS
 62
     0
 10
12.8848748177769
 20
67.206208427932921
 30
0.0
  0
VERTEX
  5
1C73
  8
0
  6
CONTINUOUS
 62
     0
 10
12.884874817776909
 20
67.049520920461305
 30
0.0
  0
VERTEX
  5
1C74
  8
0
  6
CONTINUOUS
 62
     0
 10
12.88487481777687
 20
66.970884033158171
 30
0.0
  0
VERTEX
  5
1C75
  8
0
  6
CONTINUOUS
 62
     0
 10
12.884874817776851
 20
66.89201683970748
 30
0.0
  0
VERTEX
  5
1C76
  8
0
  6
CONTINUOUS
 62
     0
 10
12.884874817776851
 20
66.733486677103997
 30
0.0
  0
VERTEX
  5
1C77
  8
0
  6
CONTINUOUS
 62
     0
 10
12.884874817776881
 20
66.573719900762683
 30
0.0
  0
VERTEX
  5
1C78
  8
0
  6
CONTINUOUS
 62
     0
 10
12.88487481777687
 20
66.412504008321051
 30
0.0
  0
VERTEX
  5
1C79
  8
0
  6
CONTINUOUS
 62
     0
 10
12.88487481777687
 20
66.249623575816202
 30
0.0
  0
VERTEX
  5
1C7A
  8
0
  6
CONTINUOUS
 62
     0
 10
12.88487481777689
 20
66.084859293554075
 30
0.0
  0
VERTEX
  5
1C7B
  8
0
  6
CONTINUOUS
 62
     0
 10
12.884874817776851
 20
66.001700869874185
 30
0.0
  0
VERTEX
  5
1C7C
  8
0
  6
CONTINUOUS
 62
     0
 10
12.88487481777686
 20
65.917986979864025
 30
0.0
  0
VERTEX
  5
1C7D
  8
0
  6
CONTINUOUS
 62
     0
 10
12.884874817776851
 20
65.74877656340081
 30
0.0
  0
VERTEX
  5
1C7E
  8
0
  6
CONTINUOUS
 62
     0
 10
12.88487481777686
 20
65.576991024280204
 30
0.0
  0
VERTEX
  5
1C7F
  8
0
  6
CONTINUOUS
 62
     0
 10
12.884874817776851
 20
65.490056343012839
 30
0.0
  0
SEQEND
  5
1C80
  8
0
  6
CONTINUOUS
 62
     0
  0
POLYLINE
  5
188A
  8
0
  6
CONTINUOUS
 62
     0
 66
     1
 10
0.0
 20
0.0
 30
0.0
  0
VERTEX
  5
1C81
  8
0
  6
CONTINUOUS
 62
     0
 10
12.88487481777686
 20
71.263559034909093
 30
0.0
  0
VERTEX
  5
1C82
  8
0
  6
CONTINUOUS
 62
     0
 10
12.884874817776851
 20
71.176624353641728
 30
0.0
  0
VERTEX
  5
1C83
  8
0
  6
CONTINUOUS
 62
     0
 10
12.8848748177769
 20
71.004838814521136
 30
0.0
  0
VERTEX
  5
1C84
  8
0
  6
CONTINUOUS
 62
     0
 10
12.884874817776851
 20
70.835628398057906
 30
0.0
  0
VERTEX
  5
1C85
  8
0
  6
CONTINUOUS
 62
     0
 10
12.88487481777686
 20
70.751914508047747
 30
0.0
  0
VERTEX
  5
1C86
  8
0
  6
CONTINUOUS
 62
     0
 10
12.88487481777687
 20
70.668756084367885
 30
0.0
  0
VERTEX
  5
1C87
  8
0
  6
CONTINUOUS
 62
     0
 10
12.884874817776881
 20
70.503991802105745
 30
0.0
  0
VERTEX
  5
1C88
  8
0
  6
CONTINUOUS
 62
     0
 10
12.88487481777689
 20
70.34111136960091
 30
0.0
  0
VERTEX
  5
1C89
  8
0
  6
CONTINUOUS
 62
     0
 10
12.88487481777687
 20
70.179895477159263
 30
0.0
  0
VERTEX
  5
1C8A
  8
0
  6
CONTINUOUS
 62
     0
 10
12.884874817776909
 20
70.020128700817963
 30
0.0
  0
VERTEX
  5
1C8B
  8
0
  6
CONTINUOUS
 62
     0
 10
12.88487481777686
 20
69.861598538214452
 30
0.0
  0
VERTEX
  5
1C8C
  8
0
  6
CONTINUOUS
 62
     0
 10
12.88487481777689
 20
69.782731344763789
 30
0.0
  0
VERTEX
  5
1C8D
  8
0
  6
CONTINUOUS
 62
     0
 10
12.88487481777687
 20
69.704094457460599
 30
0.0
  0
VERTEX
  5
1C8E
  8
0
  6
CONTINUOUS
 62
     0
 10
12.88487481777686
 20
69.547406949989025
 30
0.0
  0
VERTEX
  5
1C8F
  8
0
  6
CONTINUOUS
 62
     0
 10
12.8848748177769
 20
69.391326578268831
 30
0.0
  0
VERTEX
  5
1C90
  8
0
  6
CONTINUOUS
 62
     0
 10
12.88487481777689
 20
69.235643009065043
 30
0.0
  0
VERTEX
  5
1C91
  8
0
  6
CONTINUOUS
 62
     0
 10
12.884874817776829
 20
69.080144022530959
 30
0.0
  0
VERTEX
  5
1C92
  8
0
  6
CONTINUOUS
 62
     0
 10
12.88487481777686
 20
68.924614486866943
 30
0.0
  0
VERTEX
  5
1C93
  8
0
  6
CONTINUOUS
 62
     0
 10
12.88487481777687
 20
68.846769975794075
 30
0.0
  0
VERTEX
  5
1C94
  8
0
  6
CONTINUOUS
 62
     0
 10
12.88487481777689
 20
68.768835287532525
 30
0.0
  0
VERTEX
  5
1C95
  8
0
  6
CONTINUOUS
 62
     0
 10
12.88487481777687
 20
68.612582199037618
 30
0.0
  0
VERTEX
  5
1C96
  8
0
  6
CONTINUOUS
 62
     0
 10
12.88487481777689
 20
68.455624686138805
 30
0.0
  0
VERTEX
  5
1C97
  8
0
  6
CONTINUOUS
 62
     0
 10
12.884874817776851
 20
68.376807688960966
 30
0.0
  0
SEQEND
  5
1C98
  8
0
  6
CONTINUOUS
 62
     0
  0
POLYLINE
  5
188B
  8
0
  6
CONTINUOUS
 62
     0
 66
     1
 10
0.0
 20
0.0
 30
0.0
  0
VERTEX
  5
1C99
  8
0
  6
CONTINUOUS
 62
     0
 10
20.38487481777689
 20
72.706934707883164
 30
0.0
  0
VERTEX
  5
1C9A
  8
0
  6
CONTINUOUS
 62
     0
 10
20.31661729597084
 20
72.746343206472062
 30
0.0
  0
VERTEX
  5
1C9B
  8
0
  6
CONTINUOUS
 62
     0
 10
20.180688102485679
 20
72.824821962921476
 30
0.0
  0
VERTEX
  5
1C9C
  8
0
  6
CONTINUOUS
 62
     0
 10
20.045368958429261
 20
72.902948507168929
 30
0.0
  0
VERTEX
  5
1C9D
  8
0
  6
CONTINUOUS
 62
     0
 10
19.977875538558781
 20
72.941915851299711
 30
0.0
  0
VERTEX
  5
1C9E
  8
0
  6
CONTINUOUS
 62
     0
 10
19.910460214424489
 20
72.98083810683616
 30
0.0
  0
VERTEX
  5
1C9F
  8
0
  6
CONTINUOUS
 62
     0
 10
19.775767685500679
 20
73.058602874668182
 30
0.0
  0
VERTEX
  5
1CA0
  8
0
  6
CONTINUOUS
 62
     0
 10
19.641101612899369
 20
73.136352367935189
 30
0.0
  0
VERTEX
  5
1CA1
  8
0
  6
CONTINUOUS
 62
     0
 10
19.50627568701708
 20
73.214194152537061
 30
0.0
  0
VERTEX
  5
1CA2
  8
0
  6
CONTINUOUS
 62
     0
 10
19.371106120075272
 20
73.292234338397208
 30
0.0
  0
VERTEX
  5
1CA3
  8
0
  6
CONTINUOUS
 62
     0
 10
19.235410758149211
 20
73.37057809213303
 30
0.0
  0
VERTEX
  5
1CA4
  8
0
  6
CONTINUOUS
 62
     0
 10
19.16730921607012
 20
73.409896535784554
 30
0.0
  0
VERTEX
  5
1CA5
  8
0
  6
CONTINUOUS
 62
     0
 10
19.099008223016639
 20
73.449330132509886
 30
0.0
  0
VERTEX
  5
1CA6
  8
0
  6
CONTINUOUS
 62
     0
 10
18.961717074935951
 20
73.528595213811613
 30
0.0
  0
VERTEX
  5
1CA7
  8
0
  6
CONTINUOUS
 62
     0
 10
18.823354987943642
 20
73.608478601982313
 30
0.0
  0
VERTEX
  5
1CA8
  8
0
  6
CONTINUOUS
 62
     0
 10
18.683737929595392
 20
73.689086548203122
 30
0.0
  0
VERTEX
  5
1CA9
  8
0
  6
CONTINUOUS
 62
     0
 10
18.542679337266819
 20
73.770526764455553
 30
0.0
  0
VERTEX
  5
1CAA
  8
0
  6
CONTINUOUS
 62
     0
 10
18.39998928319153
 20
73.852908905586574
 30
0.0
  0
VERTEX
  5
1CAB
  8
0
  6
CONTINUOUS
 62
     0
 10
18.32797197574606
 20
73.894488117426562
 30
0.0
  0
VERTEX
  5
1CAC
  8
0
  6
CONTINUOUS
 62
     0
 10
18.255473620347679
 20
73.936345062431656
 30
0.0
  0
VERTEX
  5
1CAD
  8
0
  6
CONTINUOUS
 62
     0
 10
18.108933101105549
 20
74.020950270663221
 30
0.0
  0
VERTEX
  5
1CAE
  8
0
  6
CONTINUOUS
 62
     0
 10
17.960162460224339
 20
74.106843040223552
 30
0.0
  0
VERTEX
  5
1CAF
  8
0
  6
CONTINUOUS
 62
     0
 10
17.884874817776868
 20
74.150310380857235
 30
0.0
  0
SEQEND
  5
1CB0
  8
0
  6
CONTINUOUS
 62
     0
  0
POLYLINE
  5
188C
  8
0
  6
CONTINUOUS
 62
     0
 66
     1
 10
0.0
 20
0.0
 30
0.0
  0
VERTEX
  5
1CB1
  8
0
  6
CONTINUOUS
 62
     0
 10
22.884874817776911
 20
71.263559034909122
 30
0.0
  0
VERTEX
  5
1CB2
  8
0
  6
CONTINUOUS
 62
     0
 10
22.80958717532944
 20
71.30702637554279
 30
0.0
  0
VERTEX
  5
1CB3
  8
0
  6
CONTINUOUS
 62
     0
 10
22.660816534448191
 20
71.392919145103093
 30
0.0
  0
VERTEX
  5
1CB4
  8
0
  6
CONTINUOUS
 62
     0
 10
22.514276015206089
 20
71.477524353334701
 30
0.0
  0
VERTEX
  5
1CB5
  8
0
  6
CONTINUOUS
 62
     0
 10
22.441777659807698
 20
71.519381298339781
 30
0.0
  0
VERTEX
  5
1CB6
  8
0
  6
CONTINUOUS
 62
     0
 10
22.369760352362238
 20
71.560960510179697
 30
0.0
  0
VERTEX
  5
1CB7
  8
0
  6
CONTINUOUS
 62
     0
 10
22.227070298286922
 20
71.643342651310775
 30
0.0
  0
VERTEX
  5
1CB8
  8
0
  6
CONTINUOUS
 62
     0
 10
22.086011705958331
 20
71.724782867563192
 30
0.0
  0
VERTEX
  5
1CB9
  8
0
  6
CONTINUOUS
 62
     0
 10
21.946394647610092
 20
71.805390813784001
 30
0.0
  0
VERTEX
  5
1CBA
  8
0
  6
CONTINUOUS
 62
     0
 10
21.808032560617789
 20
71.885274201954701
 30
0.0
  0
VERTEX
  5
1CBB
  8
0
  6
CONTINUOUS
 62
     0
 10
21.670741412537101
 20
71.964539283256443
 30
0.0
  0
VERTEX
  5
1CBC
  8
0
  6
CONTINUOUS
 62
     0
 10
21.602440419483631
 20
72.003972879981717
 30
0.0
  0
VERTEX
  5
1CBD
  8
0
  6
CONTINUOUS
 62
     0
 10
21.534338877404519
 20
72.043291323633298
 30
0.0
  0
VERTEX
  5
1CBE
  8
0
  6
CONTINUOUS
 62
     0
 10
21.398643515478462
 20
72.121635077369106
 30
0.0
  0
VERTEX
  5
1CBF
  8
0
  6
CONTINUOUS
 62
     0
 10
21.26347394853666
 20
72.199675263229253
 30
0.0
  0
VERTEX
  5
1CC0
  8
0
  6
CONTINUOUS
 62
     0
 10
21.12864802265435
 20
72.27751704783114
 30
0.0
  0
VERTEX
  5
1CC1
  8
0
  6
CONTINUOUS
 62
     0
 10
20.993981950053101
 20
72.35526654109816
 30
0.0
  0
VERTEX
  5
1CC2
  8
0
  6
CONTINUOUS
 62
     0
 10
20.85928942112929
 20
72.433031308930197
 30
0.0
  0
VERTEX
  5
1CC3
  8
0
  6
CONTINUOUS
 62
     0
 10
20.79187409699496
 20
72.471953564466602
 30
0.0
  0
VERTEX
  5
1CC4
  8
0
  6
CONTINUOUS
 62
     0
 10
20.724380677124461
 20
72.510920908597384
 30
0.0
  0
VERTEX
  5
1CC5
  8
0
  6
CONTINUOUS
 62
     0
 10
20.589061533068051
 20
72.589047452844838
 30
0.0
  0
VERTEX
  5
1CC6
  8
0
  6
CONTINUOUS
 62
     0
 10
20.453132339582879
 20
72.667526209294252
 30
0.0
  0
VERTEX
  5
1CC7
  8
0
  6
CONTINUOUS
 62
     0
 10
20.38487481777689
 20
72.706934707883164
 30
0.0
  0
SEQEND
  5
1CC8
  8
0
  6
CONTINUOUS
 62
     0
  0
POLYLINE
  5
188D
  8
0
  6
CONTINUOUS
 62
     0
 66
     1
 10
0.0
 20
0.0
 30
0.0
  0
VERTEX
  5
1CC9
  8
0
  6
CONTINUOUS
 62
     0
 10
15.38487481777687
 20
72.706934707883164
 30
0.0
  0
VERTEX
  5
1CCA
  8
0
  6
CONTINUOUS
 62
     0
 10
15.31661729597084
 20
72.667526209294223
 30
0.0
  0
VERTEX
  5
1CCB
  8
0
  6
CONTINUOUS
 62
     0
 10
15.180688102485689
 20
72.589047452844852
 30
0.0
  0
VERTEX
  5
1CCC
  8
0
  6
CONTINUOUS
 62
     0
 10
15.04536895842927
 20
72.51092090859737
 30
0.0
  0
VERTEX
  5
1CCD
  8
0
  6
CONTINUOUS
 62
     0
 10
14.977875538558781
 20
72.471953564466617
 30
0.0
  0
VERTEX
  5
1CCE
  8
0
  6
CONTINUOUS
 62
     0
 10
14.91046021442447
 20
72.433031308930168
 30
0.0
  0
VERTEX
  5
1CCF
  8
0
  6
CONTINUOUS
 62
     0
 10
14.775767685500689
 20
72.355266541098175
 30
0.0
  0
VERTEX
  5
1CD0
  8
0
  6
CONTINUOUS
 62
     0
 10
14.641101612899369
 20
72.277517047831111
 30
0.0
  0
VERTEX
  5
1CD1
  8
0
  6
CONTINUOUS
 62
     0
 10
14.5062756870171
 20
72.199675263229238
 30
0.0
  0
VERTEX
  5
1CD2
  8
0
  6
CONTINUOUS
 62
     0
 10
14.3711061200753
 20
72.121635077369149
 30
0.0
  0
VERTEX
  5
1CD3
  8
0
  6
CONTINUOUS
 62
     0
 10
14.2354107581492
 20
72.043291323633326
 30
0.0
  0
VERTEX
  5
1CD4
  8
0
  6
CONTINUOUS
 62
     0
 10
14.16730921607012
 20
72.003972879981745
 30
0.0
  0
VERTEX
  5
1CD5
  8
0
  6
CONTINUOUS
 62
     0
 10
14.09900822301667
 20
71.964539283256414
 30
0.0
  0
VERTEX
  5
1CD6
  8
0
  6
CONTINUOUS
 62
     0
 10
13.96171707493597
 20
71.885274201954672
 30
0.0
  0
VERTEX
  5
1CD7
  8
0
  6
CONTINUOUS
 62
     0
 10
13.823354987943651
 20
71.805390813784015
 30
0.0
  0
VERTEX
  5
1CD8
  8
0
  6
CONTINUOUS
 62
     0
 10
13.683737929595409
 20
71.724782867563192
 30
0.0
  0
VERTEX
  5
1CD9
  8
0
  6
CONTINUOUS
 62
     0
 10
13.54267933726682
 20
71.643342651310775
 30
0.0
  0
VERTEX
  5
1CDA
  8
0
  6
CONTINUOUS
 62
     0
 10
13.399989283191561
 20
71.56096051017974
 30
0.0
  0
VERTEX
  5
1CDB
  8
0
  6
CONTINUOUS
 62
     0
 10
13.32797197574606
 20
71.519381298339766
 30
0.0
  0
VERTEX
  5
1CDC
  8
0
  6
CONTINUOUS
 62
     0
 10
13.25547362034766
 20
71.477524353334701
 30
0.0
  0
VERTEX
  5
1CDD
  8
0
  6
CONTINUOUS
 62
     0
 10
13.108933101105571
 20
71.392919145103093
 30
0.0
  0
VERTEX
  5
1CDE
  8
0
  6
CONTINUOUS
 62
     0
 10
12.96016246022432
 20
71.30702637554279
 30
0.0
  0
VERTEX
  5
1CDF
  8
0
  6
CONTINUOUS
 62
     0
 10
12.88487481777686
 20
71.263559034909093
 30
0.0
  0
SEQEND
  5
1CE0
  8
0
  6
CONTINUOUS
 62
     0
  0
POLYLINE
  5
188E
  8
0
  6
CONTINUOUS
 62
     0
 66
     1
 10
0.0
 20
0.0
 30
0.0
  0
VERTEX
  5
1CE1
  8
0
  6
CONTINUOUS
 62
     0
 10
17.884874817776868
 20
74.150310380857235
 30
0.0
  0
VERTEX
  5
1CE2
  8
0
  6
CONTINUOUS
 62
     0
 10
17.809587175329419
 20
74.106843040223524
 30
0.0
  0
VERTEX
  5
1CE3
  8
0
  6
CONTINUOUS
 62
     0
 10
17.660816534448159
 20
74.020950270663235
 30
0.0
  0
VERTEX
  5
1CE4
  8
0
  6
CONTINUOUS
 62
     0
 10
17.514276015206079
 20
73.936345062431627
 30
0.0
  0
VERTEX
  5
1CE5
  8
0
  6
CONTINUOUS
 62
     0
 10
17.441777659807691
 20
73.894488117426562
 30
0.0
  0
VERTEX
  5
1CE6
  8
0
  6
CONTINUOUS
 62
     0
 10
17.369760352362182
 20
73.852908905586588
 30
0.0
  0
VERTEX
  5
1CE7
  8
0
  6
CONTINUOUS
 62
     0
 10
17.227070298286922
 20
73.770526764455553
 30
0.0
  0
VERTEX
  5
1CE8
  8
0
  6
CONTINUOUS
 62
     0
 10
17.086011705958342
 20
73.689086548203136
 30
0.0
  0
VERTEX
  5
1CE9
  8
0
  6
CONTINUOUS
 62
     0
 10
16.946394647610092
 20
73.608478601982313
 30
0.0
  0
VERTEX
  5
1CEA
  8
0
  6
CONTINUOUS
 62
     0
 10
16.808032560617772
 20
73.528595213811656
 30
0.0
  0
VERTEX
  5
1CEB
  8
0
  6
CONTINUOUS
 62
     0
 10
16.670741412537069
 20
73.449330132509914
 30
0.0
  0
VERTEX
  5
1CEC
  8
0
  6
CONTINUOUS
 62
     0
 10
16.602440419483621
 20
73.409896535784583
 30
0.0
  0
VERTEX
  5
1CED
  8
0
  6
CONTINUOUS
 62
     0
 10
16.53433887740454
 20
73.370578092133002
 30
0.0
  0
VERTEX
  5
1CEE
  8
0
  6
CONTINUOUS
 62
     0
 10
16.39864351547844
 20
73.292234338397179
 30
0.0
  0
VERTEX
  5
1CEF
  8
0
  6
CONTINUOUS
 62
     0
 10
16.263473948536639
 20
73.21419415253709
 30
0.0
  0
VERTEX
  5
1CF0
  8
0
  6
CONTINUOUS
 62
     0
 10
16.128648022654371
 20
73.136352367935217
 30
0.0
  0
VERTEX
  5
1CF1
  8
0
  6
CONTINUOUS
 62
     0
 10
15.993981950053049
 20
73.058602874668125
 30
0.0
  0
VERTEX
  5
1CF2
  8
0
  6
CONTINUOUS
 62
     0
 10
15.859289421129271
 20
72.98083810683616
 30
0.0
  0
VERTEX
  5
1CF3
  8
0
  6
CONTINUOUS
 62
     0
 10
15.79187409699496
 20
72.941915851299711
 30
0.0
  0
VERTEX
  5
1CF4
  8
0
  6
CONTINUOUS
 62
     0
 10
15.72438067712447
 20
72.902948507168958
 30
0.0
  0
VERTEX
  5
1CF5
  8
0
  6
CONTINUOUS
 62
     0
 10
15.58906153306806
 20
72.824821962921476
 30
0.0
  0
VERTEX
  5
1CF6
  8
0
  6
CONTINUOUS
 62
     0
 10
15.453132339582901
 20
72.746343206472091
 30
0.0
  0
VERTEX
  5
1CF7
  8
0
  6
CONTINUOUS
 62
     0
 10
15.38487481777687
 20
72.706934707883164
 30
0.0
  0
SEQEND
  5
1CF8
  8
0
  6
CONTINUOUS
 62
     0
  0
POLYLINE
  5
188F
  8
0
  6
CONTINUOUS
 62
     0
 66
     1
 10
0.0
 20
0.0
 30
0.0
  0
VERTEX
  5
1CF9
  8
0
  6
CONTINUOUS
 62
     0
 10
22.88487481777689
 20
68.37680768896098
 30
0.0
  0
VERTEX
  5
1CFA
  8
0
  6
CONTINUOUS
 62
     0
 10
22.884874817776868
 20
68.455624686138805
 30
0.0
  0
VERTEX
  5
1CFB
  8
0
  6
CONTINUOUS
 62
     0
 10
22.884874817776851
 20
68.612582199037604
 30
0.0
  0
VERTEX
  5
1CFC
  8
0
  6
CONTINUOUS
 62
     0
 10
22.884874817776868
 20
68.768835287532525
 30
0.0
  0
VERTEX
  5
1CFD
  8
0
  6
CONTINUOUS
 62
     0
 10
22.884874817776861
 20
68.846769975794075
 30
0.0
  0
VERTEX
  5
1CFE
  8
0
  6
CONTINUOUS
 62
     0
 10
22.884874817776911
 20
68.924614486866972
 30
0.0
  0
VERTEX
  5
1CFF
  8
0
  6
CONTINUOUS
 62
     0
 10
22.884874817776868
 20
69.080144022530959
 30
0.0
  0
VERTEX
  5
1D00
  8
0
  6
CONTINUOUS
 62
     0
 10
22.884874817776868
 20
69.235643009065043
 30
0.0
  0
VERTEX
  5
1D01
  8
0
  6
CONTINUOUS
 62
     0
 10
22.88487481777689
 20
69.391326578268831
 30
0.0
  0
VERTEX
  5
1D02
  8
0
  6
CONTINUOUS
 62
     0
 10
22.884874817776851
 20
69.547406949989025
 30
0.0
  0
VERTEX
  5
1D03
  8
0
  6
CONTINUOUS
 62
     0
 10
22.884874817776829
 20
69.704094457460641
 30
0.0
  0
VERTEX
  5
1D04
  8
0
  6
CONTINUOUS
 62
     0
 10
22.884874817776851
 20
69.782731344763832
 30
0.0
  0
VERTEX
  5
1D05
  8
0
  6
CONTINUOUS
 62
     0
 10
22.884874817776911
 20
69.861598538214466
 30
0.0
  0
VERTEX
  5
1D06
  8
0
  6
CONTINUOUS
 62
     0
 10
22.884874817776911
 20
70.020128700817963
 30
0.0
  0
VERTEX
  5
1D07
  8
0
  6
CONTINUOUS
 62
     0
 10
22.884874817776861
 20
70.179895477159263
 30
0.0
  0
VERTEX
  5
1D08
  8
0
  6
CONTINUOUS
 62
     0
 10
22.884874817776868
 20
70.341111369600895
 30
0.0
  0
VERTEX
  5
1D09
  8
0
  6
CONTINUOUS
 62
     0
 10
22.884874817776868
 20
70.50399180210573
 30
0.0
  0
VERTEX
  5
1D0A
  8
0
  6
CONTINUOUS
 62
     0
 10
22.884874817776861
 20
70.668756084367885
 30
0.0
  0
VERTEX
  5
1D0B
  8
0
  6
CONTINUOUS
 62
     0
 10
22.88487481777689
 20
70.751914508047776
 30
0.0
  0
VERTEX
  5
1D0C
  8
0
  6
CONTINUOUS
 62
     0
 10
22.884874817776868
 20
70.835628398057906
 30
0.0
  0
VERTEX
  5
1D0D
  8
0
  6
CONTINUOUS
 62
     0
 10
22.88487481777689
 20
71.004838814521122
 30
0.0
  0
VERTEX
  5
1D0E
  8
0
  6
CONTINUOUS
 62
     0
 10
22.88487481777689
 20
71.176624353641728
 30
0.0
  0
VERTEX
  5
1D0F
  8
0
  6
CONTINUOUS
 62
     0
 10
22.884874817776911
 20
71.263559034909122
 30
0.0
  0
SEQEND
  5
1D10
  8
0
  6
CONTINUOUS
 62
     0
  0
POLYLINE
  5
1890
  8
0
  6
CONTINUOUS
 62
     0
 66
     1
 10
0.0
 20
0.0
 30
0.0
  0
VERTEX
  5
1D11
  8
0
  6
CONTINUOUS
 62
     0
 10
22.884874817776868
 20
65.490056343012839
 30
0.0
  0
VERTEX
  5
1D12
  8
0
  6
CONTINUOUS
 62
     0
 10
22.88487481777689
 20
65.576991024280233
 30
0.0
  0
VERTEX
  5
1D13
  8
0
  6
CONTINUOUS
 62
     0
 10
22.884874817776851
 20
65.74877656340081
 30
0.0
  0
VERTEX
  5
1D14
  8
0
  6
CONTINUOUS
 62
     0
 10
22.884874817776851
 20
65.917986979864025
 30
0.0
  0
VERTEX
  5
1D15
  8
0
  6
CONTINUOUS
 62
     0
 10
22.884874817776868
 20
66.001700869874185
 30
0.0
  0
VERTEX
  5
1D16
  8
0
  6
CONTINUOUS
 62
     0
 10
22.884874817776868
 20
66.084859293554047
 30
0.0
  0
VERTEX
  5
1D17
  8
0
  6
CONTINUOUS
 62
     0
 10
22.88487481777689
 20
66.249623575816145
 30
0.0
  0
VERTEX
  5
1D18
  8
0
  6
CONTINUOUS
 62
     0
 10
22.884874817776851
 20
66.412504008321037
 30
0.0
  0
VERTEX
  5
1D19
  8
0
  6
CONTINUOUS
 62
     0
 10
22.884874817776868
 20
66.573719900762654
 30
0.0
  0
VERTEX
  5
1D1A
  8
0
  6
CONTINUOUS
 62
     0
 10
22.884874817776861
 20
66.733486677103926
 30
0.0
  0
VERTEX
  5
1D1B
  8
0
  6
CONTINUOUS
 62
     0
 10
22.884874817776829
 20
66.892016839707452
 30
0.0
  0
VERTEX
  5
1D1C
  8
0
  6
CONTINUOUS
 62
     0
 10
22.884874817776868
 20
66.9708840331581
 30
0.0
  0
VERTEX
  5
1D1D
  8
0
  6
CONTINUOUS
 62
     0
 10
22.884874817776911
 20
67.049520920461291
 30
0.0
  0
VERTEX
  5
1D1E
  8
0
  6
CONTINUOUS
 62
     0
 10
22.884874817776868
 20
67.206208427932893
 30
0.0
  0
VERTEX
  5
1D1F
  8
0
  6
CONTINUOUS
 62
     0
 10
22.884874817776851
 20
67.362288799653101
 30
0.0
  0
VERTEX
  5
1D20
  8
0
  6
CONTINUOUS
 62
     0
 10
22.884874817776851
 20
67.517972368856874
 30
0.0
  0
VERTEX
  5
1D21
  8
0
  6
CONTINUOUS
 62
     0
 10
22.884874817776861
 20
67.673471355390973
 30
0.0
  0
VERTEX
  5
1D22
  8
0
  6
CONTINUOUS
 62
     0
 10
22.884874817776829
 20
67.82900089105496
 30
0.0
  0
VERTEX
  5
1D23
  8
0
  6
CONTINUOUS
 62
     0
 10
22.884874817776868
 20
67.906845402127857
 30
0.0
  0
VERTEX
  5
1D24
  8
0
  6
CONTINUOUS
 62
     0
 10
22.884874817776851
 20
67.984780090389393
 30
0.0
  0
VERTEX
  5
1D25
  8
0
  6
CONTINUOUS
 62
     0
 10
22.884874817776868
 20
68.141033178884328
 30
0.0
  0
VERTEX
  5
1D26
  8
0
  6
CONTINUOUS
 62
     0
 10
22.884874817776851
 20
68.297990691783127
 30
0.0
  0
VERTEX
  5
1D27
  8
0
  6
CONTINUOUS
 62
     0
 10
22.88487481777689
 20
68.37680768896098
 30
0.0
  0
SEQEND
  5
1D28
  8
0
  6
CONTINUOUS
 62
     0
  0
POLYLINE
  5
1891
  8
0
  6
CONTINUOUS
 62
     0
 66
     1
 10
0.0
 20
0.0
 30
0.0
  0
VERTEX
  5
1D29
  8
0
  6
CONTINUOUS
 62
     0
 10
20.384874817776868
 20
64.046680670038768
 30
0.0
  0
VERTEX
  5
1D2A
  8
0
  6
CONTINUOUS
 62
     0
 10
20.453132339582911
 20
64.086089168627694
 30
0.0
  0
VERTEX
  5
1D2B
  8
0
  6
CONTINUOUS
 62
     0
 10
20.589061533068062
 20
64.16456792507708
 30
0.0
  0
VERTEX
  5
1D2C
  8
0
  6
CONTINUOUS
 62
     0
 10
20.724380677124469
 20
64.242694469324562
 30
0.0
  0
VERTEX
  5
1D2D
  8
0
  6
CONTINUOUS
 62
     0
 10
20.79187409699496
 20
64.281661813455315
 30
0.0
  0
VERTEX
  5
1D2E
  8
0
  6
CONTINUOUS
 62
     0
 10
20.859289421129262
 20
64.320584068991764
 30
0.0
  0
VERTEX
  5
1D2F
  8
0
  6
CONTINUOUS
 62
     0
 10
20.993981950053101
 20
64.398348836823772
 30
0.0
  0
VERTEX
  5
1D30
  8
0
  6
CONTINUOUS
 62
     0
 10
21.128648022654382
 20
64.476098330090821
 30
0.0
  0
VERTEX
  5
1D31
  8
0
  6
CONTINUOUS
 62
     0
 10
21.263473948536639
 20
64.553940114692693
 30
0.0
  0
VERTEX
  5
1D32
  8
0
  6
CONTINUOUS
 62
     0
 10
21.398643515478479
 20
64.631980300552812
 30
0.0
  0
VERTEX
  5
1D33
  8
0
  6
CONTINUOUS
 62
     0
 10
21.53433887740454
 20
64.710324054288606
 30
0.0
  0
VERTEX
  5
1D34
  8
0
  6
CONTINUOUS
 62
     0
 10
21.602440419483631
 20
64.749642497940187
 30
0.0
  0
VERTEX
  5
1D35
  8
0
  6
CONTINUOUS
 62
     0
 10
21.670741412537069
 20
64.789076094665518
 30
0.0
  0
VERTEX
  5
1D36
  8
0
  6
CONTINUOUS
 62
     0
 10
21.808032560617761
 20
64.868341175967259
 30
0.0
  0
VERTEX
  5
1D37
  8
0
  6
CONTINUOUS
 62
     0
 10
21.946394647610092
 20
64.948224564137917
 30
0.0
  0
VERTEX
  5
1D38
  8
0
  6
CONTINUOUS
 62
     0
 10
22.086011705958342
 20
65.02883251035874
 30
0.0
  0
VERTEX
  5
1D39
  8
0
  6
CONTINUOUS
 62
     0
 10
22.227070298286971
 20
65.110272726611186
 30
0.0
  0
VERTEX
  5
1D3A
  8
0
  6
CONTINUOUS
 62
     0
 10
22.369760352362238
 20
65.19265486774222
 30
0.0
  0
VERTEX
  5
1D3B
  8
0
  6
CONTINUOUS
 62
     0
 10
22.441777659807691
 20
65.234234079582166
 30
0.0
  0
VERTEX
  5
1D3C
  8
0
  6
CONTINUOUS
 62
     0
 10
22.514276015206121
 20
65.276091024587245
 30
0.0
  0
VERTEX
  5
1D3D
  8
0
  6
CONTINUOUS
 62
     0
 10
22.66081653444818
 20
65.360696232818839
 30
0.0
  0
VERTEX
  5
1D3E
  8
0
  6
CONTINUOUS
 62
     0
 10
22.80958717532943
 20
65.446589002379142
 30
0.0
  0
VERTEX
  5
1D3F
  8
0
  6
CONTINUOUS
 62
     0
 10
22.884874817776868
 20
65.490056343012839
 30
0.0
  0
SEQEND
  5
1D40
  8
0
  6
CONTINUOUS
 62
     0
  0
POLYLINE
  5
1892
  8
0
  6
CONTINUOUS
 62
     0
 66
     1
 10
0.0
 20
0.0
 30
0.0
  0
VERTEX
  5
1D41
  8
0
  6
CONTINUOUS
 62
     0
 10
17.884874817776861
 20
62.603304997064711
 30
0.0
  0
VERTEX
  5
1D42
  8
0
  6
CONTINUOUS
 62
     0
 10
17.960162460224321
 20
62.646772337698408
 30
0.0
  0
VERTEX
  5
1D43
  8
0
  6
CONTINUOUS
 62
     0
 10
18.108933101105571
 20
62.732665107258711
 30
0.0
  0
VERTEX
  5
1D44
  8
0
  6
CONTINUOUS
 62
     0
 10
18.255473620347608
 20
62.81727031549029
 30
0.0
  0
VERTEX
  5
1D45
  8
0
  6
CONTINUOUS
 62
     0
 10
18.32797197574606
 20
62.859127260495377
 30
0.0
  0
VERTEX
  5
1D46
  8
0
  6
CONTINUOUS
 62
     0
 10
18.399989283191498
 20
62.90070647233533
 30
0.0
  0
VERTEX
  5
1D47
  8
0
  6
CONTINUOUS
 62
     0
 10
18.542679337266769
 20
62.983088613466371
 30
0.0
  0
VERTEX
  5
1D48
  8
0
  6
CONTINUOUS
 62
     0
 10
18.683737929595409
 20
63.06452882971881
 30
0.0
  0
VERTEX
  5
1D49
  8
0
  6
CONTINUOUS
 62
     0
 10
18.823354987943642
 20
63.145136775939633
 30
0.0
  0
VERTEX
  5
1D4A
  8
0
  6
CONTINUOUS
 62
     0
 10
18.961717074935969
 20
63.22502016411029
 30
0.0
  0
VERTEX
  5
1D4B
  8
0
  6
CONTINUOUS
 62
     0
 10
19.099008223016671
 20
63.304285245412032
 30
0.0
  0
VERTEX
  5
1D4C
  8
0
  6
CONTINUOUS
 62
     0
 10
19.16730921607012
 20
63.343718842137363
 30
0.0
  0
VERTEX
  5
1D4D
  8
0
  6
CONTINUOUS
 62
     0
 10
19.2354107581492
 20
63.383037285788937
 30
0.0
  0
VERTEX
  5
1D4E
  8
0
  6
CONTINUOUS
 62
     0
 10
19.371106120075272
 20
63.461381039524738
 30
0.0
  0
VERTEX
  5
1D4F
  8
0
  6
CONTINUOUS
 62
     0
 10
19.506275687017109
 20
63.539421225384856
 30
0.0
  0
VERTEX
  5
1D50
  8
0
  6
CONTINUOUS
 62
     0
 10
19.641101612899369
 20
63.617263009986729
 30
0.0
  0
VERTEX
  5
1D51
  8
0
  6
CONTINUOUS
 62
     0
 10
19.775767685500639
 20
63.695012503253771
 30
0.0
  0
VERTEX
  5
1D52
  8
0
  6
CONTINUOUS
 62
     0
 10
19.910460214424472
 20
63.772777271085779
 30
0.0
  0
VERTEX
  5
1D53
  8
0
  6
CONTINUOUS
 62
     0
 10
19.977875538558781
 20
63.811699526622228
 30
0.0
  0
VERTEX
  5
1D54
  8
0
  6
CONTINUOUS
 62
     0
 10
20.045368958429261
 20
63.850666870752988
 30
0.0
  0
VERTEX
  5
1D55
  8
0
  6
CONTINUOUS
 62
     0
 10
20.180688102485689
 20
63.92879341500047
 30
0.0
  0
VERTEX
  5
1D56
  8
0
  6
CONTINUOUS
 62
     0
 10
20.31661729597084
 20
64.007272171449856
 30
0.0
  0
VERTEX
  5
1D57
  8
0
  6
CONTINUOUS
 62
     0
 10
20.384874817776868
 20
64.046680670038768
 30
0.0
  0
SEQEND
  5
1D58
  8
0
  6
CONTINUOUS
 62
     0
  0
POLYLINE
  5
1893
  8
0
  6
CONTINUOUS
 62
     0
 66
     1
 10
0.0
 20
0.0
 30
0.0
  0
VERTEX
  5
1D59
  8
0
  6
CONTINUOUS
 62
     0
 10
15.384874817776851
 20
64.046680670038768
 30
0.0
  0
VERTEX
  5
1D5A
  8
0
  6
CONTINUOUS
 62
     0
 10
15.45313233958289
 20
64.00727217144987
 30
0.0
  0
VERTEX
  5
1D5B
  8
0
  6
CONTINUOUS
 62
     0
 10
15.589061533068071
 20
63.928793415000463
 30
0.0
  0
VERTEX
  5
1D5C
  8
0
  6
CONTINUOUS
 62
     0
 10
15.72438067712447
 20
63.85066687075301
 30
0.0
  0
VERTEX
  5
1D5D
  8
0
  6
CONTINUOUS
 62
     0
 10
15.79187409699497
 20
63.81169952662222
 30
0.0
  0
VERTEX
  5
1D5E
  8
0
  6
CONTINUOUS
 62
     0
 10
15.859289421129301
 20
63.772777271085808
 30
0.0
  0
VERTEX
  5
1D5F
  8
0
  6
CONTINUOUS
 62
     0
 10
15.993981950053101
 20
63.695012503253793
 30
0.0
  0
VERTEX
  5
1D60
  8
0
  6
CONTINUOUS
 62
     0
 10
16.12864802265436
 20
63.61726300998675
 30
0.0
  0
VERTEX
  5
1D61
  8
0
  6
CONTINUOUS
 62
     0
 10
16.263473948536671
 20
63.539421225384871
 30
0.0
  0
VERTEX
  5
1D62
  8
0
  6
CONTINUOUS
 62
     0
 10
16.398643515478469
 20
63.461381039524731
 30
0.0
  0
VERTEX
  5
1D63
  8
0
  6
CONTINUOUS
 62
     0
 10
16.53433887740454
 20
63.38303728578893
 30
0.0
  0
VERTEX
  5
1D64
  8
0
  6
CONTINUOUS
 62
     0
 10
16.602440419483639
 20
63.343718842137342
 30
0.0
  0
VERTEX
  5
1D65
  8
0
  6
CONTINUOUS
 62
     0
 10
16.670741412537101
 20
63.304285245412053
 30
0.0
  0
VERTEX
  5
1D66
  8
0
  6
CONTINUOUS
 62
     0
 10
16.8080325606178
 20
63.225020164110319
 30
0.0
  0
VERTEX
  5
1D67
  8
0
  6
CONTINUOUS
 62
     0
 10
16.946394647610099
 20
63.145136775939619
 30
0.0
  0
VERTEX
  5
1D68
  8
0
  6
CONTINUOUS
 62
     0
 10
17.086011705958342
 20
63.064528829718817
 30
0.0
  0
VERTEX
  5
1D69
  8
0
  6
CONTINUOUS
 62
     0
 10
17.227070298286922
 20
62.9830886134664
 30
0.0
  0
VERTEX
  5
1D6A
  8
0
  6
CONTINUOUS
 62
     0
 10
17.369760352362249
 20
62.900706472335322
 30
0.0
  0
VERTEX
  5
1D6B
  8
0
  6
CONTINUOUS
 62
     0
 10
17.44177765980767
 20
62.859127260495377
 30
0.0
  0
VERTEX
  5
1D6C
  8
0
  6
CONTINUOUS
 62
     0
 10
17.514276015206111
 20
62.817270315490319
 30
0.0
  0
VERTEX
  5
1D6D
  8
0
  6
CONTINUOUS
 62
     0
 10
17.660816534448202
 20
62.732665107258718
 30
0.0
  0
VERTEX
  5
1D6E
  8
0
  6
CONTINUOUS
 62
     0
 10
17.809587175329401
 20
62.646772337698387
 30
0.0
  0
VERTEX
  5
1D6F
  8
0
  6
CONTINUOUS
 62
     0
 10
17.884874817776861
 20
62.603304997064711
 30
0.0
  0
SEQEND
  5
1D70
  8
0
  6
CONTINUOUS
 62
     0
  0
POLYLINE
  5
1894
  8
0
  6
CONTINUOUS
 62
     0
 66
     1
 10
0.0
 20
0.0
 30
0.0
  0
VERTEX
  5
1D71
  8
0
  6
CONTINUOUS
 62
     0
 10
12.884874817776851
 20
65.490056343012839
 30
0.0
  0
VERTEX
  5
1D72
  8
0
  6
CONTINUOUS
 62
     0
 10
12.960162460224311
 20
65.446589002379142
 30
0.0
  0
VERTEX
  5
1D73
  8
0
  6
CONTINUOUS
 62
     0
 10
13.108933101105549
 20
65.360696232818839
 30
0.0
  0
VERTEX
  5
1D74
  8
0
  6
CONTINUOUS
 62
     0
 10
13.25547362034764
 20
65.276091024587245
 30
0.0
  0
VERTEX
  5
1D75
  8
0
  6
CONTINUOUS
 62
     0
 10
13.32797197574604
 20
65.234234079582166
 30
0.0
  0
VERTEX
  5
1D76
  8
0
  6
CONTINUOUS
 62
     0
 10
13.39998928319152
 20
65.192654867742249
 30
0.0
  0
VERTEX
  5
1D77
  8
0
  6
CONTINUOUS
 62
     0
 10
13.542679337266829
 20
65.110272726611171
 30
0.0
  0
VERTEX
  5
1D78
  8
0
  6
CONTINUOUS
 62
     0
 10
13.68373792959542
 20
65.02883251035874
 30
0.0
  0
VERTEX
  5
1D79
  8
0
  6
CONTINUOUS
 62
     0
 10
13.823354987943651
 20
64.948224564137945
 30
0.0
  0
VERTEX
  5
1D7A
  8
0
  6
CONTINUOUS
 62
     0
 10
13.96171707493596
 20
64.868341175967259
 30
0.0
  0
VERTEX
  5
1D7B
  8
0
  6
CONTINUOUS
 62
     0
 10
14.099008223016661
 20
64.789076094665518
 30
0.0
  0
VERTEX
  5
1D7C
  8
0
  6
CONTINUOUS
 62
     0
 10
14.167309216070141
 20
64.749642497940187
 30
0.0
  0
VERTEX
  5
1D7D
  8
0
  6
CONTINUOUS
 62
     0
 10
14.23541075814922
 20
64.710324054288662
 30
0.0
  0
VERTEX
  5
1D7E
  8
0
  6
CONTINUOUS
 62
     0
 10
14.371106120075289
 20
64.63198030055284
 30
0.0
  0
VERTEX
  5
1D7F
  8
0
  6
CONTINUOUS
 62
     0
 10
14.50627568701708
 20
64.553940114692693
 30
0.0
  0
VERTEX
  5
1D80
  8
0
  6
CONTINUOUS
 62
     0
 10
14.6411016128994
 20
64.476098330090821
 30
0.0
  0
VERTEX
  5
1D81
  8
0
  6
CONTINUOUS
 62
     0
 10
14.77576768550065
 20
64.398348836823772
 30
0.0
  0
VERTEX
  5
1D82
  8
0
  6
CONTINUOUS
 62
     0
 10
14.910460214424459
 20
64.320584068991764
 30
0.0
  0
VERTEX
  5
1D83
  8
0
  6
CONTINUOUS
 62
     0
 10
14.977875538558781
 20
64.281661813455344
 30
0.0
  0
VERTEX
  5
1D84
  8
0
  6
CONTINUOUS
 62
     0
 10
15.045368958429281
 20
64.242694469324562
 30
0.0
  0
VERTEX
  5
1D85
  8
0
  6
CONTINUOUS
 62
     0
 10
15.180688102485689
 20
64.164567925077108
 30
0.0
  0
VERTEX
  5
1D86
  8
0
  6
CONTINUOUS
 62
     0
 10
15.316617295970859
 20
64.086089168627694
 30
0.0
  0
VERTEX
  5
1D87
  8
0
  6
CONTINUOUS
 62
     0
 10
15.384874817776851
 20
64.046680670038768
 30
0.0
  0
SEQEND
  5
1D88
  8
0
  6
CONTINUOUS
 62
     0
  0
CIRCLE
  5
1896
  8
0
  6
CONTINUOUS
 62
     0
 10
17.8848748177769
 20
68.376807688960923
 30
0.0
 40
2.0
  0
CIRCLE
  5
1897
  8
0
  6
CONTINUOUS
 62
     0
 10
17.8848748177769
 20
68.376807688960923
 30
0.0
 40
3.9999999999999929
  0
CIRCLE
  5
1898
  8
0
  6
CONTINUOUS
 62
     0
 10
17.8848748177769
 20
68.376807688960923
 30
0.0
 40
1.4226497308103629
  0
CIRCLE
  5
189A
  8
0
  6
CONTINUOUS
 62
     0
 10
17.8848748177769
 20
68.376807688960923
 30
0.0
 40
9.0
  0
LINE
  5
18D8
  8
1
 10
81.437552645521606
 20
68.376807688960952
 30
0.0
 11
45.343279412509098
 21
68.37680768896098
 31
0.0
  0
LINE
  5
18DA
  8
3
 10
52.937552645521571
 20
71.763307688960964
 30
0.0
 11
56.79175703566942
 21
71.763307688960964
 31
0.0
  0
LINE
  5
18DC
  8
3
 10
52.937552645521571
 20
64.990307688960968
 30
0.0
 11
56.79175703566942
 21
64.990307688960996
 31
0.0
  0
LINE
  5
18DD
  8
0
  6
CONTINUOUS
 62
     0
 10
64.490970658136405
 20
74.150310380857235
 30
0.0
 11
58.937552645521578
 21
74.150310380857235
 31
0.0
  0
POLYLINE
  5
18DE
  8
0
  6
CONTINUOUS
 62
     0
 66
     1
 10
0.0
 20
0.0
 30
0.0
  0
VERTEX
  5
1D89
  8
0
  6
CONTINUOUS
 62
     0
 10
64.937552645521578
 20
72.706934707883192
 30
0.0
  0
VERTEX
  5
1D8A
  8
0
  6
CONTINUOUS
 62
     0
 10
64.937194010938782
 20
72.746343206472091
 30
0.0
  0
VERTEX
  5
1D8B
  8
0
  6
CONTINUOUS
 62
     0
 10
64.934344959487788
 20
72.824821962921476
 30
0.0
  0
VERTEX
  5
1D8C
  8
0
  6
CONTINUOUS
 62
     0
 10
64.928693195912558
 20
72.902948507168958
 30
0.0
  0
VERTEX
  5
1D8D
  8
0
  6
CONTINUOUS
 62
     0
 10
64.924829064806545
 20
72.941915851299711
 30
0.0
  0
VERTEX
  5
1D8E
  8
0
  6
CONTINUOUS
 62
     0
 10
64.920278492968691
 20
72.980838106836174
 30
0.0
  0
VERTEX
  5
1D8F
  8
0
  6
CONTINUOUS
 62
     0
 10
64.909132069831742
 20
73.058602874668168
 30
0.0
  0
VERTEX
  5
1D90
  8
0
  6
CONTINUOUS
 62
     0
 10
64.895276956937693
 20
73.136352367935217
 30
0.0
  0
VERTEX
  5
1D91
  8
0
  6
CONTINUOUS
 62
     0
 10
64.878728293536597
 20
73.214194152537104
 30
0.0
  0
VERTEX
  5
1D92
  8
0
  6
CONTINUOUS
 62
     0
 10
64.859493563020749
 20
73.292234338397208
 30
0.0
  0
VERTEX
  5
1D93
  8
0
  6
CONTINUOUS
 62
     0
 10
64.837572770115599
 20
73.370578092133002
 30
0.0
  0
VERTEX
  5
1D94
  8
0
  6
CONTINUOUS
 62
     0
 10
64.825603087970194
 20
73.409896535784583
 30
0.0
  0
VERTEX
  5
1D95
  8
0
  6
CONTINUOUS
 62
     0
 10
64.812958563147731
 20
73.449330132509942
 30
0.0
  0
VERTEX
  5
1D96
  8
0
  6
CONTINUOUS
 62
     0
 10
64.785636303813874
 20
73.528595213811684
 30
0.0
  0
VERTEX
  5
1D97
  8
0
  6
CONTINUOUS
 62
     0
 10
64.75558408614819
 20
73.608478601982313
 30
0.0
  0
VERTEX
  5
1D98
  8
0
  6
CONTINUOUS
 62
     0
 10
64.722772705702653
 20
73.689086548203136
 30
0.0
  0
VERTEX
  5
1D99
  8
0
  6
CONTINUOUS
 62
     0
 10
64.687165579306154
 20
73.770526764455582
 30
0.0
  0
VERTEX
  5
1D9A
  8
0
  6
CONTINUOUS
 62
     0
 10
64.648718615133134
 20
73.852908905586617
 30
0.0
  0
VERTEX
  5
1D9B
  8
0
  6
CONTINUOUS
 62
     0
 10
64.62841431867264
 20
73.894488117426562
 30
0.0
  0
VERTEX
  5
1D9C
  8
0
  6
CONTINUOUS
 62
     0
 10
64.607380032183755
 20
73.936345062431656
 30
0.0
  0
VERTEX
  5
1D9D
  8
0
  6
CONTINUOUS
 62
     0
 10
64.563090127639612
 20
74.020950270663263
 30
0.0
  0
VERTEX
  5
1D9E
  8
0
  6
CONTINUOUS
 62
     0
 10
64.515780989896143
 20
74.106843040223524
 30
0.0
  0
VERTEX
  5
1D9F
  8
0
  6
CONTINUOUS
 62
     0
 10
64.490970658136405
 20
74.150310380857235
 30
0.0
  0
SEQEND
  5
1DA0
  8
0
  6
CONTINUOUS
 62
     0
  0
POLYLINE
  5
18DF
  8
0
  6
CONTINUOUS
 62
     0
 66
     1
 10
0.0
 20
0.0
 30
0.0
  0
VERTEX
  5
1DA1
  8
0
  6
CONTINUOUS
 62
     0
 10
64.490970658136376
 20
71.263559034909122
 30
0.0
  0
VERTEX
  5
1DA2
  8
0
  6
CONTINUOUS
 62
     0
 10
64.515780989896143
 20
71.307026375542819
 30
0.0
  0
VERTEX
  5
1DA3
  8
0
  6
CONTINUOUS
 62
     0
 10
64.563090127639612
 20
71.392919145103093
 30
0.0
  0
VERTEX
  5
1DA4
  8
0
  6
CONTINUOUS
 62
     0
 10
64.607380032183755
 20
71.477524353334701
 30
0.0
  0
VERTEX
  5
1DA5
  8
0
  6
CONTINUOUS
 62
     0
 10
64.62841431867264
 20
71.519381298339795
 30
0.0
  0
VERTEX
  5
1DA6
  8
0
  6
CONTINUOUS
 62
     0
 10
64.648718615133134
 20
71.56096051017974
 30
0.0
  0
VERTEX
  5
1DA7
  8
0
  6
CONTINUOUS
 62
     0
 10
64.687165579306154
 20
71.643342651310775
 30
0.0
  0
VERTEX
  5
1DA8
  8
0
  6
CONTINUOUS
 62
     0
 10
64.722772705702653
 20
71.724782867563221
 30
0.0
  0
VERTEX
  5
1DA9
  8
0
  6
CONTINUOUS
 62
     0
 10
64.75558408614819
 20
71.805390813784015
 30
0.0
  0
VERTEX
  5
1DAA
  8
0
  6
CONTINUOUS
 62
     0
 10
64.785636303813874
 20
71.885274201954672
 30
0.0
  0
VERTEX
  5
1DAB
  8
0
  6
CONTINUOUS
 62
     0
 10
64.812958563147731
 20
71.964539283256414
 30
0.0
  0
VERTEX
  5
1DAC
  8
0
  6
CONTINUOUS
 62
     0
 10
64.825603087970194
 20
72.003972879981745
 30
0.0
  0
VERTEX
  5
1DAD
  8
0
  6
CONTINUOUS
 62
     0
 10
64.837572770115599
 20
72.043291323633355
 30
0.0
  0
VERTEX
  5
1DAE
  8
0
  6
CONTINUOUS
 62
     0
 10
64.859493563020749
 20
72.121635077369149
 30
0.0
  0
VERTEX
  5
1DAF
  8
0
  6
CONTINUOUS
 62
     0
 10
64.878728293536597
 20
72.199675263229238
 30
0.0
  0
VERTEX
  5
1DB0
  8
0
  6
CONTINUOUS
 62
     0
 10
64.895276956937693
 20
72.27751704783114
 30
0.0
  0
VERTEX
  5
1DB1
  8
0
  6
CONTINUOUS
 62
     0
 10
64.909132069831742
 20
72.355266541098175
 30
0.0
  0
VERTEX
  5
1DB2
  8
0
  6
CONTINUOUS
 62
     0
 10
64.920278492968691
 20
72.433031308930168
 30
0.0
  0
VERTEX
  5
1DB3
  8
0
  6
CONTINUOUS
 62
     0
 10
64.924829064806545
 20
72.471953564466617
 30
0.0
  0
VERTEX
  5
1DB4
  8
0
  6
CONTINUOUS
 62
     0
 10
64.928693195912558
 20
72.510920908597399
 30
0.0
  0
VERTEX
  5
1DB5
  8
0
  6
CONTINUOUS
 62
     0
 10
64.934344959487788
 20
72.589047452844852
 30
0.0
  0
VERTEX
  5
1DB6
  8
0
  6
CONTINUOUS
 62
     0
 10
64.937194010938782
 20
72.667526209294266
 30
0.0
  0
VERTEX
  5
1DB7
  8
0
  6
CONTINUOUS
 62
     0
 10
64.937552645521578
 20
72.706934707883192
 30
0.0
  0
SEQEND
  5
1DB8
  8
0
  6
CONTINUOUS
 62
     0
  0
POLYLINE
  5
18E0
  8
0
  6
CONTINUOUS
 62
     0
 66
     1
 10
0.0
 20
0.0
 30
0.0
  0
VERTEX
  5
1DB9
  8
0
  6
CONTINUOUS
 62
     0
 10
64.937552645521578
 20
64.046680670038768
 30
0.0
  0
VERTEX
  5
1DBA
  8
0
  6
CONTINUOUS
 62
     0
 10
64.937194010938782
 20
64.086089168627723
 30
0.0
  0
VERTEX
  5
1DBB
  8
0
  6
CONTINUOUS
 62
     0
 10
64.934344959487788
 20
64.164567925077108
 30
0.0
  0
VERTEX
  5
1DBC
  8
0
  6
CONTINUOUS
 62
     0
 10
64.928693195912558
 20
64.242694469324562
 30
0.0
  0
VERTEX
  5
1DBD
  8
0
  6
CONTINUOUS
 62
     0
 10
64.924829064806545
 20
64.281661813455344
 30
0.0
  0
VERTEX
  5
1DBE
  8
0
  6
CONTINUOUS
 62
     0
 10
64.92027849296872
 20
64.320584068991792
 30
0.0
  0
VERTEX
  5
1DBF
  8
0
  6
CONTINUOUS
 62
     0
 10
64.909132069831742
 20
64.398348836823772
 30
0.0
  0
VERTEX
  5
1DC0
  8
0
  6
CONTINUOUS
 62
     0
 10
64.895276956937693
 20
64.476098330090849
 30
0.0
  0
VERTEX
  5
1DC1
  8
0
  6
CONTINUOUS
 62
     0
 10
64.878728293536597
 20
64.553940114692722
 30
0.0
  0
VERTEX
  5
1DC2
  8
0
  6
CONTINUOUS
 62
     0
 10
64.859493563020749
 20
64.631980300552812
 30
0.0
  0
VERTEX
  5
1DC3
  8
0
  6
CONTINUOUS
 62
     0
 10
64.837572770115599
 20
64.710324054288606
 30
0.0
  0
VERTEX
  5
1DC4
  8
0
  6
CONTINUOUS
 62
     0
 10
64.825603087970194
 20
64.749642497940215
 30
0.0
  0
VERTEX
  5
1DC5
  8
0
  6
CONTINUOUS
 62
     0
 10
64.812958563147731
 20
64.789076094665546
 30
0.0
  0
VERTEX
  5
1DC6
  8
0
  6
CONTINUOUS
 62
     0
 10
64.785636303813874
 20
64.868341175967274
 30
0.0
  0
VERTEX
  5
1DC7
  8
0
  6
CONTINUOUS
 62
     0
 10
64.75558408614819
 20
64.948224564137945
 30
0.0
  0
VERTEX
  5
1DC8
  8
0
  6
CONTINUOUS
 62
     0
 10
64.722772705702653
 20
65.02883251035874
 30
0.0
  0
VERTEX
  5
1DC9
  8
0
  6
CONTINUOUS
 62
     0
 10
64.687165579306154
 20
65.110272726611186
 30
0.0
  0
VERTEX
  5
1DCA
  8
0
  6
CONTINUOUS
 62
     0
 10
64.648718615133134
 20
65.19265486774222
 30
0.0
  0
VERTEX
  5
1DCB
  8
0
  6
CONTINUOUS
 62
     0
 10
64.62841431867264
 20
65.234234079582166
 30
0.0
  0
VERTEX
  5
1DCC
  8
0
  6
CONTINUOUS
 62
     0
 10
64.607380032183755
 20
65.276091024587245
 30
0.0
  0
VERTEX
  5
1DCD
  8
0
  6
CONTINUOUS
 62
     0
 10
64.563090127639612
 20
65.360696232818853
 30
0.0
  0
VERTEX
  5
1DCE
  8
0
  6
CONTINUOUS
 62
     0
 10
64.515780989896143
 20
65.446589002379142
 30
0.0
  0
VERTEX
  5
1DCF
  8
0
  6
CONTINUOUS
 62
     0
 10
64.490970658136376
 20
65.490056343012839
 30
0.0
  0
SEQEND
  5
1DD0
  8
0
  6
CONTINUOUS
 62
     0
  0
POLYLINE
  5
18E1
  8
0
  6
CONTINUOUS
 62
     0
 66
     1
 10
0.0
 20
0.0
 30
0.0
  0
VERTEX
  5
1DD1
  8
0
  6
CONTINUOUS
 62
     0
 10
64.490970658136405
 20
62.603304997064733
 30
0.0
  0
VERTEX
  5
1DD2
  8
0
  6
CONTINUOUS
 62
     0
 10
64.515780989896143
 20
62.646772337698422
 30
0.0
  0
VERTEX
  5
1DD3
  8
0
  6
CONTINUOUS
 62
     0
 10
64.563090127639612
 20
62.732665107258697
 30
0.0
  0
VERTEX
  5
1DD4
  8
0
  6
CONTINUOUS
 62
     0
 10
64.607380032183755
 20
62.817270315490312
 30
0.0
  0
VERTEX
  5
1DD5
  8
0
  6
CONTINUOUS
 62
     0
 10
64.62841431867264
 20
62.859127260495399
 30
0.0
  0
VERTEX
  5
1DD6
  8
0
  6
CONTINUOUS
 62
     0
 10
64.648718615133134
 20
62.900706472335337
 30
0.0
  0
VERTEX
  5
1DD7
  8
0
  6
CONTINUOUS
 62
     0
 10
64.687165579306154
 20
62.983088613466379
 30
0.0
  0
VERTEX
  5
1DD8
  8
0
  6
CONTINUOUS
 62
     0
 10
64.722772705702653
 20
63.064528829718817
 30
0.0
  0
VERTEX
  5
1DD9
  8
0
  6
CONTINUOUS
 62
     0
 10
64.75558408614819
 20
63.14513677593964
 30
0.0
  0
VERTEX
  5
1DDA
  8
0
  6
CONTINUOUS
 62
     0
 10
64.785636303813874
 20
63.225020164110283
 30
0.0
  0
VERTEX
  5
1DDB
  8
0
  6
CONTINUOUS
 62
     0
 10
64.812958563147731
 20
63.304285245412011
 30
0.0
  0
VERTEX
  5
1DDC
  8
0
  6
CONTINUOUS
 62
     0
 10
64.825603087970194
 20
63.34371884213737
 30
0.0
  0
VERTEX
  5
1DDD
  8
0
  6
CONTINUOUS
 62
     0
 10
64.837572770115599
 20
63.383037285788959
 30
0.0
  0
VERTEX
  5
1DDE
  8
0
  6
CONTINUOUS
 62
     0
 10
64.859493563020749
 20
63.461381039524753
 30
0.0
  0
VERTEX
  5
1DDF
  8
0
  6
CONTINUOUS
 62
     0
 10
64.878728293536597
 20
63.539421225384842
 30
0.0
  0
VERTEX
  5
1DE0
  8
0
  6
CONTINUOUS
 62
     0
 10
64.895276956937693
 20
63.617263009986743
 30
0.0
  0
VERTEX
  5
1DE1
  8
0
  6
CONTINUOUS
 62
     0
 10
64.909132069831742
 20
63.695012503253793
 30
0.0
  0
VERTEX
  5
1DE2
  8
0
  6
CONTINUOUS
 62
     0
 10
64.920278492968691
 20
63.772777271085772
 30
0.0
  0
VERTEX
  5
1DE3
  8
0
  6
CONTINUOUS
 62
     0
 10
64.924829064806545
 20
63.811699526622249
 30
0.0
  0
VERTEX
  5
1DE4
  8
0
  6
CONTINUOUS
 62
     0
 10
64.928693195912558
 20
63.850666870753003
 30
0.0
  0
VERTEX
  5
1DE5
  8
0
  6
CONTINUOUS
 62
     0
 10
64.934344959487788
 20
63.928793415000477
 30
0.0
  0
VERTEX
  5
1DE6
  8
0
  6
CONTINUOUS
 62
     0
 10
64.937194010938782
 20
64.00727217144987
 30
0.0
  0
VERTEX
  5
1DE7
  8
0
  6
CONTINUOUS
 62
     0
 10
64.937552645521578
 20
64.046680670038768
 30
0.0
  0
SEQEND
  5
1DE8
  8
0
  6
CONTINUOUS
 62
     0
  0
LINE
  5
18E2
  8
0
  6
CONTINUOUS
 62
     0
 10
64.490970658136405
 20
62.603304997064733
 30
0.0
 11
58.937552645521578
 21
62.603304997064733
 31
0.0
  0
POLYLINE
  5
18E3
  8
0
  6
CONTINUOUS
 62
     0
 66
     1
 10
0.0
 20
0.0
 30
0.0
  0
VERTEX
  5
1DE9
  8
0
  6
CONTINUOUS
 62
     0
 10
64.937552645521578
 20
68.37680768896098
 30
0.0
  0
VERTEX
  5
1DEA
  8
0
  6
CONTINUOUS
 62
     0
 10
64.937194010938782
 20
68.455624686138833
 30
0.0
  0
VERTEX
  5
1DEB
  8
0
  6
CONTINUOUS
 62
     0
 10
64.934344959487788
 20
68.612582199037604
 30
0.0
  0
VERTEX
  5
1DEC
  8
0
  6
CONTINUOUS
 62
     0
 10
64.928693195912558
 20
68.768835287532568
 30
0.0
  0
VERTEX
  5
1DED
  8
0
  6
CONTINUOUS
 62
     0
 10
64.924829064806545
 20
68.846769975794075
 30
0.0
  0
VERTEX
  5
1DEE
  8
0
  6
CONTINUOUS
 62
     0
 10
64.92027849296872
 20
68.924614486866972
 30
0.0
  0
VERTEX
  5
1DEF
  8
0
  6
CONTINUOUS
 62
     0
 10
64.909132069831742
 20
69.080144022530959
 30
0.0
  0
VERTEX
  5
1DF0
  8
0
  6
CONTINUOUS
 62
     0
 10
64.895276956937693
 20
69.235643009065086
 30
0.0
  0
VERTEX
  5
1DF1
  8
0
  6
CONTINUOUS
 62
     0
 10
64.878728293536597
 20
69.391326578268831
 30
0.0
  0
VERTEX
  5
1DF2
  8
0
  6
CONTINUOUS
 62
     0
 10
64.859493563020749
 20
69.547406949989025
 30
0.0
  0
VERTEX
  5
1DF3
  8
0
  6
CONTINUOUS
 62
     0
 10
64.837572770115599
 20
69.704094457460627
 30
0.0
  0
VERTEX
  5
1DF4
  8
0
  6
CONTINUOUS
 62
     0
 10
64.825603087970194
 20
69.782731344763803
 30
0.0
  0
VERTEX
  5
1DF5
  8
0
  6
CONTINUOUS
 62
     0
 10
64.812958563147731
 20
69.861598538214466
 30
0.0
  0
VERTEX
  5
1DF6
  8
0
  6
CONTINUOUS
 62
     0
 10
64.785636303813874
 20
70.020128700817963
 30
0.0
  0
VERTEX
  5
1DF7
  8
0
  6
CONTINUOUS
 62
     0
 10
64.75558408614819
 20
70.179895477159263
 30
0.0
  0
VERTEX
  5
1DF8
  8
0
  6
CONTINUOUS
 62
     0
 10
64.722772705702653
 20
70.341111369600895
 30
0.0
  0
VERTEX
  5
1DF9
  8
0
  6
CONTINUOUS
 62
     0
 10
64.687165579306154
 20
70.503991802105745
 30
0.0
  0
VERTEX
  5
1DFA
  8
0
  6
CONTINUOUS
 62
     0
 10
64.648718615133134
 20
70.668756084367857
 30
0.0
  0
VERTEX
  5
1DFB
  8
0
  6
CONTINUOUS
 62
     0
 10
64.62841431867264
 20
70.751914508047776
 30
0.0
  0
VERTEX
  5
1DFC
  8
0
  6
CONTINUOUS
 62
     0
 10
64.607380032183755
 20
70.835628398057935
 30
0.0
  0
VERTEX
  5
1DFD
  8
0
  6
CONTINUOUS
 62
     0
 10
64.563090127639612
 20
71.004838814521122
 30
0.0
  0
VERTEX
  5
1DFE
  8
0
  6
CONTINUOUS
 62
     0
 10
64.515780989896143
 20
71.176624353641699
 30
0.0
  0
VERTEX
  5
1DFF
  8
0
  6
CONTINUOUS
 62
     0
 10
64.490970658136376
 20
71.263559034909122
 30
0.0
  0
SEQEND
  5
1E00
  8
0
  6
CONTINUOUS
 62
     0
  0
POLYLINE
  5
18E4
  8
0
  6
CONTINUOUS
 62
     0
 66
     1
 10
0.0
 20
0.0
 30
0.0
  0
VERTEX
  5
1E01
  8
0
  6
CONTINUOUS
 62
     0
 10
64.490970658136376
 20
65.490056343012839
 30
0.0
  0
VERTEX
  5
1E02
  8
0
  6
CONTINUOUS
 62
     0
 10
64.515780989896143
 20
65.576991024280261
 30
0.0
  0
VERTEX
  5
1E03
  8
0
  6
CONTINUOUS
 62
     0
 10
64.563090127639612
 20
65.748776563400838
 30
0.0
  0
VERTEX
  5
1E04
  8
0
  6
CONTINUOUS
 62
     0
 10
64.607380032183755
 20
65.917986979864025
 30
0.0
  0
VERTEX
  5
1E05
  8
0
  6
CONTINUOUS
 62
     0
 10
64.62841431867264
 20
66.001700869874185
 30
0.0
  0
VERTEX
  5
1E06
  8
0
  6
CONTINUOUS
 62
     0
 10
64.648718615133134
 20
66.084859293554103
 30
0.0
  0
VERTEX
  5
1E07
  8
0
  6
CONTINUOUS
 62
     0
 10
64.687165579306154
 20
66.249623575816202
 30
0.0
  0
VERTEX
  5
1E08
  8
0
  6
CONTINUOUS
 62
     0
 10
64.722772705702653
 20
66.412504008321065
 30
0.0
  0
VERTEX
  5
1E09
  8
0
  6
CONTINUOUS
 62
     0
 10
64.75558408614819
 20
66.573719900762683
 30
0.0
  0
VERTEX
  5
1E0A
  8
0
  6
CONTINUOUS
 62
     0
 10
64.785636303813874
 20
66.733486677103997
 30
0.0
  0
VERTEX
  5
1E0B
  8
0
  6
CONTINUOUS
 62
     0
 10
64.812958563147731
 20
66.89201683970748
 30
0.0
  0
VERTEX
  5
1E0C
  8
0
  6
CONTINUOUS
 62
     0
 10
64.825603087970194
 20
66.970884033158143
 30
0.0
  0
VERTEX
  5
1E0D
  8
0
  6
CONTINUOUS
 62
     0
 10
64.837572770115599
 20
67.049520920461305
 30
0.0
  0
VERTEX
  5
1E0E
  8
0
  6
CONTINUOUS
 62
     0
 10
64.859493563020749
 20
67.206208427932935
 30
0.0
  0
VERTEX
  5
1E0F
  8
0
  6
CONTINUOUS
 62
     0
 10
64.878728293536597
 20
67.362288799653129
 30
0.0
  0
VERTEX
  5
1E10
  8
0
  6
CONTINUOUS
 62
     0
 10
64.895276956937693
 20
67.517972368856874
 30
0.0
  0
VERTEX
  5
1E11
  8
0
  6
CONTINUOUS
 62
     0
 10
64.909132069831742
 20
67.673471355391001
 30
0.0
  0
VERTEX
  5
1E12
  8
0
  6
CONTINUOUS
 62
     0
 10
64.92027849296872
 20
67.829000891054989
 30
0.0
  0
VERTEX
  5
1E13
  8
0
  6
CONTINUOUS
 62
     0
 10
64.924829064806545
 20
67.906845402127885
 30
0.0
  0
VERTEX
  5
1E14
  8
0
  6
CONTINUOUS
 62
     0
 10
64.928693195912558
 20
67.984780090389393
 30
0.0
  0
VERTEX
  5
1E15
  8
0
  6
CONTINUOUS
 62
     0
 10
64.934344959487788
 20
68.141033178884356
 30
0.0
  0
VERTEX
  5
1E16
  8
0
  6
CONTINUOUS
 62
     0
 10
64.937194010938782
 20
68.297990691783127
 30
0.0
  0
VERTEX
  5
1E17
  8
0
  6
CONTINUOUS
 62
     0
 10
64.937552645521578
 20
68.37680768896098
 30
0.0
  0
SEQEND
  5
1E18
  8
0
  6
CONTINUOUS
 62
     0
  0
LINE
  5
18E5
  8
0
  6
CONTINUOUS
 62
     0
 10
58.937552645521578
 20
62.603304997064733
 30
0.0
 11
58.937552645521578
 21
74.150310380857235
 31
0.0
  0
POLYLINE
  5
18E6
  8
0
  6
CONTINUOUS
 62
     0
 66
     1
 10
0.0
 20
0.0
 30
0.0
  0
VERTEX
  5
1E19
  8
0
  6
CONTINUOUS
 62
     0
 10
64.937552645521578
 20
64.046680670038796
 30
0.0
  0
VERTEX
  5
1E1A
  8
0
  6
CONTINUOUS
 62
     0
 10
64.937194010938782
 20
64.00727217144987
 30
0.0
  0
VERTEX
  5
1E1B
  8
0
  6
CONTINUOUS
 62
     0
 10
64.934344959487788
 20
63.928793415000477
 30
0.0
  0
VERTEX
  5
1E1C
  8
0
  6
CONTINUOUS
 62
     0
 10
64.928693195912558
 20
63.850666870753003
 30
0.0
  0
VERTEX
  5
1E1D
  8
0
  6
CONTINUOUS
 62
     0
 10
64.924829064806545
 20
63.811699526622249
 30
0.0
  0
VERTEX
  5
1E1E
  8
0
  6
CONTINUOUS
 62
     0
 10
64.920278492968691
 20
63.772777271085772
 30
0.0
  0
VERTEX
  5
1E1F
  8
0
  6
CONTINUOUS
 62
     0
 10
64.909132069831742
 20
63.695012503253793
 30
0.0
  0
VERTEX
  5
1E20
  8
0
  6
CONTINUOUS
 62
     0
 10
64.895276956937693
 20
63.617263009986743
 30
0.0
  0
VERTEX
  5
1E21
  8
0
  6
CONTINUOUS
 62
     0
 10
64.878728293536597
 20
63.539421225384842
 30
0.0
  0
VERTEX
  5
1E22
  8
0
  6
CONTINUOUS
 62
     0
 10
64.859493563020749
 20
63.461381039524753
 30
0.0
  0
VERTEX
  5
1E23
  8
0
  6
CONTINUOUS
 62
     0
 10
64.837572770115599
 20
63.383037285788959
 30
0.0
  0
VERTEX
  5
1E24
  8
0
  6
CONTINUOUS
 62
     0
 10
64.825603087970194
 20
63.34371884213737
 30
0.0
  0
VERTEX
  5
1E25
  8
0
  6
CONTINUOUS
 62
     0
 10
64.812958563147731
 20
63.304285245412011
 30
0.0
  0
VERTEX
  5
1E26
  8
0
  6
CONTINUOUS
 62
     0
 10
64.785636303813874
 20
63.225020164110283
 30
0.0
  0
VERTEX
  5
1E27
  8
0
  6
CONTINUOUS
 62
     0
 10
64.75558408614819
 20
63.14513677593964
 30
0.0
  0
VERTEX
  5
1E28
  8
0
  6
CONTINUOUS
 62
     0
 10
64.722772705702653
 20
63.064528829718817
 30
0.0
  0
VERTEX
  5
1E29
  8
0
  6
CONTINUOUS
 62
     0
 10
64.687165579306154
 20
62.983088613466379
 30
0.0
  0
VERTEX
  5
1E2A
  8
0
  6
CONTINUOUS
 62
     0
 10
64.648718615133134
 20
62.900706472335337
 30
0.0
  0
VERTEX
  5
1E2B
  8
0
  6
CONTINUOUS
 62
     0
 10
64.62841431867264
 20
62.859127260495399
 30
0.0
  0
VERTEX
  5
1E2C
  8
0
  6
CONTINUOUS
 62
     0
 10
64.607380032183755
 20
62.817270315490312
 30
0.0
  0
VERTEX
  5
1E2D
  8
0
  6
CONTINUOUS
 62
     0
 10
64.563090127639612
 20
62.732665107258697
 30
0.0
  0
VERTEX
  5
1E2E
  8
0
  6
CONTINUOUS
 62
     0
 10
64.515780989896143
 20
62.646772337698422
 30
0.0
  0
VERTEX
  5
1E2F
  8
0
  6
CONTINUOUS
 62
     0
 10
64.490970658136405
 20
62.603304997064733
 30
0.0
  0
SEQEND
  5
1E30
  8
0
  6
CONTINUOUS
 62
     0
  0
POLYLINE
  5
18E7
  8
0
  6
CONTINUOUS
 62
     0
 66
     1
 10
0.0
 20
0.0
 30
0.0
  0
VERTEX
  5
1E31
  8
0
  6
CONTINUOUS
 62
     0
 10
64.490970658136405
 20
65.490056343012839
 30
0.0
  0
VERTEX
  5
1E32
  8
0
  6
CONTINUOUS
 62
     0
 10
64.515780989896143
 20
65.446589002379142
 30
0.0
  0
VERTEX
  5
1E33
  8
0
  6
CONTINUOUS
 62
     0
 10
64.563090127639612
 20
65.360696232818853
 30
0.0
  0
VERTEX
  5
1E34
  8
0
  6
CONTINUOUS
 62
     0
 10
64.607380032183755
 20
65.276091024587245
 30
0.0
  0
VERTEX
  5
1E35
  8
0
  6
CONTINUOUS
 62
     0
 10
64.62841431867264
 20
65.234234079582166
 30
0.0
  0
VERTEX
  5
1E36
  8
0
  6
CONTINUOUS
 62
     0
 10
64.648718615133134
 20
65.192654867742249
 30
0.0
  0
VERTEX
  5
1E37
  8
0
  6
CONTINUOUS
 62
     0
 10
64.687165579306154
 20
65.110272726611186
 30
0.0
  0
VERTEX
  5
1E38
  8
0
  6
CONTINUOUS
 62
     0
 10
64.722772705702653
 20
65.028832510358768
 30
0.0
  0
VERTEX
  5
1E39
  8
0
  6
CONTINUOUS
 62
     0
 10
64.75558408614819
 20
64.948224564137945
 30
0.0
  0
VERTEX
  5
1E3A
  8
0
  6
CONTINUOUS
 62
     0
 10
64.785636303813874
 20
64.868341175967274
 30
0.0
  0
VERTEX
  5
1E3B
  8
0
  6
CONTINUOUS
 62
     0
 10
64.812958563147731
 20
64.789076094665546
 30
0.0
  0
VERTEX
  5
1E3C
  8
0
  6
CONTINUOUS
 62
     0
 10
64.825603087970194
 20
64.749642497940215
 30
0.0
  0
VERTEX
  5
1E3D
  8
0
  6
CONTINUOUS
 62
     0
 10
64.837572770115599
 20
64.710324054288634
 30
0.0
  0
VERTEX
  5
1E3E
  8
0
  6
CONTINUOUS
 62
     0
 10
64.859493563020749
 20
64.631980300552812
 30
0.0
  0
VERTEX
  5
1E3F
  8
0
  6
CONTINUOUS
 62
     0
 10
64.878728293536597
 20
64.553940114692722
 30
0.0
  0
VERTEX
  5
1E40
  8
0
  6
CONTINUOUS
 62
     0
 10
64.895276956937693
 20
64.476098330090849
 30
0.0
  0
VERTEX
  5
1E41
  8
0
  6
CONTINUOUS
 62
     0
 10
64.909132069831742
 20
64.398348836823786
 30
0.0
  0
VERTEX
  5
1E42
  8
0
  6
CONTINUOUS
 62
     0
 10
64.920278492968691
 20
64.320584068991792
 30
0.0
  0
VERTEX
  5
1E43
  8
0
  6
CONTINUOUS
 62
     0
 10
64.924829064806545
 20
64.281661813455344
 30
0.0
  0
VERTEX
  5
1E44
  8
0
  6
CONTINUOUS
 62
     0
 10
64.928693195912558
 20
64.24269446932459
 30
0.0
  0
VERTEX
  5
1E45
  8
0
  6
CONTINUOUS
 62
     0
 10
64.934344959487788
 20
64.164567925077108
 30
0.0
  0
VERTEX
  5
1E46
  8
0
  6
CONTINUOUS
 62
     0
 10
64.937194010938782
 20
64.086089168627723
 30
0.0
  0
VERTEX
  5
1E47
  8
0
  6
CONTINUOUS
 62
     0
 10
64.937552645521578
 20
64.046680670038796
 30
0.0
  0
SEQEND
  5
1E48
  8
0
  6
CONTINUOUS
 62
     0
  0
LINE
  5
18E8
  8
0
  6
CONTINUOUS
 62
     0
 10
64.490970658136405
 20
65.490056343012839
 30
0.0
 11
58.937552645521578
 21
65.490056343012839
 31
0.0
  0
POLYLINE
  5
18E9
  8
0
  6
CONTINUOUS
 62
     0
 66
     1
 10
0.0
 20
0.0
 30
0.0
  0
VERTEX
  5
1E49
  8
0
  6
CONTINUOUS
 62
     0
 10
64.937552645521578
 20
68.37680768896098
 30
0.0
  0
VERTEX
  5
1E4A
  8
0
  6
CONTINUOUS
 62
     0
 10
64.937194010938782
 20
68.297990691783127
 30
0.0
  0
VERTEX
  5
1E4B
  8
0
  6
CONTINUOUS
 62
     0
 10
64.934344959487788
 20
68.141033178884356
 30
0.0
  0
VERTEX
  5
1E4C
  8
0
  6
CONTINUOUS
 62
     0
 10
64.928693195912558
 20
67.984780090389393
 30
0.0
  0
VERTEX
  5
1E4D
  8
0
  6
CONTINUOUS
 62
     0
 10
64.924829064806545
 20
67.906845402127885
 30
0.0
  0
VERTEX
  5
1E4E
  8
0
  6
CONTINUOUS
 62
     0
 10
64.920278492968691
 20
67.829000891054989
 30
0.0
  0
VERTEX
  5
1E4F
  8
0
  6
CONTINUOUS
 62
     0
 10
64.909132069831742
 20
67.673471355390973
 30
0.0
  0
VERTEX
  5
1E50
  8
0
  6
CONTINUOUS
 62
     0
 10
64.895276956937693
 20
67.517972368856874
 30
0.0
  0
VERTEX
  5
1E51
  8
0
  6
CONTINUOUS
 62
     0
 10
64.878728293536597
 20
67.362288799653101
 30
0.0
  0
VERTEX
  5
1E52
  8
0
  6
CONTINUOUS
 62
     0
 10
64.859493563020749
 20
67.206208427932921
 30
0.0
  0
VERTEX
  5
1E53
  8
0
  6
CONTINUOUS
 62
     0
 10
64.837572770115599
 20
67.049520920461305
 30
0.0
  0
VERTEX
  5
1E54
  8
0
  6
CONTINUOUS
 62
     0
 10
64.825603087970194
 20
66.970884033158143
 30
0.0
  0
VERTEX
  5
1E55
  8
0
  6
CONTINUOUS
 62
     0
 10
64.812958563147731
 20
66.892016839707452
 30
0.0
  0
VERTEX
  5
1E56
  8
0
  6
CONTINUOUS
 62
     0
 10
64.785636303813874
 20
66.733486677103969
 30
0.0
  0
VERTEX
  5
1E57
  8
0
  6
CONTINUOUS
 62
     0
 10
64.75558408614819
 20
66.573719900762683
 30
0.0
  0
VERTEX
  5
1E58
  8
0
  6
CONTINUOUS
 62
     0
 10
64.722772705702653
 20
66.412504008321037
 30
0.0
  0
VERTEX
  5
1E59
  8
0
  6
CONTINUOUS
 62
     0
 10
64.687165579306154
 20
66.249623575816173
 30
0.0
  0
VERTEX
  5
1E5A
  8
0
  6
CONTINUOUS
 62
     0
 10
64.648718615133134
 20
66.084859293554075
 30
0.0
  0
VERTEX
  5
1E5B
  8
0
  6
CONTINUOUS
 62
     0
 10
64.62841431867264
 20
66.001700869874185
 30
0.0
  0
VERTEX
  5
1E5C
  8
0
  6
CONTINUOUS
 62
     0
 10
64.607380032183755
 20
65.917986979863997
 30
0.0
  0
VERTEX
  5
1E5D
  8
0
  6
CONTINUOUS
 62
     0
 10
64.563090127639612
 20
65.748776563400838
 30
0.0
  0
VERTEX
  5
1E5E
  8
0
  6
CONTINUOUS
 62
     0
 10
64.515780989896143
 20
65.576991024280261
 30
0.0
  0
VERTEX
  5
1E5F
  8
0
  6
CONTINUOUS
 62
     0
 10
64.490970658136405
 20
65.490056343012839
 30
0.0
  0
SEQEND
  5
1E60
  8
0
  6
CONTINUOUS
 62
     0
  0
POLYLINE
  5
18EA
  8
0
  6
CONTINUOUS
 62
     0
 66
     1
 10
0.0
 20
0.0
 30
0.0
  0
VERTEX
  5
1E61
  8
0
  6
CONTINUOUS
 62
     0
 10
64.490970658136405
 20
71.263559034909122
 30
0.0
  0
VERTEX
  5
1E62
  8
0
  6
CONTINUOUS
 62
     0
 10
64.515780989896143
 20
71.176624353641699
 30
0.0
  0
VERTEX
  5
1E63
  8
0
  6
CONTINUOUS
 62
     0
 10
64.563090127639612
 20
71.004838814521122
 30
0.0
  0
VERTEX
  5
1E64
  8
0
  6
CONTINUOUS
 62
     0
 10
64.607380032183755
 20
70.835628398057935
 30
0.0
  0
VERTEX
  5
1E65
  8
0
  6
CONTINUOUS
 62
     0
 10
64.62841431867264
 20
70.751914508047776
 30
0.0
  0
VERTEX
  5
1E66
  8
0
  6
CONTINUOUS
 62
     0
 10
64.648718615133134
 20
70.668756084367885
 30
0.0
  0
VERTEX
  5
1E67
  8
0
  6
CONTINUOUS
 62
     0
 10
64.687165579306154
 20
70.503991802105787
 30
0.0
  0
VERTEX
  5
1E68
  8
0
  6
CONTINUOUS
 62
     0
 10
64.722772705702653
 20
70.341111369600924
 30
0.0
  0
VERTEX
  5
1E69
  8
0
  6
CONTINUOUS
 62
     0
 10
64.75558408614819
 20
70.179895477159263
 30
0.0
  0
VERTEX
  5
1E6A
  8
0
  6
CONTINUOUS
 62
     0
 10
64.785636303813874
 20
70.020128700817992
 30
0.0
  0
VERTEX
  5
1E6B
  8
0
  6
CONTINUOUS
 62
     0
 10
64.812958563147731
 20
69.861598538214508
 30
0.0
  0
VERTEX
  5
1E6C
  8
0
  6
CONTINUOUS
 62
     0
 10
64.825603087970194
 20
69.782731344763846
 30
0.0
  0
VERTEX
  5
1E6D
  8
0
  6
CONTINUOUS
 62
     0
 10
64.837572770115599
 20
69.704094457460656
 30
0.0
  0
VERTEX
  5
1E6E
  8
0
  6
CONTINUOUS
 62
     0
 10
64.859493563020749
 20
69.547406949989025
 30
0.0
  0
VERTEX
  5
1E6F
  8
0
  6
CONTINUOUS
 62
     0
 10
64.878728293536597
 20
69.39132657826886
 30
0.0
  0
VERTEX
  5
1E70
  8
0
  6
CONTINUOUS
 62
     0
 10
64.895276956937693
 20
69.235643009065086
 30
0.0
  0
VERTEX
  5
1E71
  8
0
  6
CONTINUOUS
 62
     0
 10
64.909132069831742
 20
69.080144022530973
 30
0.0
  0
VERTEX
  5
1E72
  8
0
  6
CONTINUOUS
 62
     0
 10
64.920278492968691
 20
68.924614486866972
 30
0.0
  0
VERTEX
  5
1E73
  8
0
  6
CONTINUOUS
 62
     0
 10
64.924829064806545
 20
68.846769975794075
 30
0.0
  0
VERTEX
  5
1E74
  8
0
  6
CONTINUOUS
 62
     0
 10
64.928693195912558
 20
68.768835287532568
 30
0.0
  0
VERTEX
  5
1E75
  8
0
  6
CONTINUOUS
 62
     0
 10
64.934344959487788
 20
68.612582199037604
 30
0.0
  0
VERTEX
  5
1E76
  8
0
  6
CONTINUOUS
 62
     0
 10
64.937194010938782
 20
68.455624686138833
 30
0.0
  0
VERTEX
  5
1E77
  8
0
  6
CONTINUOUS
 62
     0
 10
64.937552645521578
 20
68.37680768896098
 30
0.0
  0
SEQEND
  5
1E78
  8
0
  6
CONTINUOUS
 62
     0
  0
LINE
  5
18EB
  8
0
  6
CONTINUOUS
 62
     0
 10
64.490970658136405
 20
71.263559034909122
 30
0.0
 11
58.937552645521578
 21
71.263559034909122
 31
0.0
  0
POLYLINE
  5
18EC
  8
0
  6
CONTINUOUS
 62
     0
 66
     1
 10
0.0
 20
0.0
 30
0.0
  0
VERTEX
  5
1E79
  8
0
  6
CONTINUOUS
 62
     0
 10
64.937552645521578
 20
72.706934707883164
 30
0.0
  0
VERTEX
  5
1E7A
  8
0
  6
CONTINUOUS
 62
     0
 10
64.937194010938782
 20
72.667526209294223
 30
0.0
  0
VERTEX
  5
1E7B
  8
0
  6
CONTINUOUS
 62
     0
 10
64.934344959487788
 20
72.589047452844852
 30
0.0
  0
VERTEX
  5
1E7C
  8
0
  6
CONTINUOUS
 62
     0
 10
64.928693195912558
 20
72.51092090859737
 30
0.0
  0
VERTEX
  5
1E7D
  8
0
  6
CONTINUOUS
 62
     0
 10
64.924829064806545
 20
72.471953564466617
 30
0.0
  0
VERTEX
  5
1E7E
  8
0
  6
CONTINUOUS
 62
     0
 10
64.920278492968691
 20
72.433031308930168
 30
0.0
  0
VERTEX
  5
1E7F
  8
0
  6
CONTINUOUS
 62
     0
 10
64.909132069831742
 20
72.35526654109816
 30
0.0
  0
VERTEX
  5
1E80
  8
0
  6
CONTINUOUS
 62
     0
 10
64.895276956937693
 20
72.277517047831111
 30
0.0
  0
VERTEX
  5
1E81
  8
0
  6
CONTINUOUS
 62
     0
 10
64.878728293536597
 20
72.199675263229238
 30
0.0
  0
VERTEX
  5
1E82
  8
0
  6
CONTINUOUS
 62
     0
 10
64.859493563020749
 20
72.121635077369149
 30
0.0
  0
VERTEX
  5
1E83
  8
0
  6
CONTINUOUS
 62
     0
 10
64.837572770115599
 20
72.043291323633326
 30
0.0
  0
VERTEX
  5
1E84
  8
0
  6
CONTINUOUS
 62
     0
 10
64.825603087970194
 20
72.003972879981745
 30
0.0
  0
VERTEX
  5
1E85
  8
0
  6
CONTINUOUS
 62
     0
 10
64.812958563147731
 20
71.964539283256414
 30
0.0
  0
VERTEX
  5
1E86
  8
0
  6
CONTINUOUS
 62
     0
 10
64.785636303813874
 20
71.885274201954672
 30
0.0
  0
VERTEX
  5
1E87
  8
0
  6
CONTINUOUS
 62
     0
 10
64.75558408614819
 20
71.805390813784015
 30
0.0
  0
VERTEX
  5
1E88
  8
0
  6
CONTINUOUS
 62
     0
 10
64.722772705702653
 20
71.724782867563192
 30
0.0
  0
VERTEX
  5
1E89
  8
0
  6
CONTINUOUS
 62
     0
 10
64.687165579306154
 20
71.643342651310775
 30
0.0
  0
VERTEX
  5
1E8A
  8
0
  6
CONTINUOUS
 62
     0
 10
64.648718615133134
 20
71.56096051017974
 30
0.0
  0
VERTEX
  5
1E8B
  8
0
  6
CONTINUOUS
 62
     0
 10
64.62841431867264
 20
71.519381298339766
 30
0.0
  0
VERTEX
  5
1E8C
  8
0
  6
CONTINUOUS
 62
     0
 10
64.607380032183755
 20
71.477524353334701
 30
0.0
  0
VERTEX
  5
1E8D
  8
0
  6
CONTINUOUS
 62
     0
 10
64.563090127639612
 20
71.392919145103093
 30
0.0
  0
VERTEX
  5
1E8E
  8
0
  6
CONTINUOUS
 62
     0
 10
64.515780989896143
 20
71.307026375542819
 30
0.0
  0
VERTEX
  5
1E8F
  8
0
  6
CONTINUOUS
 62
     0
 10
64.490970658136405
 20
71.263559034909122
 30
0.0
  0
SEQEND
  5
1E90
  8
0
  6
CONTINUOUS
 62
     0
  0
POLYLINE
  5
18ED
  8
0
  6
CONTINUOUS
 62
     0
 66
     1
 10
0.0
 20
0.0
 30
0.0
  0
VERTEX
  5
1E91
  8
0
  6
CONTINUOUS
 62
     0
 10
64.490970658136405
 20
74.150310380857235
 30
0.0
  0
VERTEX
  5
1E92
  8
0
  6
CONTINUOUS
 62
     0
 10
64.515780989896143
 20
74.106843040223524
 30
0.0
  0
VERTEX
  5
1E93
  8
0
  6
CONTINUOUS
 62
     0
 10
64.563090127639612
 20
74.020950270663263
 30
0.0
  0
VERTEX
  5
1E94
  8
0
  6
CONTINUOUS
 62
     0
 10
64.607380032183755
 20
73.936345062431656
 30
0.0
  0
VERTEX
  5
1E95
  8
0
  6
CONTINUOUS
 62
     0
 10
64.62841431867264
 20
73.894488117426562
 30
0.0
  0
VERTEX
  5
1E96
  8
0
  6
CONTINUOUS
 62
     0
 10
64.648718615133134
 20
73.852908905586617
 30
0.0
  0
VERTEX
  5
1E97
  8
0
  6
CONTINUOUS
 62
     0
 10
64.687165579306154
 20
73.770526764455582
 30
0.0
  0
VERTEX
  5
1E98
  8
0
  6
CONTINUOUS
 62
     0
 10
64.722772705702653
 20
73.689086548203136
 30
0.0
  0
VERTEX
  5
1E99
  8
0
  6
CONTINUOUS
 62
     0
 10
64.75558408614819
 20
73.608478601982313
 30
0.0
  0
VERTEX
  5
1E9A
  8
0
  6
CONTINUOUS
 62
     0
 10
64.785636303813874
 20
73.528595213811684
 30
0.0
  0
VERTEX
  5
1E9B
  8
0
  6
CONTINUOUS
 62
     0
 10
64.812958563147731
 20
73.449330132509942
 30
0.0
  0
VERTEX
  5
1E9C
  8
0
  6
CONTINUOUS
 62
     0
 10
64.825603087970194
 20
73.409896535784583
 30
0.0
  0
VERTEX
  5
1E9D
  8
0
  6
CONTINUOUS
 62
     0
 10
64.837572770115599
 20
73.370578092133002
 30
0.0
  0
VERTEX
  5
1E9E
  8
0
  6
CONTINUOUS
 62
     0
 10
64.859493563020749
 20
73.292234338397208
 30
0.0
  0
VERTEX
  5
1E9F
  8
0
  6
CONTINUOUS
 62
     0
 10
64.878728293536597
 20
73.214194152537104
 30
0.0
  0
VERTEX
  5
1EA0
  8
0
  6
CONTINUOUS
 62
     0
 10
64.895276956937693
 20
73.136352367935217
 30
0.0
  0
VERTEX
  5
1EA1
  8
0
  6
CONTINUOUS
 62
     0
 10
64.909132069831742
 20
73.058602874668168
 30
0.0
  0
VERTEX
  5
1EA2
  8
0
  6
CONTINUOUS
 62
     0
 10
64.920278492968691
 20
72.98083810683616
 30
0.0
  0
VERTEX
  5
1EA3
  8
0
  6
CONTINUOUS
 62
     0
 10
64.924829064806545
 20
72.941915851299711
 30
0.0
  0
VERTEX
  5
1EA4
  8
0
  6
CONTINUOUS
 62
     0
 10
64.928693195912558
 20
72.902948507168958
 30
0.0
  0
VERTEX
  5
1EA5
  8
0
  6
CONTINUOUS
 62
     0
 10
64.934344959487788
 20
72.824821962921476
 30
0.0
  0
VERTEX
  5
1EA6
  8
0
  6
CONTINUOUS
 62
     0
 10
64.937194010938782
 20
72.746343206472091
 30
0.0
  0
VERTEX
  5
1EA7
  8
0
  6
CONTINUOUS
 62
     0
 10
64.937552645521578
 20
72.706934707883164
 30
0.0
  0
SEQEND
  5
1EA8
  8
0
  6
CONTINUOUS
 62
     0
  0
LINE
  5
18EE
  8
0
  6
CONTINUOUS
 62
     0
 10
64.937552645521578
 20
73.37680768896098
 30
0.0
 11
64.937552645521578
 21
63.37680768896098
 31
0.0
  0
LINE
  5
18EF
  8
0
  6
CONTINUOUS
 62
     0
 10
52.937552645521571
 20
71.763307688960992
 30
0.0
 11
52.937552645521571
 21
64.990307688960968
 31
0.0
  0
LINE
  5
18F0
  8
0
  6
CONTINUOUS
 62
     0
 10
53.551052645521587
 20
72.37680768896098
 30
0.0
 11
53.551052645521587
 21
64.37680768896098
 31
0.0
  0
LINE
  5
18F3
  8
0
  6
CONTINUOUS
 62
     0
 10
65.291106036114854
 20
73.37680768896098
 30
0.0
 11
65.291106036114854
 21
63.37680768896098
 31
0.0
  0
LINE
  5
18F4
  8
0
  6
CONTINUOUS
 62
     0
 10
71.5375526455216
 20
73.376807688960952
 30
0.0
 11
71.5375526455216
 21
63.376807688960952
 31
0.0
  0
LINE
  5
18F5
  8
0
  6
CONTINUOUS
 62
     0
 10
77.043080327406301
 20
77.376807688960952
 30
0.0
 11
77.043080327406301
 21
59.376807688960952
 31
0.0
  0
LINE
  5
18F6
  8
0
  6
CONTINUOUS
 62
     0
 10
77.437552645521578
 20
77.376807688960952
 30
0.0
 11
77.437552645521578
 21
59.376807688960952
 31
0.0
  0
LINE
  5
18F7
  8
0
  6
CONTINUOUS
 62
     0
 10
78.437552645521563
 20
76.376807688960952
 30
0.0
 11
78.437552645521563
 21
60.376807688960952
 31
0.0
  0
LINE
  5
18F8
  8
0
  6
CONTINUOUS
 62
     0
 10
64.937552645521578
 20
73.37680768896098
 30
0.0
 11
64.490970658136405
 21
74.150310380857235
 31
0.0
  0
LINE
  5
18F9
  8
0
  6
CONTINUOUS
 62
     0
 10
64.490970658136405
 20
62.603304997064733
 30
0.0
 11
64.937552645521578
 21
63.37680768896098
 31
0.0
  0
LINE
  5
18FA
  8
0
  6
CONTINUOUS
 62
     0
 10
53.551052645521587
 20
72.37680768896098
 30
0.0
 11
52.937552645521571
 21
71.763307688960992
 31
0.0
  0
LINE
  5
18FB
  8
0
  6
CONTINUOUS
 62
     0
 10
52.937552645521571
 20
64.990307688960968
 30
0.0
 11
53.551052645521587
 21
64.37680768896098
 31
0.0
  0
LINE
  5
18FC
  8
0
  6
CONTINUOUS
 62
     0
 10
56.437552645521578
 20
72.37680768896098
 30
0.0
 11
53.551052645521587
 21
72.37680768896098
 31
0.0
  0
LINE
  5
18FD
  8
0
  6
CONTINUOUS
 62
     0
 10
53.551052645521587
 20
64.37680768896098
 30
0.0
 11
56.437552645521578
 21
64.37680768896098
 31
0.0
  0
LINE
  5
1902
  8
0
  6
CONTINUOUS
 62
     0
 10
65.291106036114854
 20
73.37680768896098
 30
0.0
 11
64.939098938608225
 21
73.024800591454351
 31
0.0
  0
LINE
  5
1903
  8
0
  6
CONTINUOUS
 62
     0
 10
64.939098938608225
 20
63.728814786467602
 30
0.0
 11
65.291106036114854
 21
63.37680768896098
 31
0.0
  0
LINE
  5
1904
  8
0
  6
CONTINUOUS
 62
     0
 10
71.5375526455216
 20
73.376807688960952
 30
0.0
 11
65.291106036114854
 21
73.37680768896098
 31
0.0
  0
LINE
  5
1905
  8
0
  6
CONTINUOUS
 62
     0
 10
65.291106036114854
 20
63.37680768896098
 30
0.0
 11
71.5375526455216
 21
63.376807688960952
 31
0.0
  0
LINE
  5
1906
  8
0
  6
CONTINUOUS
 62
     0
 10
77.043080327406301
 20
77.376807688960952
 30
0.0
 11
71.5375526455216
 21
73.376807688960952
 31
0.0
  0
LINE
  5
1907
  8
0
  6
CONTINUOUS
 62
     0
 10
71.5375526455216
 20
63.376807688960952
 30
0.0
 11
77.043080327406301
 21
59.376807688960952
 31
0.0
  0
LINE
  5
1908
  8
0
  6
CONTINUOUS
 62
     0
 10
77.437552645521578
 20
77.376807688960952
 30
0.0
 11
77.043080327406301
 21
77.376807688960952
 31
0.0
  0
LINE
  5
1909
  8
0
  6
CONTINUOUS
 62
     0
 10
77.043080327406301
 20
59.376807688960952
 30
0.0
 11
77.437552645521578
 21
59.376807688960952
 31
0.0
  0
ARC
  5
190A
  8
0
  6
CONTINUOUS
 62
     0
 10
77.437552645521578
 20
60.376807688960923
 30
0.0
 40
0.9999999999999982
 50
270.0
 51
0.0
  0
ARC
  5
190B
  8
0
  6
CONTINUOUS
 62
     0
 10
77.437552645521578
 20
76.376807688960923
 30
0.0
 40
1.0000000000000011
 50
0.0
 51
89.999999999999986
  0
LINE
  5
190C
  8
0
  6
CONTINUOUS
 62
     0
 10
78.437552645521563
 20
61.045385177018183
 30
0.0
 11
78.437552645521563
 21
75.708230200903714
 31
0.0
  0
ARC
  5
190D
  8
2
 10
87.937552645521606
 20
68.376807688960923
 30
0.0
 40
12.000000000000011
 50
142.34153799379189
 51
217.65846200620811
  0
LINE
  5
1910
  8
0
 10
56.437552645521578
 20
72.37680768896098
 30
0.0
 11
56.437552645521578
 21
64.37680768896098
 31
0.0
  0
CIRCLE
  5
191C
  8
3
 10
17.8848748177769
 20
68.37680768896098
 30
0.0
 40
3.3864999999999408
  0
LINE
  5
196F
  8
0
  6
CONTINUOUS
 62
     0
 10
58.591142484007833
 20
71.37680768896098
 30
0.0
 11
57.245843022387071
 21
71.37680768896098
 31
0.0
  0
LINE
  5
1970
  8
0
  6
CONTINUOUS
 62
     0
 10
57.245843022387049
 20
65.376807688960994
 30
0.0
 11
58.622634296175193
 21
65.37680768896098
 31
0.0
  0
LINE
  5
1973
  8
0
  6
CONTINUOUS
 62
     0
 10
56.437552645521578
 20
72.37680768896098
 30
0.0
 11
56.437552645521578
 21
64.37680768896098
 31
0.0
  0
LINE
  5
197A
  8
0
 10
56.437552645521578
 20
72.37680768896098
 30
0.0
 11
56.899432860873311
 21
71.576807688960969
 31
0.0
  0
LINE
  5
197B
  8
0
 10
56.437552645521578
 20
64.37680768896098
 30
0.0
 11
56.899432860873269
 21
65.176807688960992
 31
0.0
  0
ARC
  5
197C
  8
0
 10
57.245843022387049
 20
64.976807688961003
 30
0.0
 40
0.4
 50
89.999999999999403
 51
150.0000000000002
  0
ARC
  5
197D
  8
0
 10
57.245843022387071
 20
71.776807688960986
 30
0.0
 40
0.4
 50
210.0000000000004
 51
270.00000000000011
  0
ARC
  5
197E
  8
0
 10
58.591142484007797
 20
64.976807688961003
 30
0.0
 40
0.4
 50
30.000000000000369
 51
90.000000000000071
  0
ARC
  5
197F
  8
0
 10
58.591142484007833
 20
71.776807688960972
 30
0.0
 40
0.4
 50
269.99999999999937
 51
330.00000000000023
  0
ARC
  5
1980
  8
0
 10
58.591142484007833
 20
21.77680768896089
 30
0.0
 40
0.4
 50
269.99999999999937
 51
330.00000000000023
  0
ARC
  5
1981
  8
0
 10
58.591142484007797
 20
14.976807688960911
 30
0.0
 40
0.4
 50
30.000000000000369
 51
90.000000000000071
  0
ARC
  5
1982
  8
0
 10
57.245843022387071
 20
21.77680768896089
 30
0.0
 40
0.4
 50
210.0000000000004
 51
270.00000000000011
  0
ARC
  5
1983
  8
0
 10
57.245843022387049
 20
14.976807688960911
 30
0.0
 40
0.4
 50
89.999999999999403
 51
150.0000000000002
  0
LINE
  5
1984
  8
0
 10
56.437552645521578
 20
14.37680768896089
 30
0.0
 11
56.899432860873269
 21
15.17680768896091
 31
0.0
  0
LINE
  5
1985
  8
0
 10
56.437552645521578
 20
22.376807688960898
 30
0.0
 11
56.899432860873311
 21
21.576807688960891
 31
0.0
  0
LINE
  5
1986
  8
0
  6
CONTINUOUS
 62
     0
 10
56.437552645521578
 20
22.376807688960898
 30
0.0
 11
56.437552645521578
 21
14.37680768896089
 31
0.0
  0
LINE
  5
1987
  8
0
  6
CONTINUOUS
 62
     0
 10
57.245843022387049
 20
15.376807688960911
 30
0.0
 11
58.622634296175193
 21
15.37680768896089
 31
0.0
  0
LINE
  5
1988
  8
0
  6
CONTINUOUS
 62
     0
 10
58.591142484007833
 20
21.376807688960891
 30
0.0
 11
57.245843022387071
 21
21.376807688960891
 31
0.0
  0
LINE
  5
1989
  8
0
 10
56.437552645521578
 20
22.376807688960898
 30
0.0
 11
56.437552645521578
 21
14.37680768896089
 31
0.0
  0
LINE
  5
19CB
  8
1
 10
108.93755264552161
 20
56.376806415025428
 30
0.0
 11
108.93755264552161
 21
80.376808962896462
 31
0.0
  0
LINE
  5
19CC
  8
1
 10
96.937551371586068
 20
68.376807688960952
 30
0.0
 11
120.9375539194571
 21
68.376807688960952
 31
0.0
  0
CIRCLE
  5
19D1
  8
0
 10
108.93755264552161
 20
68.376807688960952
 30
0.0
 40
7.3314225119427761
  0
CIRCLE
  5
19D2
  8
0
 10
108.93755264552161
 20
68.376807688960952
 30
0.0
 40
8.0000018821173295
  0
CIRCLE
  5
19D3
  8
0
 10
108.93755264552161
 20
68.376807688960952
 30
0.0
 40
9.0000012739355153
  0
POLYLINE
  5
1A39
  8
0
 66
     1
 10
0.0
 20
0.0
 30
0.0
  0
VERTEX
  5
1A3A
  8
0
 10
49.137552645521581
 20
69.914927473609282
 30
0.0
 42
0.3276813223934047
  0
VERTEX
  5
1A3B
  8
0
 10
49.087189608309259
 20
69.877951078056299
 30
0.0
 42
0.0437459544518764
  0
VERTEX
  5
1A3C
  8
0
 10
48.996131289284271
 20
69.464422618962985
 30
0.0
 42
0.0188761590834481
 70
     2
 50
262.59146041517357
  0
VERTEX
  5
1A3D
  8
0
 10
48.954667689971167
 20
69.012809703253765
 30
0.0
 42
0.0134527459397667
 50
262.59146041517357
  0
VERTEX
  5
1A3E
  8
0
 10
48.937552645521578
 20
68.376807688960952
 30
0.0
 42
0.0134527459397577
  0
VERTEX
  5
1A3F
  8
0
 10
48.95466768997116
 20
67.740805674668195
 30
0.0
 42
0.018876159083438
  0
VERTEX
  5
1A40
  8
0
 10
48.996131289284271
 20
67.289192758958919
 30
0.0
 42
0.0437459544518766
 70
     2
 50
277.40853958482643
  0
VERTEX
  5
1A41
  8
0
 10
49.087189608309259
 20
66.875664299865605
 30
0.0
 42
0.3276813223932475
 50
277.40853958482643
  0
VERTEX
  5
1A42
  8
0
 10
49.137552645521581
 20
66.838687904312636
 30
0.0
 42
0.3276813223932475
  0
SEQEND
  5
1A43
  8
0
  0
LINE
  5
1A44
  8
0
  6
CONTINUOUS
 62
     0
 10
49.137552645521581
 20
69.914927473609282
 30
0.0
 11
49.137552645521581
 21
66.838687904312621
 31
0.0
  0
LINE
  5
1A45
  8
0
 10
49.937552645521578
 20
70.37680768896098
 30
0.0
 11
49.137552645521581
 21
69.914927473609282
 31
0.0
  0
LINE
  5
1A46
  8
0
 10
49.937552645521563
 20
66.376807688960952
 30
0.0
 11
49.137552645521581
 21
66.838687904312621
 31
0.0
  0
LINE
  5
1A47
  8
0
  6
CONTINUOUS
 62
     0
 10
49.937552645521578
 20
70.37680768896098
 30
0.0
 11
49.937552645521578
 21
66.376807688960966
 31
0.0
  0
LINE
  5
1A48
  8
0
  6
CONTINUOUS
 62
     0
 10
49.937552645521592
 20
66.376807688960966
 30
0.0
 11
52.937552645521571
 21
66.37680768896098
 31
0.0
  0
LINE
  5
1A49
  8
0
  6
CONTINUOUS
 62
     0
 10
52.937552645521571
 20
70.37680768896098
 30
0.0
 11
49.937552645521578
 21
70.37680768896098
 31
0.0
  0
POLYLINE
  5
1A5F
  8
0
 66
     1
 10
0.0
 20
0.0
 30
0.0
  0
VERTEX
  5
1A60
  8
0
 10
49.137552645521581
 20
19.9149274736092
 30
0.0
 42
0.3276813223934047
  0
VERTEX
  5
1A61
  8
0
 10
49.087189608309259
 20
19.87795107805621
 30
0.0
 42
0.0437459544518764
  0
VERTEX
  5
1A62
  8
0
 10
48.996131289284271
 20
19.464422618962899
 30
0.0
 42
0.0188761590834481
 70
     2
 50
262.59146041517357
  0
VERTEX
  5
1A63
  8
0
 10
48.954667689971167
 20
19.01280970325368
 30
0.0
 42
0.0134527459397667
 50
262.59146041517357
  0
VERTEX
  5
1A64
  8
0
 10
48.937552645521578
 20
18.37680768896087
 30
0.0
 42
0.0134527459397577
  0
VERTEX
  5
1A65
  8
0
 10
48.95466768997116
 20
17.74080567466811
 30
0.0
 42
0.018876159083438
  0
VERTEX
  5
1A66
  8
0
 10
48.996131289284271
 20
17.28919275895883
 30
0.0
 42
0.0437459544518766
 70
     2
 50
277.40853958482643
  0
VERTEX
  5
1A67
  8
0
 10
49.087189608309259
 20
16.87566429986552
 30
0.0
 42
0.3276813223932475
 50
277.40853958482643
  0
VERTEX
  5
1A68
  8
0
 10
49.137552645521581
 20
16.83868790431255
 30
0.0
 42
0.3276813223932475
  0
SEQEND
  5
1A69
  8
0
  0
LINE
  5
1A6A
  8
0
  6
CONTINUOUS
 62
     0
 10
49.137552645521581
 20
19.9149274736092
 30
0.0
 11
49.137552645521581
 21
16.838687904312529
 31
0.0
  0
LINE
  5
1A6B
  8
0
 10
49.937552645521578
 20
20.376807688960891
 30
0.0
 11
49.137552645521581
 21
19.9149274736092
 31
0.0
  0
LINE
  5
1A6C
  8
0
 10
49.937552645521563
 20
16.37680768896087
 30
0.0
 11
49.137552645521581
 21
16.838687904312529
 31
0.0
  0
LINE
  5
1A6D
  8
0
  6
CONTINUOUS
 62
     0
 10
49.937552645521578
 20
20.376807688960891
 30
0.0
 11
49.937552645521578
 21
16.376807688960881
 31
0.0
  0
LINE
  5
1A6E
  8
0
  6
CONTINUOUS
 62
     0
 10
49.937552645521592
 20
16.376807688960881
 30
0.0
 11
52.937552645521571
 21
16.376807688960891
 31
0.0
  0
LINE
  5
1A6F
  8
0
  6
CONTINUOUS
 62
     0
 10
52.937552645521571
 20
20.376807688960891
 30
0.0
 11
49.937552645521578
 21
20.376807688960891
 31
0.0
  0
TEXT
  5
1B20
  8
0
 62
     3
 10
0.0
 20
0.0
 30
0.0
 40
5.0
  1
NDXNS8A-SUS
  7
STANDARD1
  0
ENDSEC
  0
EOF
