  0
SECTION
  2
HEADER
  9
$ACADVER
  1
AC1009
  9
$INSBASE
 10
0.0
 20
0.0
 30
0.0
  9
$EXTMIN
 10
0.0
 20
-1.4802182810368341
 30
0.0
  9
$EXTMAX
 10
158.57275118906779
 20
79.298640775869814
 30
0.0
  9
$LIMMIN
 10
0.0
 20
0.0
  9
$LIMMAX
 10
385.0
 20
270.0
  9
$ORTHOMODE
 70
     1
  9
$REGENMODE
 70
     1
  9
$FILLMODE
 70
     1
  9
$QTEXTMODE
 70
     0
  9
$MIRRTEXT
 70
     0
  9
$DRAGMODE
 70
     2
  9
$LTSCALE
 40
5.0
  9
$OSMODE
 70
  3071
  9
$ATTMODE
 70
     1
  9
$TEXTSIZE
 40
4.000000000000048
  9
$TRACEWID
 40
0.05
  9
$TEXTSTYLE
  7
STANDARD
  9
$CLAYER
  8
0
  9
$CELTYPE
  6
BYLAYER
  9
$CECOLOR
 62
   256
  9
$DIMSCALE
 40
1.0
  9
$DIMASZ
 40
3.0
  9
$DIMEXO
 40
2.0
  9
$DIMDLI
 40
0.38
  9
$DIMRND
 40
0.0
  9
$DIMDLE
 40
0.0
  9
$DIMEXE
 40
2.0
  9
$DIMTP
 40
0.0
  9
$DIMTM
 40
0.0
  9
$DIMTXT
 40
3.0
  9
$DIMCEN
 40
0.0
  9
$DIMTSZ
 40
0.0
  9
$DIMTOL
 70
     0
  9
$DIMLIM
 70
     0
  9
$DIMTIH
 70
     0
  9
$DIMTOH
 70
     0
  9
$DIMSE1
 70
     0
  9
$DIMSE2
 70
     0
  9
$DIMTAD
 70
     1
  9
$DIMZIN
 70
     0
  9
$DIMBLK
  1

  9
$DIMASO
 70
     0
  9
$DIMSHO
 70
     0
  9
$DIMPOST
  1

  9
$DIMAPOST
  1

  9
$DIMALT
 70
     0
  9
$DIMALTD
 70
     2
  9
$DIMALTF
 40
25.399999999999999
  9
$DIMLFAC
 40
1.0
  9
$DIMTOFL
 70
     1
  9
$DIMTVP
 40
1.6000000000000001
  9
$DIMTIX
 70
     1
  9
$DIMSOXD
 70
     0
  9
$DIMSAH
 70
     0
  9
$DIMBLK1
  1

  9
$DIMBLK2
  1

  9
$DIMSTYLE
  2
STANDARD
  9
$DIMCLRD
 70
     0
  9
$DIMCLRE
 70
     0
  9
$DIMCLRT
 70
     0
  9
$DIMTFAC
 40
1.0
  9
$DIMGAP
 40
1.0
  9
$LUNITS
 70
     2
  9
$LUPREC
 70
     4
  9
$SKETCHINC
 40
0.1
  9
$FILLETRAD
 40
0.0
  9
$AUNITS
 70
     0
  9
$AUPREC
 70
     4
  9
$MENU
  1
E:\r13\win\SUPPORT\ACAD
  9
$ELEVATION
 40
0.0
  9
$PELEVATION
 40
0.0
  9
$THICKNESS
 40
0.0
  9
$LIMCHECK
 70
     0
  9
$BLIPMODE
 70
     0
  9
$CHAMFERA
 40
0.0
  9
$CHAMFERB
 40
0.0
  9
$SKPOLY
 70
     0
  9
$TDCREATE
 40
2450280.598206134
  9
$TDUPDATE
 40
2456597.6894541671
  9
$TDINDWG
 40
0.0777597338
  9
$TDUSRTIMER
 40
0.0777597338
  9
$USRTIMER
 70
     1
  9
$ANGBASE
 50
0.0
  9
$ANGDIR
 70
     0
  9
$PDMODE
 70
     0
  9
$PDSIZE
 40
0.0
  9
$PLINEWID
 40
0.0
  9
$COORDS
 70
     1
  9
$SPLFRAME
 70
     0
  9
$SPLINETYPE
 70
     6
  9
$SPLINESEGS
 70
     8
  9
$ATTDIA
 70
     0
  9
$ATTREQ
 70
     1
  9
$HANDLING
 70
     1
  9
$HANDSEED
  5
8AE
  9
$SURFTAB1
 70
     6
  9
$SURFTAB2
 70
     6
  9
$SURFTYPE
 70
     6
  9
$SURFU
 70
     6
  9
$SURFV
 70
     6
  9
$UCSNAME
  2

  9
$UCSORG
 10
0.0
 20
0.0
 30
0.0
  9
$UCSXDIR
 10
1.0
 20
0.0
 30
0.0
  9
$UCSYDIR
 10
0.0
 20
1.0
 30
0.0
  9
$PUCSNAME
  2

  9
$PUCSORG
 10
0.0
 20
0.0
 30
0.0
  9
$PUCSXDIR
 10
1.0
 20
0.0
 30
0.0
  9
$PUCSYDIR
 10
0.0
 20
1.0
 30
0.0
  9
$USERI1
 70
     3
  9
$USERI2
 70
     1
  9
$USERI3
 70
     1
  9
$USERI4
 70
     0
  9
$USERI5
 70
     0
  9
$USERR1
 40
1.0
  9
$USERR2
 40
3.0
  9
$USERR3
 40
3.0
  9
$USERR4
 40
3.0
  9
$USERR5
 40
10.0
  9
$WORLDVIEW
 70
     1
  9
$SHADEDGE
 70
     3
  9
$SHADEDIF
 70
    70
  9
$TILEMODE
 70
     1
  9
$MAXACTVP
 70
    16
  9
$PLIMCHECK
 70
     0
  9
$PEXTMIN
 10
1.0000000000000000E+020
 20
1.0000000000000000E+020
 30
1.0000000000000000E+020
  9
$PEXTMAX
 10
-1.0000000000000000E+020
 20
-1.0000000000000000E+020
 30
-1.0000000000000000E+020
  9
$PLIMMIN
 10
0.0
 20
0.0
  9
$PLIMMAX
 10
12.0
 20
9.0
  9
$UNITMODE
 70
     0
  9
$VISRETAIN
 70
     0
  9
$PLINEGEN
 70
     0
  9
$PSLTSCALE
 70
     0
  0
ENDSEC
  0
SECTION
  2
TABLES
  0
TABLE
  2
VPORT
 70
     1
  0
VPORT
  2
*ACTIVE
 70
     0
 10
0.0
 20
0.0
 11
1.0
 21
1.0
 12
192.49412581440311
 22
134.84202934784381
 13
0.0
 23
0.0
 14
5.0
 24
5.0
 15
10.0
 25
10.0
 16
0.0
 26
0.0
 36
1.0
 17
0.0
 27
0.0
 37
0.0
 40
275.78743625673241
 41
2.304913294797688
 42
50.0
 43
0.0
 44
0.0
 50
0.0
 51
0.0
 71
     0
 72
   500
 73
     1
 74
     0
 75
     0
 76
     0
 77
     0
 78
     2
  0
ENDTAB
  0
TABLE
  2
LTYPE
 70
     4
  0
LTYPE
  2
CONTINUOUS
 70
     0
  3
Solid Line
 72
    65
 73
     0
 40
0.0
  0
LTYPE
  2
CENTER
 70
     0
  3
____ _ ____ _ ____ _ ____ _ ____ _ ____ _ ____
 72
    65
 73
     4
 40
2.0
 49
1.25
 49
-0.25
 49
0.25
 49
-0.25
  0
LTYPE
  2
HIDDEN
 70
     0
  3
_ _ _ _ _ _ _ _ _ _ _ _ _ _ _ _ _ _ _ _ _ _ _
 72
    65
 73
     2
 40
0.375
 49
0.25
 49
-0.125
  0
LTYPE
  2
PHANTOM2
 70
     0
  3
___ _ _ ___ _ _ ___ _ _ ___ _ _
 72
    65
 73
     6
 40
1.25
 49
0.625
 49
-0.125
 49
0.125
 49
-0.125
 49
0.125
 49
-0.125
  0
ENDTAB
  0
TABLE
  2
LAYER
 70
     4
  0
LAYER
  2
0
 70
     0
 62
     7
  6
CONTINUOUS
  0
LAYER
  2
1
 70
     0
 62
     1
  6
CENTER
  0
LAYER
  2
3
 70
     0
 62
     3
  6
CONTINUOUS
  0
LAYER
  2
2
 70
     0
 62
     2
  6
HIDDEN
  0
ENDTAB
  0
TABLE
  2
STYLE
 70
     2
  0
STYLE
  2
STANDARD
 70
     0
 40
0.0
 41
1.0
 50
0.0
 71
     0
 42
4.000000000000048
  3
SIMPLEX
  4
BIGFONT
  0
STYLE
  2
STANDARD1
 70
     0
 40
0.0
 41
1.0
 50
0.0
 71
     0
 42
3.0
  3
txt
  4

  0
ENDTAB
  0
TABLE
  2
VIEW
 70
     0
  0
ENDTAB
  0
TABLE
  2
UCS
 70
     0
  0
ENDTAB
  0
TABLE
  2
APPID
 70
     3
  0
APPID
  2
ACAD
 70
     0
  0
APPID
  2
ACAD_MLEADERVER
 70
     0
  0
APPID
  2
ACAD_NAV_VCDISPLAY
 70
     0
  0
ENDTAB
  0
TABLE
  2
DIMSTYLE
 70
     1
  0
DIMSTYLE
  2
STANDARD
 70
     0
  3

  4

  5

  6

  7

 40
1.0
 41
0.18
 42
0.0625
 43
0.38
 44
0.18
 45
0.0
 46
0.0
 47
0.0
 48
0.0
140
0.18
141
0.09
142
0.0
143
25.399999999999999
144
1.0
145
0.0
146
1.0
147
0.09
 71
     0
 72
     0
 73
     1
 74
     1
 75
     0
 76
     0
 77
     0
 78
     0
170
     0
171
     2
172
     0
173
     0
174
     0
175
     0
176
     0
177
     0
178
     0
  0
ENDTAB
  0
ENDSEC
  0
SECTION
  2
BLOCKS
  0
BLOCK
  8
0
  2
$MODEL_SPACE
 70
     0
 10
0.0
 20
0.0
 30
0.0
  3
$MODEL_SPACE
  1

  0
ENDBLK
  5
175
  8
0
  0
BLOCK
 67
     1
  8
0
  2
$PAPER_SPACE
 70
     0
 10
0.0
 20
0.0
 30
0.0
  3
$PAPER_SPACE
  1

  0
ENDBLK
  5
173
 67
     1
  8
0
  0
ENDSEC
  0
SECTION
  2
ENTITIES
  0
LINE
  5
2AA
  8
0
 10
84.072751189067844
 20
66.298640775869757
 30
0.0
 11
84.072751189067787
 21
74.298640775869757
 31
0.0
  0
LINE
  5
2AC
  8
2
 10
28.072751189070178
 20
35.925672178525218
 30
0.0
 11
33.072751189070182
 21
33.038920832577993
 31
0.0
  0
LINE
  5
2AD
  8
2
 10
23.072751193137432
 20
33.038920834929939
 30
0.0
 11
28.072751193137432
 21
35.925672180878081
 31
0.0
  0
LINE
  5
2AE
  8
2
 10
23.072751193137432
 20
27.265418147733929
 30
0.0
 11
23.072751193137432
 21
33.038920839629299
 31
0.0
  0
LINE
  5
2AF
  8
2
 10
28.072751189070178
 20
24.378666804135008
 30
0.0
 11
23.072751189070178
 21
27.26541815008224
 31
0.0
  0
LINE
  5
2B0
  8
2
 10
33.072751184995639
 20
27.265418147730291
 30
0.0
 11
28.07275118499928
 21
24.378666801782149
 31
0.0
  0
LINE
  5
2B1
  8
2
 10
33.072751184999277
 20
33.038920834929939
 30
0.0
 11
33.072751184999277
 21
27.265418143034569
 31
0.0
  0
CIRCLE
  5
2B4
  8
0
 10
144.57275118906779
 20
30.152169491330142
 30
0.0
 40
9.0
  0
LINE
  5
2B5
  8
1
 10
130.57275118906779
 20
30.152169491330142
 30
0.0
 11
158.57275118906779
 21
30.152169491330142
 31
0.0
  0
LINE
  5
2B6
  8
1
 10
144.57275118906779
 20
16.152169491330142
 30
0.0
 11
144.57275118906779
 21
44.152169491330113
 31
0.0
  0
LINE
  5
2B7
  8
0
 10
84.072751189067901
 20
26.152169491330142
 30
0.0
 11
84.072751189067716
 21
34.152169491330092
 31
0.0
  0
LINE
  5
2B8
  8
1
 10
28.072751189067791
 20
16.15216949133011
 30
0.0
 11
28.072751189067791
 21
44.152169491330113
 31
0.0
  0
LINE
  5
2B9
  8
1
 10
14.072751189067789
 20
30.15216949133011
 30
0.0
 11
42.07275118906778
 21
30.15216949133011
 31
0.0
  0
CIRCLE
  5
2BA
  8
3
 10
28.072751189067791
 20
30.15216949133011
 30
0.0
 40
3.3865000000000012
  0
CIRCLE
  5
2BB
  8
0
 10
28.072751189067791
 20
30.15216949133011
 30
0.0
 40
2.0
  0
CIRCLE
  5
2BC
  8
0
 10
28.072751189067791
 20
30.15216949133011
 30
0.0
 40
3.9999999999999929
  0
CIRCLE
  5
2BE
  8
0
 10
28.072751189067791
 20
30.15216949133011
 30
0.0
 40
9.0
  0
LINE
  5
2BF
  8
1
 10
110.5727511890678
 20
30.152169491330142
 30
0.0
 11
62.07275118906778
 21
30.15216949133011
 31
0.0
  0
LINE
  5
2C0
  8
3
 10
84.072751189067787
 20
33.538669491330133
 30
0.0
 11
85.135364359511243
 21
34.152169491330113
 31
0.0
  0
LINE
  5
2C1
  8
3
 10
71.072751189067787
 20
33.538669491330133
 30
0.0
 11
76.572751189067901
 21
33.538669491330111
 31
0.0
  0
LINE
  5
2C2
  8
3
 10
84.072751189067787
 20
26.765669491330101
 30
0.0
 11
85.135364359511243
 21
26.15216949133011
 31
0.0
  0
LINE
  5
2C3
  8
3
 10
71.072751189067787
 20
26.765669491330101
 30
0.0
 11
76.572751189067901
 21
26.765669491330101
 31
0.0
  0
LINE
  5
2C4
  8
0
 10
91.626169201682558
 20
35.925672183226403
 30
0.0
 11
86.072751189067787
 21
35.925672183226403
 31
0.0
  0
LINE
  5
2C5
  8
0
 10
91.626169201682558
 20
24.37866679943383
 30
0.0
 11
86.072751189067787
 21
24.37866679943383
 31
0.0
  0
LINE
  5
2C6
  8
0
 10
86.072751189067787
 20
24.37866679943383
 30
0.0
 11
86.072751189067787
 21
35.925672183226403
 31
0.0
  0
POLYLINE
  5
2C7
  8
0
 66
     1
 10
0.0
 20
0.0
 30
0.0
  0
VERTEX
  5
786
  8
0
 10
92.072751189067773
 20
25.822042472407901
 30
0.0
  0
VERTEX
  5
787
  8
0
 10
92.072392554484907
 20
25.782633973818999
 30
0.0
  0
VERTEX
  5
788
  8
0
 10
92.069543503033913
 20
25.704155217369621
 30
0.0
  0
VERTEX
  5
789
  8
0
 10
92.063891739458697
 20
25.626028673122139
 30
0.0
  0
VERTEX
  5
78A
  8
0
 10
92.060027608352698
 20
25.587061328991378
 30
0.0
  0
VERTEX
  5
78B
  8
0
 10
92.055477036514901
 20
25.548139073454902
 30
0.0
  0
VERTEX
  5
78C
  8
0
 10
92.044330613377895
 20
25.470374305622929
 30
0.0
  0
VERTEX
  5
78D
  8
0
 10
92.030475500483874
 20
25.39262481235588
 30
0.0
  0
VERTEX
  5
78E
  8
0
 10
92.013926837082806
 20
25.314783027753968
 30
0.0
  0
VERTEX
  5
78F
  8
0
 10
91.994692106566902
 20
25.236742841893921
 30
0.0
  0
VERTEX
  5
790
  8
0
 10
91.972771313661781
 20
25.15839908815806
 30
0.0
  0
VERTEX
  5
791
  8
0
 10
91.960801631516404
 20
25.119080644506511
 30
0.0
  0
VERTEX
  5
792
  8
0
 10
91.948157106693927
 20
25.079647047781151
 30
0.0
  0
VERTEX
  5
793
  8
0
 10
91.920834847360027
 20
25.000381966479409
 30
0.0
  0
VERTEX
  5
794
  8
0
 10
91.890782629694343
 20
24.920498578308781
 30
0.0
  0
VERTEX
  5
795
  8
0
 10
91.857971249248806
 20
24.839890632087961
 30
0.0
  0
VERTEX
  5
796
  8
0
 10
91.822364122852335
 20
24.75845041583554
 30
0.0
  0
VERTEX
  5
797
  8
0
 10
91.783917158679287
 20
24.67606827470448
 30
0.0
  0
VERTEX
  5
798
  8
0
 10
91.763612862218849
 20
24.6344890628645
 30
0.0
  0
VERTEX
  5
799
  8
0
 10
91.742578575729908
 20
24.592632117859441
 30
0.0
  0
VERTEX
  5
79A
  8
0
 10
91.698288671185765
 20
24.50802690962783
 30
0.0
  0
VERTEX
  5
79B
  8
0
 10
91.650979533442339
 20
24.42213414006758
 30
0.0
  0
VERTEX
  5
79C
  8
0
 10
91.626169201682558
 20
24.37866679943383
 30
0.0
  0
SEQEND
  5
79D
  8
0
  0
POLYLINE
  5
2C8
  8
0
 66
     1
 10
0.0
 20
0.0
 30
0.0
  0
VERTEX
  5
79E
  8
0
 10
91.626169201682558
 20
27.265418145381972
 30
0.0
  0
VERTEX
  5
79F
  8
0
 10
91.650979533442339
 20
27.221950804748278
 30
0.0
  0
VERTEX
  5
7A0
  8
0
 10
91.698288671185821
 20
27.136058035187968
 30
0.0
  0
VERTEX
  5
7A1
  8
0
 10
91.742578575729965
 20
27.051452826956421
 30
0.0
  0
VERTEX
  5
7A2
  8
0
 10
91.763612862218849
 20
27.009595881951299
 30
0.0
  0
VERTEX
  5
7A3
  8
0
 10
91.783917158679287
 20
26.968016670111378
 30
0.0
  0
VERTEX
  5
7A4
  8
0
 10
91.822364122852335
 20
26.885634528980319
 30
0.0
  0
VERTEX
  5
7A5
  8
0
 10
91.857971249248806
 20
26.804194312727901
 30
0.0
  0
VERTEX
  5
7A6
  8
0
 10
91.890782629694343
 20
26.723586366507082
 30
0.0
  0
VERTEX
  5
7A7
  8
0
 10
91.920834847360027
 20
26.643702978336449
 30
0.0
  0
VERTEX
  5
7A8
  8
0
 10
91.948157106693927
 20
26.564437897034651
 30
0.0
  0
VERTEX
  5
7A9
  8
0
 10
91.960801631516404
 20
26.525004300309352
 30
0.0
  0
VERTEX
  5
7AA
  8
0
 10
91.972771313661781
 20
26.485685856657739
 30
0.0
  0
VERTEX
  5
7AB
  8
0
 10
91.994692106566902
 20
26.407342102921941
 30
0.0
  0
VERTEX
  5
7AC
  8
0
 10
92.013926837082806
 20
26.32930191706189
 30
0.0
  0
VERTEX
  5
7AD
  8
0
 10
92.030475500483874
 20
26.251460132459979
 30
0.0
  0
VERTEX
  5
7AE
  8
0
 10
92.044330613377895
 20
26.17371063919293
 30
0.0
  0
VERTEX
  5
7AF
  8
0
 10
92.055477036514901
 20
26.0959458713609
 30
0.0
  0
VERTEX
  5
7B0
  8
0
 10
92.060027608352698
 20
26.05702361582448
 30
0.0
  0
VERTEX
  5
7B1
  8
0
 10
92.063891739458697
 20
26.01805627169373
 30
0.0
  0
VERTEX
  5
7B2
  8
0
 10
92.069543503033913
 20
25.939929727446241
 30
0.0
  0
VERTEX
  5
7B3
  8
0
 10
92.072392554484907
 20
25.861450970996859
 30
0.0
  0
VERTEX
  5
7B4
  8
0
 10
92.072751189067773
 20
25.822042472407901
 30
0.0
  0
SEQEND
  5
7B5
  8
0
  0
LINE
  5
2C9
  8
0
 10
91.626169201682558
 20
27.265418145381972
 30
0.0
 11
86.072751189067787
 21
27.265418145381972
 31
0.0
  0
POLYLINE
  5
2CA
  8
0
 66
     1
 10
0.0
 20
0.0
 30
0.0
  0
VERTEX
  5
7B6
  8
0
 10
92.072751189067773
 20
30.15216949133011
 30
0.0
  0
VERTEX
  5
7B7
  8
0
 10
92.072392554484907
 20
30.07335249415226
 30
0.0
  0
VERTEX
  5
7B8
  8
0
 10
92.069543503033913
 20
29.91639498125349
 30
0.0
  0
VERTEX
  5
7B9
  8
0
 10
92.063891739458697
 20
29.760141892758529
 30
0.0
  0
VERTEX
  5
7BA
  8
0
 10
92.060027608352698
 20
29.682207204497018
 30
0.0
  0
VERTEX
  5
7BB
  8
0
 10
92.055477036514901
 20
29.604362693424122
 30
0.0
  0
VERTEX
  5
7BC
  8
0
 10
92.044330613377895
 20
29.448833157760099
 30
0.0
  0
VERTEX
  5
7BD
  8
0
 10
92.030475500483874
 20
29.293334171226011
 30
0.0
  0
VERTEX
  5
7BE
  8
0
 10
92.013926837082806
 20
29.137650602022209
 30
0.0
  0
VERTEX
  5
7BF
  8
0
 10
91.994692106566902
 20
28.98157023030203
 30
0.0
  0
VERTEX
  5
7C0
  8
0
 10
91.972771313661781
 20
28.824882722830441
 30
0.0
  0
VERTEX
  5
7C1
  8
0
 10
91.960801631516404
 20
28.746245835527279
 30
0.0
  0
VERTEX
  5
7C2
  8
0
 10
91.948157106693927
 20
28.667378642076621
 30
0.0
  0
VERTEX
  5
7C3
  8
0
 10
91.920834847360027
 20
28.50884847947313
 30
0.0
  0
VERTEX
  5
7C4
  8
0
 10
91.890782629694343
 20
28.349081703131819
 30
0.0
  0
VERTEX
  5
7C5
  8
0
 10
91.857971249248806
 20
28.18786581069017
 30
0.0
  0
VERTEX
  5
7C6
  8
0
 10
91.822364122852335
 20
28.024985378185342
 30
0.0
  0
VERTEX
  5
7C7
  8
0
 10
91.783917158679287
 20
27.860221095923212
 30
0.0
  0
VERTEX
  5
7C8
  8
0
 10
91.763612862218849
 20
27.777062672243321
 30
0.0
  0
VERTEX
  5
7C9
  8
0
 10
91.742578575729908
 20
27.69334878223313
 30
0.0
  0
VERTEX
  5
7CA
  8
0
 10
91.698288671185821
 20
27.524138365769971
 30
0.0
  0
VERTEX
  5
7CB
  8
0
 10
91.650979533442339
 20
27.352352826649369
 30
0.0
  0
VERTEX
  5
7CC
  8
0
 10
91.626169201682558
 20
27.265418145381972
 30
0.0
  0
SEQEND
  5
7CD
  8
0
  0
POLYLINE
  5
2CB
  8
0
 66
     1
 10
0.0
 20
0.0
 30
0.0
  0
VERTEX
  5
7CE
  8
0
 10
91.626169201682558
 20
33.038920837278262
 30
0.0
  0
VERTEX
  5
7CF
  8
0
 10
91.650979533442339
 20
32.951986156010861
 30
0.0
  0
VERTEX
  5
7D0
  8
0
 10
91.698288671185821
 20
32.780200616890262
 30
0.0
  0
VERTEX
  5
7D1
  8
0
 10
91.742578575729965
 20
32.610990200427104
 30
0.0
  0
VERTEX
  5
7D2
  8
0
 10
91.763612862218849
 20
32.527276310416909
 30
0.0
  0
VERTEX
  5
7D3
  8
0
 10
91.783917158679287
 20
32.444117886737018
 30
0.0
  0
VERTEX
  5
7D4
  8
0
 10
91.822364122852335
 20
32.279353604474892
 30
0.0
  0
VERTEX
  5
7D5
  8
0
 10
91.857971249248806
 20
32.116473171970057
 30
0.0
  0
VERTEX
  5
7D6
  8
0
 10
91.890782629694343
 20
31.955257279528411
 30
0.0
  0
VERTEX
  5
7D7
  8
0
 10
91.920834847360027
 20
31.7954905031871
 30
0.0
  0
VERTEX
  5
7D8
  8
0
 10
91.948157106693927
 20
31.63696034058361
 30
0.0
  0
VERTEX
  5
7D9
  8
0
 10
91.960801631516404
 20
31.558093147132951
 30
0.0
  0
VERTEX
  5
7DA
  8
0
 10
91.972771313661781
 20
31.479456259829789
 30
0.0
  0
VERTEX
  5
7DB
  8
0
 10
91.994692106566902
 20
31.322768752358201
 30
0.0
  0
VERTEX
  5
7DC
  8
0
 10
92.013926837082806
 20
31.166688380637972
 30
0.0
  0
VERTEX
  5
7DD
  8
0
 10
92.030475500483874
 20
31.011004811434219
 30
0.0
  0
VERTEX
  5
7DE
  8
0
 10
92.044330613377895
 20
30.855505824900121
 30
0.0
  0
VERTEX
  5
7DF
  8
0
 10
92.055477036514901
 20
30.699976289236108
 30
0.0
  0
VERTEX
  5
7E0
  8
0
 10
92.060027608352698
 20
30.622131778163212
 30
0.0
  0
VERTEX
  5
7E1
  8
0
 10
92.063891739458697
 20
30.544197089901701
 30
0.0
  0
VERTEX
  5
7E2
  8
0
 10
92.069543503033913
 20
30.387944001406741
 30
0.0
  0
VERTEX
  5
7E3
  8
0
 10
92.072392554484907
 20
30.23098648850797
 30
0.0
  0
VERTEX
  5
7E4
  8
0
 10
92.072751189067773
 20
30.15216949133011
 30
0.0
  0
SEQEND
  5
7E5
  8
0
  0
LINE
  5
2CC
  8
0
 10
91.626169201682558
 20
33.038920837278262
 30
0.0
 11
86.072751189067787
 21
33.038920837278262
 31
0.0
  0
POLYLINE
  5
2CD
  8
0
 66
     1
 10
0.0
 20
0.0
 30
0.0
  0
VERTEX
  5
7E6
  8
0
 10
92.072751189067773
 20
34.482296510252333
 30
0.0
  0
VERTEX
  5
7E7
  8
0
 10
92.072392554484907
 20
34.442888011663371
 30
0.0
  0
VERTEX
  5
7E8
  8
0
 10
92.069543503033913
 20
34.364409255213992
 30
0.0
  0
VERTEX
  5
7E9
  8
0
 10
92.063891739458697
 20
34.28628271096651
 30
0.0
  0
VERTEX
  5
7EA
  8
0
 10
92.060027608352698
 20
34.24731536683575
 30
0.0
  0
VERTEX
  5
7EB
  8
0
 10
92.055477036514901
 20
34.20839311129933
 30
0.0
  0
VERTEX
  5
7EC
  8
0
 10
92.044330613377895
 20
34.130628343467293
 30
0.0
  0
VERTEX
  5
7ED
  8
0
 10
92.030475500483874
 20
34.052878850200251
 30
0.0
  0
VERTEX
  5
7EE
  8
0
 10
92.013926837082806
 20
33.97503706559835
 30
0.0
  0
VERTEX
  5
7EF
  8
0
 10
91.994692106566902
 20
33.896996879738282
 30
0.0
  0
VERTEX
  5
7F0
  8
0
 10
91.972771313661781
 20
33.818653126002488
 30
0.0
  0
VERTEX
  5
7F1
  8
0
 10
91.960801631516404
 20
33.779334682350878
 30
0.0
  0
VERTEX
  5
7F2
  8
0
 10
91.948157106693927
 20
33.739901085625583
 30
0.0
  0
VERTEX
  5
7F3
  8
0
 10
91.920834847360027
 20
33.660636004323777
 30
0.0
  0
VERTEX
  5
7F4
  8
0
 10
91.890782629694343
 20
33.580752616153148
 30
0.0
  0
VERTEX
  5
7F5
  8
0
 10
91.857971249248806
 20
33.500144669932332
 30
0.0
  0
VERTEX
  5
7F6
  8
0
 10
91.822364122852335
 20
33.418704453679908
 30
0.0
  0
VERTEX
  5
7F7
  8
0
 10
91.783917158679287
 20
33.336322312548852
 30
0.0
  0
VERTEX
  5
7F8
  8
0
 10
91.763612862218849
 20
33.294743100708928
 30
0.0
  0
VERTEX
  5
7F9
  8
0
 10
91.742578575729965
 20
33.252886155703813
 30
0.0
  0
VERTEX
  5
7FA
  8
0
 10
91.698288671185821
 20
33.168280947472262
 30
0.0
  0
VERTEX
  5
7FB
  8
0
 10
91.650979533442339
 20
33.082388177911952
 30
0.0
  0
VERTEX
  5
7FC
  8
0
 10
91.626169201682558
 20
33.038920837278262
 30
0.0
  0
SEQEND
  5
7FD
  8
0
  0
POLYLINE
  5
2CE
  8
0
 66
     1
 10
0.0
 20
0.0
 30
0.0
  0
VERTEX
  5
7FE
  8
0
 10
91.626169201682558
 20
35.925672183226403
 30
0.0
  0
VERTEX
  5
7FF
  8
0
 10
91.650979533442339
 20
35.882204842592643
 30
0.0
  0
VERTEX
  5
800
  8
0
 10
91.698288671185765
 20
35.796312073032396
 30
0.0
  0
VERTEX
  5
801
  8
0
 10
91.742578575729908
 20
35.711706864800789
 30
0.0
  0
VERTEX
  5
802
  8
0
 10
91.763612862218849
 20
35.669849919795723
 30
0.0
  0
VERTEX
  5
803
  8
0
 10
91.783917158679287
 20
35.62827070795575
 30
0.0
  0
VERTEX
  5
804
  8
0
 10
91.822364122852335
 20
35.545888566824686
 30
0.0
  0
VERTEX
  5
805
  8
0
 10
91.857971249248806
 20
35.464448350572269
 30
0.0
  0
VERTEX
  5
806
  8
0
 10
91.890782629694343
 20
35.383840404351453
 30
0.0
  0
VERTEX
  5
807
  8
0
 10
91.920834847360027
 20
35.303957016180817
 30
0.0
  0
VERTEX
  5
808
  8
0
 10
91.948157106693927
 20
35.224691934879068
 30
0.0
  0
VERTEX
  5
809
  8
0
 10
91.960801631516404
 20
35.185258338153723
 30
0.0
  0
VERTEX
  5
80A
  8
0
 10
91.972771313661781
 20
35.145939894502163
 30
0.0
  0
VERTEX
  5
80B
  8
0
 10
91.994692106566902
 20
35.067596140766312
 30
0.0
  0
VERTEX
  5
80C
  8
0
 10
92.013926837082806
 20
34.989555954906251
 30
0.0
  0
VERTEX
  5
80D
  8
0
 10
92.030475500483874
 20
34.91171417030435
 30
0.0
  0
VERTEX
  5
80E
  8
0
 10
92.044330613377895
 20
34.833964677037301
 30
0.0
  0
VERTEX
  5
80F
  8
0
 10
92.055477036514901
 20
34.756199909205321
 30
0.0
  0
VERTEX
  5
810
  8
0
 10
92.060027608352698
 20
34.717277653668837
 30
0.0
  0
VERTEX
  5
811
  8
0
 10
92.063891739458697
 20
34.678310309538091
 30
0.0
  0
VERTEX
  5
812
  8
0
 10
92.069543503033913
 20
34.600183765290609
 30
0.0
  0
VERTEX
  5
813
  8
0
 10
92.072392554484907
 20
34.521705008841217
 30
0.0
  0
VERTEX
  5
814
  8
0
 10
92.072751189067773
 20
34.482296510252333
 30
0.0
  0
SEQEND
  5
815
  8
0
  0
LINE
  5
2CF
  8
0
 10
92.072751189067773
 20
35.152169491330113
 30
0.0
 11
92.072751189067773
 21
25.15216949133011
 31
0.0
  0
LINE
  5
2D0
  8
0
 10
71.072751189067787
 20
33.538669491330133
 30
0.0
 11
71.072751189067787
 21
26.765669491330101
 31
0.0
  0
LINE
  5
2D1
  8
0
 10
71.686251189067718
 20
34.152169491330113
 30
0.0
 11
71.686251189067718
 21
26.15216949133011
 31
0.0
  0
LINE
  5
2D3
  8
0
 10
68.072751189067787
 20
32.15216949133012
 30
0.0
 11
68.072751189067787
 21
28.15216949133012
 31
0.0
  0
LINE
  5
2D4
  8
0
 10
92.426304579660993
 20
35.152169491330113
 30
0.0
 11
92.426304579660993
 21
25.15216949133011
 31
0.0
  0
LINE
  5
2D5
  8
0
 10
98.672751189067753
 20
35.152169491330113
 30
0.0
 11
98.672751189067753
 21
25.15216949133011
 31
0.0
  0
LINE
  5
2D6
  8
0
 10
104.1782788709524
 20
39.152169491330113
 30
0.0
 11
104.1782788709524
 21
21.15216949133011
 31
0.0
  0
LINE
  5
2D7
  8
0
 10
104.5727511890678
 20
39.152169491330113
 30
0.0
 11
104.5727511890678
 21
21.15216949133011
 31
0.0
  0
LINE
  5
2D8
  8
0
 10
105.5727511890678
 20
38.15216949133012
 30
0.0
 11
105.5727511890678
 21
22.15216949133012
 31
0.0
  0
LINE
  5
2D9
  8
0
 10
92.072751189067773
 20
35.152169491330113
 30
0.0
 11
91.626169201682558
 21
35.925672183226403
 31
0.0
  0
LINE
  5
2DA
  8
0
 10
91.626169201682558
 20
24.37866679943383
 30
0.0
 11
92.072751189067773
 21
25.15216949133011
 31
0.0
  0
LINE
  5
2DB
  8
0
 10
71.686251189067718
 20
34.152169491330113
 30
0.0
 11
71.072751189067787
 21
33.538669491330133
 31
0.0
  0
LINE
  5
2DC
  8
0
 10
71.072751189067787
 20
26.765669491330101
 30
0.0
 11
71.686251189067718
 21
26.15216949133011
 31
0.0
  0
LINE
  5
2DD
  8
0
 10
86.072751189067787
 20
34.152169491330113
 30
0.0
 11
80.572751189067674
 21
34.152169491330113
 31
0.0
  0
LINE
  5
2DE
  8
0
 10
71.686251189067718
 20
26.15216949133011
 30
0.0
 11
76.572751189067901
 21
26.15216949133011
 31
0.0
  0
LINE
  5
2DF
  8
0
 10
68.072751189067787
 20
32.15216949133012
 30
0.0
 11
67.415798132726778
 21
31.772877467406669
 31
0.0
  0
LINE
  5
2E1
  8
0
 10
71.072751189067787
 20
32.15216949133012
 30
0.0
 11
68.072751189067787
 21
32.15216949133012
 31
0.0
  0
LINE
  5
2E2
  8
0
 10
68.072751189067787
 20
28.15216949133012
 30
0.0
 11
71.072751189067787
 21
28.15216949133012
 31
0.0
  0
LINE
  5
2E3
  8
0
 10
92.426304579660993
 20
35.152169491330113
 30
0.0
 11
92.072751189067802
 21
34.798616100736908
 31
0.0
  0
LINE
  5
2E4
  8
0
 10
92.072751189067802
 20
25.505722881923379
 30
0.0
 11
92.426304579660993
 21
25.15216949133011
 31
0.0
  0
LINE
  5
2E5
  8
0
 10
98.672751189067753
 20
35.152169491330113
 30
0.0
 11
92.426304579660993
 21
35.152169491330113
 31
0.0
  0
LINE
  5
2E6
  8
0
 10
92.426304579660993
 20
25.15216949133011
 30
0.0
 11
98.672751189067753
 21
25.15216949133011
 31
0.0
  0
LINE
  5
2E7
  8
0
 10
104.1782788709524
 20
39.152169491330113
 30
0.0
 11
98.672751189067753
 21
35.152169491330113
 31
0.0
  0
LINE
  5
2E8
  8
0
 10
98.672751189067753
 20
25.15216949133011
 30
0.0
 11
104.1782788709524
 21
21.15216949133011
 31
0.0
  0
LINE
  5
2E9
  8
0
 10
104.5727511890678
 20
39.152169491330113
 30
0.0
 11
104.1782788709524
 21
39.152169491330113
 31
0.0
  0
LINE
  5
2EA
  8
0
 10
104.1782788709524
 20
21.15216949133011
 30
0.0
 11
104.5727511890678
 21
21.15216949133011
 31
0.0
  0
ARC
  5
2EB
  8
0
 10
104.5727511890678
 20
22.15216949133012
 30
0.0
 40
0.9999999999999982
 50
270.0
 51
0.0
  0
ARC
  5
2EC
  8
0
 10
104.5727511890678
 20
38.15216949133012
 30
0.0
 40
1.0000000000000011
 50
0.0
 51
89.999999999999986
  0
LINE
  5
2ED
  8
0
 10
105.5727511890678
 20
22.820746979387341
 30
0.0
 11
105.5727511890678
 21
37.483592003272889
 31
0.0
  0
ARC
  5
2EE
  8
2
 10
115.0727511890678
 20
30.15216949133011
 30
0.0
 40
12.000000000000011
 50
142.34153799379141
 51
217.65846200620851
  0
LINE
  5
2EF
  8
1
 10
110.5727511890678
 20
70.298640775869757
 30
0.0
 11
62.07275118906778
 21
70.298640775869757
 31
0.0
  0
LINE
  5
2F0
  8
3
 10
84.072751189067844
 20
66.912140775869801
 30
0.0
 11
85.135364359511357
 21
66.298640775869757
 31
0.0
  0
LINE
  5
2F1
  8
3
 10
71.072751189067844
 20
66.912140775869801
 30
0.0
 11
76.572751189067901
 21
66.912140775869773
 31
0.0
  0
LINE
  5
2F2
  8
3
 10
84.072751189067844
 20
73.685140775869826
 30
0.0
 11
85.135364359511357
 21
74.298640775869757
 31
0.0
  0
LINE
  5
2F3
  8
3
 10
71.072751189067844
 20
73.685140775869826
 30
0.0
 11
76.572751189067901
 21
73.685140775869826
 31
0.0
  0
LINE
  5
2F4
  8
0
 10
91.626169201682615
 20
70.298640775869757
 30
0.0
 11
86.072751189067844
 21
70.298640775869757
 31
0.0
  0
LINE
  5
2F5
  8
0
 10
92.072751189067844
 20
65.298640775869728
 30
0.0
 11
86.072751189067844
 21
65.298640775869757
 31
0.0
  0
POLYLINE
  5
2F6
  8
0
 66
     1
 10
0.0
 20
0.0
 30
0.0
  0
VERTEX
  5
816
  8
0
 10
92.072751189067844
 20
67.798640775869757
 30
0.0
  0
VERTEX
  5
817
  8
0
 10
92.07239255448502
 20
67.730383254063753
 30
0.0
  0
VERTEX
  5
818
  8
0
 10
92.069543503034026
 20
67.594454060578613
 30
0.0
  0
VERTEX
  5
819
  8
0
 10
92.063891739458768
 20
67.459134916522174
 30
0.0
  0
VERTEX
  5
81A
  8
0
 10
92.060027608352797
 20
67.391641496651658
 30
0.0
  0
VERTEX
  5
81B
  8
0
 10
92.055477036514944
 20
67.324226172517413
 30
0.0
  0
VERTEX
  5
81C
  8
0
 10
92.044330613377952
 20
67.189533643593535
 30
0.0
  0
VERTEX
  5
81D
  8
0
 10
92.030475500483945
 20
67.054867570992286
 30
0.0
  0
VERTEX
  5
81E
  8
0
 10
92.013926837082863
 20
66.92004164510999
 30
0.0
  0
VERTEX
  5
81F
  8
0
 10
91.994692106566959
 20
66.784872078168206
 30
0.0
  0
VERTEX
  5
820
  8
0
 10
91.972771313661823
 20
66.649176716242124
 30
0.0
  0
VERTEX
  5
821
  8
0
 10
91.960801631516475
 20
66.581075174163033
 30
0.0
  0
VERTEX
  5
822
  8
0
 10
91.948157106693998
 20
66.51277418110962
 30
0.0
  0
VERTEX
  5
823
  8
0
 10
91.920834847360155
 20
66.375483033028871
 30
0.0
  0
VERTEX
  5
824
  8
0
 10
91.890782629694399
 20
66.237120946036583
 30
0.0
  0
VERTEX
  5
825
  8
0
 10
91.857971249248877
 20
66.097503887688362
 30
0.0
  0
VERTEX
  5
826
  8
0
 10
91.822364122852434
 20
65.956445295359714
 30
0.0
  0
VERTEX
  5
827
  8
0
 10
91.783917158679401
 20
65.81375524128444
 30
0.0
  0
VERTEX
  5
828
  8
0
 10
91.763612862218906
 20
65.741737933838948
 30
0.0
  0
VERTEX
  5
829
  8
0
 10
91.742578575730008
 20
65.669239578440525
 30
0.0
  0
VERTEX
  5
82A
  8
0
 10
91.698288671185864
 20
65.522699059198516
 30
0.0
  0
VERTEX
  5
82B
  8
0
 10
91.650979533442424
 20
65.373928418317263
 30
0.0
  0
VERTEX
  5
82C
  8
0
 10
91.626169201682615
 20
65.298640775869757
 30
0.0
  0
SEQEND
  5
82D
  8
0
  0
POLYLINE
  5
2F7
  8
0
 66
     1
 10
0.0
 20
0.0
 30
0.0
  0
VERTEX
  5
82E
  8
0
 10
91.626169201682615
 20
70.298640775869757
 30
0.0
  0
VERTEX
  5
82F
  8
0
 10
91.650979533442424
 20
70.223353133422307
 30
0.0
  0
VERTEX
  5
830
  8
0
 10
91.698288671185864
 20
70.074582492541111
 30
0.0
  0
VERTEX
  5
831
  8
0
 10
91.742578575730008
 20
69.928041973299031
 30
0.0
  0
VERTEX
  5
832
  8
0
 10
91.763612862218906
 20
69.855543617900565
 30
0.0
  0
VERTEX
  5
833
  8
0
 10
91.783917158679401
 20
69.78352631045513
 30
0.0
  0
VERTEX
  5
834
  8
0
 10
91.822364122852434
 20
69.640836256379856
 30
0.0
  0
VERTEX
  5
835
  8
0
 10
91.857971249248877
 20
69.499777664051265
 30
0.0
  0
VERTEX
  5
836
  8
0
 10
91.890782629694399
 20
69.360160605703044
 30
0.0
  0
VERTEX
  5
837
  8
0
 10
91.920834847360155
 20
69.221798518710699
 30
0.0
  0
VERTEX
  5
838
  8
0
 10
91.948157106693998
 20
69.084507370630007
 30
0.0
  0
VERTEX
  5
839
  8
0
 10
91.960801631516475
 20
69.016206377576538
 30
0.0
  0
VERTEX
  5
83A
  8
0
 10
91.972771313661823
 20
68.948104835497446
 30
0.0
  0
VERTEX
  5
83B
  8
0
 10
91.994692106566959
 20
68.812409473571364
 30
0.0
  0
VERTEX
  5
83C
  8
0
 10
92.013926837082863
 20
68.67723990662958
 30
0.0
  0
VERTEX
  5
83D
  8
0
 10
92.030475500483945
 20
68.542413980747284
 30
0.0
  0
VERTEX
  5
83E
  8
0
 10
92.044330613377952
 20
68.407747908145978
 30
0.0
  0
VERTEX
  5
83F
  8
0
 10
92.055477036514944
 20
68.2730553792222
 30
0.0
  0
VERTEX
  5
840
  8
0
 10
92.060027608352797
 20
68.205640055087855
 30
0.0
  0
VERTEX
  5
841
  8
0
 10
92.063891739458768
 20
68.138146635217339
 30
0.0
  0
VERTEX
  5
842
  8
0
 10
92.069543503034026
 20
68.002827491161014
 30
0.0
  0
VERTEX
  5
843
  8
0
 10
92.07239255448502
 20
67.866898297675803
 30
0.0
  0
VERTEX
  5
844
  8
0
 10
92.072751189067844
 20
67.798640775869757
 30
0.0
  0
SEQEND
  5
845
  8
0
  0
LINE
  5
2F8
  8
0
 10
92.072751189067844
 20
75.298640775869728
 30
0.0
 11
86.072751189067844
 21
75.298640775869757
 31
0.0
  0
LINE
  5
2F9
  8
0
 10
86.072751189067844
 20
75.298640775869757
 30
0.0
 11
86.072751189067844
 21
65.298640775869757
 31
0.0
  0
POLYLINE
  5
2FA
  8
0
 66
     1
 10
0.0
 20
0.0
 30
0.0
  0
VERTEX
  5
846
  8
0
 10
92.072751189067844
 20
72.798640775869757
 30
0.0
  0
VERTEX
  5
847
  8
0
 10
92.07239255448502
 20
72.866898297675803
 30
0.0
  0
VERTEX
  5
848
  8
0
 10
92.069543503034026
 20
73.002827491161014
 30
0.0
  0
VERTEX
  5
849
  8
0
 10
92.063891739458768
 20
73.138146635217339
 30
0.0
  0
VERTEX
  5
84A
  8
0
 10
92.060027608352797
 20
73.205640055087855
 30
0.0
  0
VERTEX
  5
84B
  8
0
 10
92.055477036514944
 20
73.2730553792222
 30
0.0
  0
VERTEX
  5
84C
  8
0
 10
92.044330613377952
 20
73.407747908145978
 30
0.0
  0
VERTEX
  5
84D
  8
0
 10
92.030475500483945
 20
73.542413980747284
 30
0.0
  0
VERTEX
  5
84E
  8
0
 10
92.013926837082863
 20
73.67723990662958
 30
0.0
  0
VERTEX
  5
84F
  8
0
 10
91.994692106566959
 20
73.812409473571364
 30
0.0
  0
VERTEX
  5
850
  8
0
 10
91.972771313661823
 20
73.948104835497446
 30
0.0
  0
VERTEX
  5
851
  8
0
 10
91.960801631516475
 20
74.016206377576538
 30
0.0
  0
VERTEX
  5
852
  8
0
 10
91.948157106693998
 20
74.084507370630007
 30
0.0
  0
VERTEX
  5
853
  8
0
 10
91.920834847360155
 20
74.221798518710699
 30
0.0
  0
VERTEX
  5
854
  8
0
 10
91.890782629694399
 20
74.360160605703044
 30
0.0
  0
VERTEX
  5
855
  8
0
 10
91.857971249248877
 20
74.499777664051265
 30
0.0
  0
VERTEX
  5
856
  8
0
 10
91.822364122852434
 20
74.640836256379856
 30
0.0
  0
VERTEX
  5
857
  8
0
 10
91.783917158679401
 20
74.78352631045513
 30
0.0
  0
VERTEX
  5
858
  8
0
 10
91.763612862218906
 20
74.855543617900565
 30
0.0
  0
VERTEX
  5
859
  8
0
 10
91.742578575730008
 20
74.928041973299031
 30
0.0
  0
VERTEX
  5
85A
  8
0
 10
91.698288671185864
 20
75.074582492541111
 30
0.0
  0
VERTEX
  5
85B
  8
0
 10
91.650979533442424
 20
75.223353133422307
 30
0.0
  0
VERTEX
  5
85C
  8
0
 10
91.626169201682615
 20
75.298640775869757
 30
0.0
  0
SEQEND
  5
85D
  8
0
  0
POLYLINE
  5
2FB
  8
0
 66
     1
 10
0.0
 20
0.0
 30
0.0
  0
VERTEX
  5
85E
  8
0
 10
91.626169201682615
 20
70.298640775869757
 30
0.0
  0
VERTEX
  5
85F
  8
0
 10
91.650979533442424
 20
70.373928418317263
 30
0.0
  0
VERTEX
  5
860
  8
0
 10
91.698288671185864
 20
70.522699059198516
 30
0.0
  0
VERTEX
  5
861
  8
0
 10
91.742578575730008
 20
70.669239578440525
 30
0.0
  0
VERTEX
  5
862
  8
0
 10
91.763612862218906
 20
70.741737933838948
 30
0.0
  0
VERTEX
  5
863
  8
0
 10
91.783917158679401
 20
70.81375524128444
 30
0.0
  0
VERTEX
  5
864
  8
0
 10
91.822364122852434
 20
70.956445295359714
 30
0.0
  0
VERTEX
  5
865
  8
0
 10
91.857971249248877
 20
71.097503887688362
 30
0.0
  0
VERTEX
  5
866
  8
0
 10
91.890782629694399
 20
71.237120946036583
 30
0.0
  0
VERTEX
  5
867
  8
0
 10
91.920834847360155
 20
71.375483033028871
 30
0.0
  0
VERTEX
  5
868
  8
0
 10
91.948157106693998
 20
71.512774181109563
 30
0.0
  0
VERTEX
  5
869
  8
0
 10
91.960801631516475
 20
71.581075174163033
 30
0.0
  0
VERTEX
  5
86A
  8
0
 10
91.972771313661823
 20
71.649176716242124
 30
0.0
  0
VERTEX
  5
86B
  8
0
 10
91.994692106566959
 20
71.784872078168206
 30
0.0
  0
VERTEX
  5
86C
  8
0
 10
92.013926837082863
 20
71.92004164510999
 30
0.0
  0
VERTEX
  5
86D
  8
0
 10
92.030475500483945
 20
72.054867570992286
 30
0.0
  0
VERTEX
  5
86E
  8
0
 10
92.044330613377952
 20
72.189533643593535
 30
0.0
  0
VERTEX
  5
86F
  8
0
 10
92.055477036514944
 20
72.324226172517371
 30
0.0
  0
VERTEX
  5
870
  8
0
 10
92.060027608352797
 20
72.391641496651658
 30
0.0
  0
VERTEX
  5
871
  8
0
 10
92.063891739458768
 20
72.459134916522174
 30
0.0
  0
VERTEX
  5
872
  8
0
 10
92.069543503034026
 20
72.594454060578613
 30
0.0
  0
VERTEX
  5
873
  8
0
 10
92.07239255448502
 20
72.730383254063753
 30
0.0
  0
VERTEX
  5
874
  8
0
 10
92.072751189067844
 20
72.798640775869757
 30
0.0
  0
SEQEND
  5
875
  8
0
  0
LINE
  5
2FC
  8
0
 10
92.072751189067844
 20
65.298640775869757
 30
0.0
 11
92.072751189067844
 21
75.298640775869757
 31
0.0
  0
LINE
  5
2FD
  8
0
 10
71.072751189067844
 20
66.912140775869801
 30
0.0
 11
71.072751189067844
 21
73.685140775869826
 31
0.0
  0
LINE
  5
2FE
  8
0
 10
71.686251189067832
 20
66.298640775869757
 30
0.0
 11
71.686251189067832
 21
74.298640775869757
 31
0.0
  0
LINE
  5
301
  8
0
 10
92.42630457966294
 20
65.298640775869757
 30
0.0
 11
92.426304579659245
 21
75.298640775869757
 31
0.0
  0
LINE
  5
302
  8
0
 10
98.672751189069686
 20
65.298640775869757
 30
0.0
 11
98.672751189066034
 21
75.298640775869757
 31
0.0
  0
LINE
  5
303
  8
0
 10
104.17827887095579
 20
61.298640775869757
 30
0.0
 11
104.1782788709493
 21
79.298640775869757
 31
0.0
  0
LINE
  5
304
  8
0
 10
104.5727511890711
 20
61.298640775869757
 30
0.0
 11
104.5727511890645
 21
79.298640775869757
 31
0.0
  0
LINE
  5
305
  8
0
 10
105.5727511890708
 20
62.298640775869757
 30
0.0
 11
105.5727511890649
 21
78.298640775869757
 31
0.0
  0
LINE
  5
306
  8
0
 10
71.686251189067832
 20
66.298640775869757
 30
0.0
 11
71.072751189067844
 21
66.912140775869801
 31
0.0
  0
LINE
  5
307
  8
0
 10
71.072751189067844
 20
73.685140775869826
 30
0.0
 11
71.686251189067832
 21
74.298640775869757
 31
0.0
  0
LINE
  5
308
  8
0
 10
86.072751189067844
 20
66.298640775869757
 30
0.0
 11
80.572751189067674
 21
66.298640775869714
 31
0.0
  0
LINE
  5
309
  8
0
 10
71.686251189067832
 20
74.298640775869757
 30
0.0
 11
76.572751189067915
 21
74.298640775869757
 31
0.0
  0
LINE
  5
30E
  8
0
 10
92.426304579661135
 20
65.298640775869757
 30
0.0
 11
92.072751189067844
 21
65.65219416646309
 31
0.0
  0
LINE
  5
30F
  8
0
 10
92.072751189067844
 20
74.945087385276537
 30
0.0
 11
92.426304579661135
 21
75.298640775869757
 31
0.0
  0
LINE
  5
310
  8
0
 10
98.672751189067867
 20
65.298640775869757
 30
0.0
 11
92.426304579661135
 21
65.298640775869757
 31
0.0
  0
LINE
  5
311
  8
0
 10
92.426304579661135
 20
75.298640775869757
 30
0.0
 11
98.672751189067867
 21
75.298640775869757
 31
0.0
  0
LINE
  5
312
  8
0
 10
104.1782788709525
 20
61.298640775869757
 30
0.0
 11
98.672751189067867
 21
65.298640775869757
 31
0.0
  0
LINE
  5
313
  8
0
 10
98.672751189067867
 20
75.298640775869757
 30
0.0
 11
104.1782788709525
 21
79.298640775869757
 31
0.0
  0
LINE
  5
314
  8
0
 10
104.5727511890678
 20
61.298640775869757
 30
0.0
 11
104.1782788709525
 21
61.298640775869757
 31
0.0
  0
LINE
  5
315
  8
0
 10
104.1782788709525
 20
79.298640775869757
 30
0.0
 11
104.5727511890678
 21
79.298640775869757
 31
0.0
  0
ARC
  5
316
  8
0
 10
104.5727511890678
 20
78.298640775869814
 30
0.0
 40
0.9999999999999982
 50
0.0
 51
90.000000000000028
  0
ARC
  5
317
  8
0
 10
104.5727511890678
 20
62.298640775869814
 30
0.0
 40
1.0000000000000011
 50
270.0
 51
0.0
  0
ARC
  5
318
  8
2
 10
115.0727511890678
 20
70.298640775869814
 30
0.0
 40
12.000000000000011
 50
142.34153799379141
 51
217.65846200620871
  0
ARC
  5
495
  8
0
 10
71.072751189067787
 20
30.15216949133011
 30
0.0
 40
4.0
 50
156.09778102925119
 51
203.9022189707492
  0
LINE
  5
4A6
  8
0
 10
67.415798132726778
 20
31.772877467406669
 30
0.0
 11
67.415798132726778
 21
28.53146151525354
 31
0.0
  0
LINE
  5
4A7
  8
0
 10
68.072751189067787
 20
28.15216949133012
 30
0.0
 11
67.415798132726778
 21
28.531461515253561
 31
0.0
  0
LINE
  5
4A8
  8
0
 10
68.072751189067773
 20
68.298640775869757
 30
0.0
 11
67.415798132726763
 21
68.677932799793183
 31
0.0
  0
LINE
  5
4A9
  8
0
 10
67.415798132726763
 20
71.91934875194633
 30
0.0
 11
67.415798132726763
 21
68.677932799793183
 31
0.0
  0
ARC
  5
4AA
  8
0
 10
71.072751189067773
 20
70.298640775869757
 30
0.0
 40
4.0
 50
156.09778102925119
 51
203.9022189707492
  0
LINE
  5
4AB
  8
0
 10
68.072751189067773
 20
68.298640775869757
 30
0.0
 11
71.072751189067773
 21
68.298640775869757
 31
0.0
  0
LINE
  5
4AC
  8
0
 10
71.072751189067773
 20
72.298640775869757
 30
0.0
 11
68.072751189067773
 21
72.298640775869757
 31
0.0
  0
LINE
  5
4AD
  8
0
 10
68.072751189067773
 20
72.298640775869757
 30
0.0
 11
67.415798132726763
 21
71.91934875194633
 31
0.0
  0
LINE
  5
4AE
  8
0
 10
68.072751189067773
 20
72.298640775869757
 30
0.0
 11
68.072751189067773
 21
68.298640775869757
 31
0.0
  0
CIRCLE
  5
4B0
  8
0
 10
28.072751189067791
 20
30.15216949133011
 30
0.0
 40
1.620707976076559
  0
LINE
  5
5CC
  8
0
 10
76.717088756365953
 20
76.798640775869529
 30
0.0
 11
76.572751189067901
 21
76.548640775868392
 31
0.0
  0
ARC
  5
5CD
  8
0
 10
86.104240891614666
 20
73.548640775869558
 30
0.0
 40
9.3871521352487513
 50
159.7438419995834
 51
200.25615800041649
  0
ARC
  5
5CE
  8
0
 10
71.041261486520909
 20
73.548640775869558
 30
0.0
 40
9.3871521352487513
 50
339.74384199958342
 51
20.256158000416541
  0
LINE
  5
5CF
  8
0
 10
80.428413621769607
 20
76.798640775869529
 30
0.0
 11
80.572751189067674
 21
76.548640775868392
 31
0.0
  0
LINE
  5
5D0
  8
0
 10
76.717088756365953
 20
76.798640775869529
 30
0.0
 11
80.428413621769607
 21
76.798640775869529
 31
0.0
  0
LINE
  5
5D1
  8
0
 10
77.297645339967119
 20
70.298640775869757
 30
0.0
 11
79.847857038168854
 21
70.298640775869757
 31
0.0
  0
LINE
  5
5D2
  8
0
 10
76.717088756365953
 20
63.798640775869977
 30
0.0
 11
80.428413621769607
 21
63.798640775869977
 31
0.0
  0
LINE
  5
5D3
  8
0
 10
80.428413621769607
 20
63.798640775869977
 30
0.0
 11
80.572751189067674
 21
64.048640775871121
 31
0.0
  0
ARC
  5
5D4
  8
0
 10
71.041261486520909
 20
67.048640775870012
 30
0.0
 40
9.3871521352487513
 50
339.74384199958342
 51
20.256158000416541
  0
ARC
  5
5D5
  8
0
 10
86.104240891614666
 20
67.048640775870012
 30
0.0
 40
9.3871521352487513
 50
159.7438419995834
 51
200.25615800041649
  0
LINE
  5
5D6
  8
0
 10
76.717088756365953
 20
63.798640775869977
 30
0.0
 11
76.572751189067901
 21
64.048640775871121
 31
0.0
  0
LINE
  5
5D7
  8
0
 10
76.572751189067901
 20
64.048640775871121
 30
0.0
 11
76.572751189067901
 21
76.548640775868392
 31
0.0
  0
LINE
  5
5D8
  8
0
 10
80.572751189067674
 20
76.548640775868392
 30
0.0
 11
80.572751189067674
 21
64.048640775871121
 31
0.0
  0
ARC
  5
5D9
  8
0
 10
80.039658329315984
 20
24.523004366731399
 30
0.0
 40
3.3225695729499738
 50
145.61575253196091
 51
205.61575253217461
  0
ARC
  5
5DA
  8
0
 10
89.136532172758365
 20
30.152169491330898
 30
0.0
 40
12.41944341639239
 50
162.4120462260027
 51
197.5879537740052
  0
LINE
  5
5DB
  8
0
 10
77.297645339966749
 20
22.646615991865058
 30
0.0
 11
76.57275118906793
 21
23.902169491331321
 31
0.0
  0
LINE
  5
5DC
  8
0
 10
79.847857038168883
 20
22.646615991865058
 30
0.0
 11
80.572751189067716
 21
23.902169491331321
 31
0.0
  0
ARC
  5
5DD
  8
0
 10
77.105844048819648
 20
24.523004366731399
 30
0.0
 40
3.3225695729499738
 50
334.38424746782539
 51
34.384247468039042
  0
ARC
  5
5DE
  8
0
 10
68.008970205377267
 20
30.152169491330898
 30
0.0
 40
12.41944341639239
 50
342.41204622599469
 51
17.58795377399727
  0
LINE
  5
5DF
  8
0
 10
77.297645339966749
 20
22.646615991865058
 30
0.0
 11
79.847857038168883
 21
22.646615991865058
 31
0.0
  0
LINE
  5
5E0
  8
0
 10
77.297645339966749
 20
26.399392741599328
 30
0.0
 11
79.847857038167348
 21
26.399392741597509
 31
0.0
  0
LINE
  5
5E1
  8
0
 10
77.297645339966749
 20
33.904946241060593
 30
0.0
 11
79.847857038167348
 21
33.904946241062412
 31
0.0
  0
LINE
  5
5E2
  8
0
 10
77.297645339966749
 20
37.657722990794852
 30
0.0
 11
79.847857038168883
 21
37.657722990794852
 31
0.0
  0
ARC
  5
5E3
  8
0
 10
77.105844048819648
 20
35.781334615928543
 30
0.0
 40
3.3225695729499738
 50
325.61575253196099
 51
25.615752532174611
  0
LINE
  5
5E4
  8
0
 10
79.847857038168883
 20
37.657722990794852
 30
0.0
 11
80.572751189067716
 21
36.402169491328593
 31
0.0
  0
LINE
  5
5E5
  8
0
 10
77.297645339966749
 20
37.657722990794852
 30
0.0
 11
76.57275118906793
 21
36.402169491328593
 31
0.0
  0
ARC
  5
5E6
  8
0
 10
80.039658329315984
 20
35.781334615928543
 30
0.0
 40
3.3225695729499738
 50
154.38424746782539
 51
214.38424746803909
  0
LINE
  5
5E7
  8
0
 10
76.57275118906793
 20
23.902169491330181
 30
0.0
 11
76.57275118906793
 21
36.402169491328372
 31
0.0
  0
LINE
  5
5E8
  8
0
 10
80.572751189067716
 20
36.402169491328593
 30
0.0
 11
80.572751189067716
 21
23.902169491331549
 31
0.0
  0
LINE
  5
5E9
  8
0
 10
21.572751189068018
 20
33.904946241062511
 30
0.0
 11
21.572751189068018
 21
26.399392741597719
 31
0.0
  0
LINE
  5
5EA
  8
0
 10
21.572751189068018
 20
26.399392741597719
 30
0.0
 11
28.072751189067791
 21
22.646615991865328
 31
0.0
  0
LINE
  5
5EB
  8
0
 10
28.072751189067791
 20
22.646615991865328
 30
0.0
 11
34.57275118906756
 21
26.399392741597719
 31
0.0
  0
LINE
  5
5EC
  8
0
 10
34.57275118906756
 20
26.399392741597719
 30
0.0
 11
34.57275118906756
 21
33.904946241062511
 31
0.0
  0
LINE
  5
5ED
  8
0
 10
34.57275118906756
 20
33.904946241062511
 30
0.0
 11
28.072751189067791
 21
37.657722990794902
 31
0.0
  0
LINE
  5
5EE
  8
0
 10
28.072751189067791
 20
37.657722990794902
 30
0.0
 11
21.572751189068018
 21
33.904946241062511
 31
0.0
  0
CIRCLE
  5
5F7
  8
0
 10
28.072751189067791
 20
30.15216949133011
 30
0.0
 40
6.25
  0
LINE
  5
5F8
  8
0
 10
80.572751189067674
 20
74.298640775869757
 30
0.0
 11
86.072751189067844
 21
74.298640775869757
 31
0.0
  0
LINE
  5
5F9
  8
3
 10
80.572751189067674
 20
73.685140775869826
 30
0.0
 11
84.072751189067844
 21
73.685140775869826
 31
0.0
  0
LINE
  5
5FA
  8
0
 10
76.572751189067915
 20
66.298640775869757
 30
0.0
 11
71.686251189067832
 21
66.298640775869757
 31
0.0
  0
LINE
  5
5FB
  8
3
 10
80.572751189067674
 20
66.912140775869801
 30
0.0
 11
84.072751189067844
 21
66.912140775869801
 31
0.0
  0
LINE
  5
5FC
  8
3
 10
80.572751189067674
 20
33.538669491330133
 30
0.0
 11
84.072751189067787
 21
33.538669491330133
 31
0.0
  0
LINE
  5
5FD
  8
0
 10
76.572751189067901
 20
34.152169491330113
 30
0.0
 11
71.686251189067718
 21
34.152169491330113
 31
0.0
  0
LINE
  5
5FE
  8
0
 10
80.572751189067674
 20
26.15216949133011
 30
0.0
 11
86.072751189067787
 21
26.15216949133011
 31
0.0
  0
LINE
  5
5FF
  8
3
 10
80.572751189067674
 20
26.765669491330101
 30
0.0
 11
84.072751189067787
 21
26.765669491330101
 31
0.0
  0
TEXT
  5
730
  8
0
 62
     3
 10
0.0
 20
0.0
 30
0.0
 40
5.0
  1
NDXN8W-SUS
  7
STANDARD1
  0
ENDSEC
  0
EOF
