  0
SECTION
  2
HEADER
  9
$ACADVER
  1
AC1009
  9
$INSBASE
 10
0.0
 20
0.0
 30
0.0
  9
$EXTMIN
 10
0.0
 20
-1.4802182810368341
 30
0.0
  9
$EXTMAX
 10
165.71166392370441
 20
140.4460848362983
 30
0.0
  9
$LIMMIN
 10
0.0
 20
0.0
  9
$LIMMAX
 10
385.0
 20
270.0
  9
$ORTHOMODE
 70
     0
  9
$REGENMODE
 70
     1
  9
$FILLMODE
 70
     1
  9
$QTEXTMODE
 70
     0
  9
$MIRRTEXT
 70
     0
  9
$DRAGMODE
 70
     2
  9
$LTSCALE
 40
5.0
  9
$OSMODE
 70
  3071
  9
$ATTMODE
 70
     1
  9
$TEXTSIZE
 40
4.000000000000048
  9
$TRACEWID
 40
0.05
  9
$TEXTSTYLE
  7
STANDARD
  9
$CLAYER
  8
0
  9
$CELTYPE
  6
BYLAYER
  9
$CECOLOR
 62
   256
  9
$DIMSCALE
 40
1.0
  9
$DIMASZ
 40
3.0
  9
$DIMEXO
 40
2.0
  9
$DIMDLI
 40
0.38
  9
$DIMRND
 40
0.0
  9
$DIMDLE
 40
0.0
  9
$DIMEXE
 40
2.0
  9
$DIMTP
 40
0.0
  9
$DIMTM
 40
0.0
  9
$DIMTXT
 40
3.0
  9
$DIMCEN
 40
0.0
  9
$DIMTSZ
 40
0.0
  9
$DIMTOL
 70
     0
  9
$DIMLIM
 70
     0
  9
$DIMTIH
 70
     0
  9
$DIMTOH
 70
     0
  9
$DIMSE1
 70
     0
  9
$DIMSE2
 70
     0
  9
$DIMTAD
 70
     1
  9
$DIMZIN
 70
     0
  9
$DIMBLK
  1

  9
$DIMASO
 70
     0
  9
$DIMSHO
 70
     0
  9
$DIMPOST
  1

  9
$DIMAPOST
  1

  9
$DIMALT
 70
     0
  9
$DIMALTD
 70
     2
  9
$DIMALTF
 40
25.399999999999999
  9
$DIMLFAC
 40
1.0
  9
$DIMTOFL
 70
     1
  9
$DIMTVP
 40
1.6000000000000001
  9
$DIMTIX
 70
     1
  9
$DIMSOXD
 70
     0
  9
$DIMSAH
 70
     0
  9
$DIMBLK1
  1

  9
$DIMBLK2
  1

  9
$DIMSTYLE
  2
STANDARD
  9
$DIMCLRD
 70
     0
  9
$DIMCLRE
 70
     0
  9
$DIMCLRT
 70
     0
  9
$DIMTFAC
 40
1.0
  9
$DIMGAP
 40
1.0
  9
$LUNITS
 70
     2
  9
$LUPREC
 70
     4
  9
$SKETCHINC
 40
0.1
  9
$FILLETRAD
 40
0.0
  9
$AUNITS
 70
     0
  9
$AUPREC
 70
     4
  9
$MENU
  1
E:\r13\win\SUPPORT\ACAD
  9
$ELEVATION
 40
0.0
  9
$PELEVATION
 40
0.0
  9
$THICKNESS
 40
0.0
  9
$LIMCHECK
 70
     0
  9
$BLIPMODE
 70
     0
  9
$CHAMFERA
 40
0.0
  9
$CHAMFERB
 40
0.0
  9
$SKPOLY
 70
     0
  9
$TDCREATE
 40
2450280.598206134
  9
$TDUPDATE
 40
2456597.689399282
  9
$TDINDWG
 40
0.0710075116
  9
$TDUSRTIMER
 40
0.0710075116
  9
$USRTIMER
 70
     1
  9
$ANGBASE
 50
0.0
  9
$ANGDIR
 70
     0
  9
$PDMODE
 70
     0
  9
$PDSIZE
 40
0.0
  9
$PLINEWID
 40
0.0
  9
$COORDS
 70
     1
  9
$SPLFRAME
 70
     0
  9
$SPLINETYPE
 70
     6
  9
$SPLINESEGS
 70
     8
  9
$ATTDIA
 70
     0
  9
$ATTREQ
 70
     1
  9
$HANDLING
 70
     1
  9
$HANDSEED
  5
87D
  9
$SURFTAB1
 70
     6
  9
$SURFTAB2
 70
     6
  9
$SURFTYPE
 70
     6
  9
$SURFU
 70
     6
  9
$SURFV
 70
     6
  9
$UCSNAME
  2

  9
$UCSORG
 10
0.0
 20
0.0
 30
0.0
  9
$UCSXDIR
 10
1.0
 20
0.0
 30
0.0
  9
$UCSYDIR
 10
0.0
 20
1.0
 30
0.0
  9
$PUCSNAME
  2

  9
$PUCSORG
 10
0.0
 20
0.0
 30
0.0
  9
$PUCSXDIR
 10
1.0
 20
0.0
 30
0.0
  9
$PUCSYDIR
 10
0.0
 20
1.0
 30
0.0
  9
$USERI1
 70
     3
  9
$USERI2
 70
     1
  9
$USERI3
 70
     1
  9
$USERI4
 70
     0
  9
$USERI5
 70
     0
  9
$USERR1
 40
1.0
  9
$USERR2
 40
3.0
  9
$USERR3
 40
3.0
  9
$USERR4
 40
3.0
  9
$USERR5
 40
10.0
  9
$WORLDVIEW
 70
     1
  9
$SHADEDGE
 70
     3
  9
$SHADEDIF
 70
    70
  9
$TILEMODE
 70
     1
  9
$MAXACTVP
 70
    16
  9
$PLIMCHECK
 70
     0
  9
$PEXTMIN
 10
1.0000000000000000E+020
 20
1.0000000000000000E+020
 30
1.0000000000000000E+020
  9
$PEXTMAX
 10
-1.0000000000000000E+020
 20
-1.0000000000000000E+020
 30
-1.0000000000000000E+020
  9
$PLIMMIN
 10
0.0
 20
0.0
  9
$PLIMMAX
 10
12.0
 20
9.0
  9
$UNITMODE
 70
     0
  9
$VISRETAIN
 70
     0
  9
$PLINEGEN
 70
     0
  9
$PSLTSCALE
 70
     0
  0
ENDSEC
  0
SECTION
  2
TABLES
  0
TABLE
  2
VPORT
 70
     1
  0
VPORT
  2
*ACTIVE
 70
     0
 10
0.0
 20
0.0
 11
1.0
 21
1.0
 12
192.49412581440311
 22
134.84202934784381
 13
0.0
 23
0.0
 14
5.0
 24
5.0
 15
10.0
 25
10.0
 16
0.0
 26
0.0
 36
1.0
 17
0.0
 27
0.0
 37
0.0
 40
275.78743625673241
 41
2.304913294797688
 42
50.0
 43
0.0
 44
0.0
 50
0.0
 51
0.0
 71
     0
 72
   500
 73
     1
 74
     0
 75
     0
 76
     0
 77
     0
 78
     2
  0
ENDTAB
  0
TABLE
  2
LTYPE
 70
     4
  0
LTYPE
  2
CONTINUOUS
 70
     0
  3
Solid Line
 72
    65
 73
     0
 40
0.0
  0
LTYPE
  2
CENTER
 70
     0
  3
____ _ ____ _ ____ _ ____ _ ____ _ ____ _ ____
 72
    65
 73
     4
 40
2.0
 49
1.25
 49
-0.25
 49
0.25
 49
-0.25
  0
LTYPE
  2
HIDDEN
 70
     0
  3
_ _ _ _ _ _ _ _ _ _ _ _ _ _ _ _ _ _ _ _ _ _ _
 72
    65
 73
     2
 40
0.375
 49
0.25
 49
-0.125
  0
LTYPE
  2
PHANTOM2
 70
     0
  3
___ _ _ ___ _ _ ___ _ _ ___ _ _
 72
    65
 73
     6
 40
1.25
 49
0.625
 49
-0.125
 49
0.125
 49
-0.125
 49
0.125
 49
-0.125
  0
ENDTAB
  0
TABLE
  2
LAYER
 70
     4
  0
LAYER
  2
0
 70
     0
 62
     7
  6
CONTINUOUS
  0
LAYER
  2
1
 70
     0
 62
     1
  6
CENTER
  0
LAYER
  2
3
 70
     0
 62
     3
  6
CONTINUOUS
  0
LAYER
  2
2
 70
     0
 62
     2
  6
HIDDEN
  0
ENDTAB
  0
TABLE
  2
STYLE
 70
     2
  0
STYLE
  2
STANDARD
 70
     0
 40
0.0
 41
1.0
 50
0.0
 71
     0
 42
4.000000000000048
  3
SIMPLEX
  4
BIGFONT
  0
STYLE
  2
STANDARD1
 70
     0
 40
0.0
 41
1.0
 50
0.0
 71
     0
 42
3.0
  3
txt
  4

  0
ENDTAB
  0
TABLE
  2
VIEW
 70
     0
  0
ENDTAB
  0
TABLE
  2
UCS
 70
     0
  0
ENDTAB
  0
TABLE
  2
APPID
 70
     3
  0
APPID
  2
ACAD
 70
     0
  0
APPID
  2
ACAD_MLEADERVER
 70
     0
  0
APPID
  2
ACAD_NAV_VCDISPLAY
 70
     0
  0
ENDTAB
  0
TABLE
  2
DIMSTYLE
 70
     1
  0
DIMSTYLE
  2
STANDARD
 70
     0
  3

  4

  5

  6

  7

 40
1.0
 41
0.18
 42
0.0625
 43
0.38
 44
0.18
 45
0.0
 46
0.0
 47
0.0
 48
0.0
140
0.18
141
0.09
142
0.0
143
25.399999999999999
144
1.0
145
0.0
146
1.0
147
0.09
 71
     0
 72
     0
 73
     1
 74
     1
 75
     0
 76
     0
 77
     0
 78
     0
170
     0
171
     2
172
     0
173
     0
174
     0
175
     0
176
     0
177
     0
178
     0
  0
ENDTAB
  0
ENDSEC
  0
SECTION
  2
BLOCKS
  0
BLOCK
  8
0
  2
$MODEL_SPACE
 70
     0
 10
0.0
 20
0.0
 30
0.0
  3
$MODEL_SPACE
  1

  0
ENDBLK
  5
175
  8
0
  0
BLOCK
 67
     1
  8
0
  2
$PAPER_SPACE
 70
     0
 10
0.0
 20
0.0
 30
0.0
  3
$PAPER_SPACE
  1

  0
ENDBLK
  5
173
 67
     1
  8
0
  0
ENDSEC
  0
SECTION
  2
ENTITIES
  0
LINE
  5
2AA
  8
0
 10
91.211663923704535
 20
127.4460848362982
 30
0.0
 11
91.211663923704464
 21
135.44608483629821
 31
0.0
  0
LINE
  5
2AC
  8
0
 10
35.211663923706851
 20
97.07311623895373
 30
0.0
 11
40.211663923706851
 21
94.186364893006498
 31
0.0
  0
LINE
  5
2AD
  8
0
 10
30.211663927774111
 20
94.186364895358452
 30
0.0
 11
35.211663927774111
 21
97.073116241306593
 31
0.0
  0
LINE
  5
2AE
  8
0
 10
30.211663927774111
 20
88.412862208162423
 30
0.0
 11
30.211663927774111
 21
94.186364900057811
 31
0.0
  0
LINE
  5
2AF
  8
0
 10
35.211663923706851
 20
85.52611086456352
 30
0.0
 11
30.211663923706851
 21
88.412862210510767
 31
0.0
  0
LINE
  5
2B0
  8
0
 10
40.211663919632308
 20
88.412862208158785
 30
0.0
 11
35.211663919635953
 21
85.526110862210658
 31
0.0
  0
LINE
  5
2B1
  8
0
 10
40.211663919635953
 20
94.186364895358452
 30
0.0
 11
40.211663919635953
 21
88.412862203463078
 31
0.0
  0
CIRCLE
  5
2B4
  8
0
 10
151.71166392370449
 20
91.299613551758654
 30
0.0
 40
9.0
  0
LINE
  5
2B5
  8
1
 10
137.71166392370441
 20
91.299613551758654
 30
0.0
 11
165.71166392370441
 21
91.299613551758654
 31
0.0
  0
LINE
  5
2B6
  8
1
 10
151.71166392370449
 20
77.299613551758654
 30
0.0
 11
151.71166392370449
 21
105.2996135517586
 31
0.0
  0
LINE
  5
2B7
  8
0
 10
91.211663923704577
 20
87.299613551758654
 30
0.0
 11
91.211663923704407
 21
95.299613551758597
 31
0.0
  0
LINE
  5
2B8
  8
1
 10
35.211663923704457
 20
77.299613551758625
 30
0.0
 11
35.211663923704457
 21
105.2996135517586
 31
0.0
  0
LINE
  5
2B9
  8
1
 10
21.21166392370446
 20
91.299613551758625
 30
0.0
 11
49.211663923704457
 21
91.299613551758625
 31
0.0
  0
CIRCLE
  5
2BA
  8
3
 10
35.211663923704457
 20
91.299613551758625
 30
0.0
 40
3.3865000000000012
  0
CIRCLE
  5
2BB
  8
0
 10
35.211663923704457
 20
91.299613551758625
 30
0.0
 40
2.0
  0
CIRCLE
  5
2BC
  8
0
 10
35.211663923704457
 20
91.299613551758625
 30
0.0
 40
3.9999999999999929
  0
CIRCLE
  5
2BE
  8
0
 10
35.211663923704457
 20
91.299613551758625
 30
0.0
 40
9.0
  0
LINE
  5
2BF
  8
1
 10
117.71166392370441
 20
91.299613551758654
 30
0.0
 11
69.211663923704464
 21
91.299613551758625
 31
0.0
  0
LINE
  5
2C0
  8
3
 10
91.211663923704464
 20
94.686113551758638
 30
0.0
 11
92.274277094147919
 21
95.299613551758625
 31
0.0
  0
LINE
  5
2C1
  8
3
 10
78.211663923704464
 20
94.686113551758638
 30
0.0
 11
91.211663923704464
 21
94.686113551758638
 31
0.0
  0
LINE
  5
2C2
  8
3
 10
91.211663923704464
 20
87.913113551758613
 30
0.0
 11
92.274277094147919
 21
87.299613551758625
 31
0.0
  0
LINE
  5
2C3
  8
3
 10
78.211663923704464
 20
87.913113551758613
 30
0.0
 11
91.211663923704464
 21
87.913113551758613
 31
0.0
  0
LINE
  5
2D0
  8
0
 10
78.211663923704464
 20
94.686113551758638
 30
0.0
 11
78.211663923704464
 21
87.913113551758613
 31
0.0
  0
LINE
  5
2D1
  8
0
 10
78.825163923704395
 20
95.299613551758625
 30
0.0
 11
78.825163923704395
 21
87.299613551758625
 31
0.0
  0
LINE
  5
2D3
  8
0
 10
75.211663923704464
 20
93.299613551758625
 30
0.0
 11
75.211663923704464
 21
89.299613551758625
 31
0.0
  0
LINE
  5
2D5
  8
0
 10
105.8116639237044
 20
96.299613551758625
 30
0.0
 11
105.8116639237044
 21
86.299613551758625
 31
0.0
  0
LINE
  5
2D6
  8
0
 10
111.3171916055891
 20
100.2996135517586
 30
0.0
 11
111.3171916055891
 21
82.299613551758625
 31
0.0
  0
LINE
  5
2D7
  8
0
 10
111.71166392370441
 20
100.2996135517586
 30
0.0
 11
111.71166392370441
 21
82.299613551758625
 31
0.0
  0
LINE
  5
2D8
  8
0
 10
112.71166392370441
 20
99.299613551758625
 30
0.0
 11
112.71166392370441
 21
83.299613551758625
 31
0.0
  0
LINE
  5
2DB
  8
0
 10
78.825163923704395
 20
95.299613551758625
 30
0.0
 11
78.211663923704464
 21
94.686113551758638
 31
0.0
  0
LINE
  5
2DC
  8
0
 10
78.211663923704464
 20
87.913113551758613
 30
0.0
 11
78.825163923704395
 21
87.299613551758625
 31
0.0
  0
LINE
  5
2DD
  8
0
 10
93.211663923704464
 20
95.299613551758625
 30
0.0
 11
78.825163923704395
 21
95.299613551758625
 31
0.0
  0
LINE
  5
2DE
  8
0
 10
78.825163923704395
 20
87.299613551758625
 30
0.0
 11
93.211663923704464
 21
87.299613551758625
 31
0.0
  0
LINE
  5
2DF
  8
0
 10
75.211663923704464
 20
93.299613551758625
 30
0.0
 11
74.554710867363454
 21
92.920321527835185
 31
0.0
  0
LINE
  5
2E1
  8
0
 10
78.211663923704464
 20
93.299613551758625
 30
0.0
 11
75.211663923704464
 21
93.299613551758625
 31
0.0
  0
LINE
  5
2E2
  8
0
 10
75.211663923704464
 20
89.299613551758625
 30
0.0
 11
78.211663923704464
 21
89.299613551758625
 31
0.0
  0
LINE
  5
2E5
  8
0
 10
105.8116639237044
 20
96.299613551758625
 30
0.0
 11
99.565217314297684
 21
96.299613551758625
 31
0.0
  0
LINE
  5
2E6
  8
0
 10
99.565217314297684
 20
86.299613551758625
 30
0.0
 11
105.8116639237044
 21
86.299613551758625
 31
0.0
  0
LINE
  5
2E7
  8
0
 10
111.3171916055891
 20
100.2996135517586
 30
0.0
 11
105.8116639237044
 21
96.299613551758625
 31
0.0
  0
LINE
  5
2E8
  8
0
 10
105.8116639237044
 20
86.299613551758625
 30
0.0
 11
111.3171916055891
 21
82.299613551758625
 31
0.0
  0
LINE
  5
2E9
  8
0
 10
111.71166392370441
 20
100.2996135517586
 30
0.0
 11
111.3171916055891
 21
100.2996135517586
 31
0.0
  0
LINE
  5
2EA
  8
0
 10
111.3171916055891
 20
82.299613551758625
 30
0.0
 11
111.71166392370441
 21
82.299613551758625
 31
0.0
  0
ARC
  5
2EB
  8
0
 10
111.71166392370441
 20
83.299613551758625
 30
0.0
 40
0.9999999999999982
 50
270.0
 51
0.0
  0
ARC
  5
2EC
  8
0
 10
111.71166392370441
 20
99.299613551758625
 30
0.0
 40
1.0000000000000011
 50
0.0
 51
89.999999999999986
  0
LINE
  5
2ED
  8
0
 10
112.71166392370441
 20
83.968191039815835
 30
0.0
 11
112.71166392370441
 21
98.631036063701401
 31
0.0
  0
ARC
  5
2EE
  8
2
 10
122.21166392370441
 20
91.299613551758625
 30
0.0
 40
12.000000000000011
 50
142.34153799379141
 51
217.65846200620851
  0
LINE
  5
2EF
  8
1
 10
117.71166392370451
 20
131.44608483629821
 30
0.0
 11
69.211663923704464
 21
131.44608483629821
 31
0.0
  0
LINE
  5
2F0
  8
3
 10
91.211663923704535
 20
128.05958483629831
 30
0.0
 11
92.274277094148019
 21
127.4460848362982
 31
0.0
  0
LINE
  5
2F1
  8
3
 10
78.211663923704521
 20
128.05958483629831
 30
0.0
 11
91.211663923704535
 21
128.05958483629831
 31
0.0
  0
LINE
  5
2F2
  8
3
 10
91.211663923704535
 20
134.83258483629831
 30
0.0
 11
92.274277094148019
 21
135.44608483629821
 31
0.0
  0
LINE
  5
2F3
  8
3
 10
78.211663923704521
 20
134.83258483629831
 30
0.0
 11
91.211663923704535
 21
134.83258483629831
 31
0.0
  0
LINE
  5
2F4
  8
0
 10
98.765081936319291
 20
131.44608483629821
 30
0.0
 11
93.211663923704521
 21
131.44608483629821
 31
0.0
  0
LINE
  5
2F5
  8
0
 10
99.211663923704521
 20
126.4460848362982
 30
0.0
 11
93.211663923704521
 21
126.4460848362982
 31
0.0
  0
POLYLINE
  5
2F6
  8
0
 66
     1
 10
0.0
 20
0.0
 30
0.0
  0
VERTEX
  5
77B
  8
0
 10
99.211663923704521
 20
128.9460848362983
 30
0.0
  0
VERTEX
  5
77C
  8
0
 10
99.211305289121697
 20
128.87782731449221
 30
0.0
  0
VERTEX
  5
77D
  8
0
 10
99.208456237670717
 20
128.7418981210071
 30
0.0
  0
VERTEX
  5
77E
  8
0
 10
99.202804474095444
 20
128.60657897695069
 30
0.0
  0
VERTEX
  5
77F
  8
0
 10
99.198940342989474
 20
128.5390855570802
 30
0.0
  0
VERTEX
  5
780
  8
0
 10
99.194389771151634
 20
128.47167023294591
 30
0.0
  0
VERTEX
  5
781
  8
0
 10
99.183243348014628
 20
128.33697770402199
 30
0.0
  0
VERTEX
  5
782
  8
0
 10
99.169388235120621
 20
128.2023116314208
 30
0.0
  0
VERTEX
  5
783
  8
0
 10
99.152839571719539
 20
128.0674857055385
 30
0.0
  0
VERTEX
  5
784
  8
0
 10
99.133604841203635
 20
127.9323161385967
 30
0.0
  0
VERTEX
  5
785
  8
0
 10
99.111684048298514
 20
127.79662077667059
 30
0.0
  0
VERTEX
  5
786
  8
0
 10
99.099714366153151
 20
127.7285192345915
 30
0.0
  0
VERTEX
  5
787
  8
0
 10
99.087069841330674
 20
127.6602182415381
 30
0.0
  0
VERTEX
  5
788
  8
0
 10
99.059747581996831
 20
127.5229270934574
 30
0.0
  0
VERTEX
  5
789
  8
0
 10
99.029695364331076
 20
127.3845650064651
 30
0.0
  0
VERTEX
  5
78A
  8
0
 10
98.996883983885553
 20
127.2449479481168
 30
0.0
  0
VERTEX
  5
78B
  8
0
 10
98.961276857489111
 20
127.1038893557882
 30
0.0
  0
VERTEX
  5
78C
  8
0
 10
98.922829893316077
 20
126.9611993017129
 30
0.0
  0
VERTEX
  5
78D
  8
0
 10
98.902525596855583
 20
126.8891819942674
 30
0.0
  0
VERTEX
  5
78E
  8
0
 10
98.881491310366684
 20
126.81668363886899
 30
0.0
  0
VERTEX
  5
78F
  8
0
 10
98.837201405822555
 20
126.670143119627
 30
0.0
  0
VERTEX
  5
790
  8
0
 10
98.7898922680791
 20
126.5213724787457
 30
0.0
  0
VERTEX
  5
791
  8
0
 10
98.765081936319291
 20
126.4460848362982
 30
0.0
  0
SEQEND
  5
792
  8
0
  0
POLYLINE
  5
2F7
  8
0
 66
     1
 10
0.0
 20
0.0
 30
0.0
  0
VERTEX
  5
793
  8
0
 10
98.765081936319291
 20
131.44608483629821
 30
0.0
  0
VERTEX
  5
794
  8
0
 10
98.7898922680791
 20
131.37079719385079
 30
0.0
  0
VERTEX
  5
795
  8
0
 10
98.837201405822555
 20
131.2220265529696
 30
0.0
  0
VERTEX
  5
796
  8
0
 10
98.881491310366684
 20
131.07548603372749
 30
0.0
  0
VERTEX
  5
797
  8
0
 10
98.902525596855583
 20
131.00298767832899
 30
0.0
  0
VERTEX
  5
798
  8
0
 10
98.922829893316077
 20
130.93097037088361
 30
0.0
  0
VERTEX
  5
799
  8
0
 10
98.961276857489111
 20
130.7882803168084
 30
0.0
  0
VERTEX
  5
79A
  8
0
 10
98.996883983885553
 20
130.64722172447981
 30
0.0
  0
VERTEX
  5
79B
  8
0
 10
99.029695364331076
 20
130.5076046661315
 30
0.0
  0
VERTEX
  5
79C
  8
0
 10
99.059747581996831
 20
130.36924257913921
 30
0.0
  0
VERTEX
  5
79D
  8
0
 10
99.087069841330674
 20
130.23195143105849
 30
0.0
  0
VERTEX
  5
79E
  8
0
 10
99.099714366153151
 20
130.16365043800499
 30
0.0
  0
VERTEX
  5
79F
  8
0
 10
99.111684048298514
 20
130.0955488959259
 30
0.0
  0
VERTEX
  5
7A0
  8
0
 10
99.133604841203635
 20
129.9598535339999
 30
0.0
  0
VERTEX
  5
7A1
  8
0
 10
99.152839571719539
 20
129.82468396705809
 30
0.0
  0
VERTEX
  5
7A2
  8
0
 10
99.169388235120621
 20
129.6898580411758
 30
0.0
  0
VERTEX
  5
7A3
  8
0
 10
99.183243348014628
 20
129.55519196857449
 30
0.0
  0
VERTEX
  5
7A4
  8
0
 10
99.194389771151634
 20
129.42049943965071
 30
0.0
  0
VERTEX
  5
7A5
  8
0
 10
99.198940342989474
 20
129.35308411551631
 30
0.0
  0
VERTEX
  5
7A6
  8
0
 10
99.202804474095444
 20
129.28559069564579
 30
0.0
  0
VERTEX
  5
7A7
  8
0
 10
99.208456237670717
 20
129.1502715515895
 30
0.0
  0
VERTEX
  5
7A8
  8
0
 10
99.211305289121697
 20
129.0143423581043
 30
0.0
  0
VERTEX
  5
7A9
  8
0
 10
99.211663923704521
 20
128.9460848362983
 30
0.0
  0
SEQEND
  5
7AA
  8
0
  0
LINE
  5
2F8
  8
0
 10
99.211663923704521
 20
136.44608483629821
 30
0.0
 11
93.211663923704521
 21
136.44608483629821
 31
0.0
  0
LINE
  5
2F9
  8
0
 10
93.211663923704521
 20
136.44608483629821
 30
0.0
 11
93.211663923704521
 21
126.4460848362982
 31
0.0
  0
POLYLINE
  5
2FA
  8
0
 66
     1
 10
0.0
 20
0.0
 30
0.0
  0
VERTEX
  5
7AB
  8
0
 10
99.211663923704521
 20
133.94608483629821
 30
0.0
  0
VERTEX
  5
7AC
  8
0
 10
99.211305289121697
 20
134.0143423581043
 30
0.0
  0
VERTEX
  5
7AD
  8
0
 10
99.208456237670717
 20
134.1502715515895
 30
0.0
  0
VERTEX
  5
7AE
  8
0
 10
99.202804474095444
 20
134.28559069564579
 30
0.0
  0
VERTEX
  5
7AF
  8
0
 10
99.198940342989474
 20
134.35308411551631
 30
0.0
  0
VERTEX
  5
7B0
  8
0
 10
99.194389771151634
 20
134.42049943965071
 30
0.0
  0
VERTEX
  5
7B1
  8
0
 10
99.183243348014628
 20
134.55519196857449
 30
0.0
  0
VERTEX
  5
7B2
  8
0
 10
99.169388235120621
 20
134.6898580411758
 30
0.0
  0
VERTEX
  5
7B3
  8
0
 10
99.152839571719539
 20
134.82468396705809
 30
0.0
  0
VERTEX
  5
7B4
  8
0
 10
99.133604841203635
 20
134.9598535339999
 30
0.0
  0
VERTEX
  5
7B5
  8
0
 10
99.111684048298514
 20
135.0955488959259
 30
0.0
  0
VERTEX
  5
7B6
  8
0
 10
99.099714366153151
 20
135.16365043800499
 30
0.0
  0
VERTEX
  5
7B7
  8
0
 10
99.087069841330674
 20
135.23195143105849
 30
0.0
  0
VERTEX
  5
7B8
  8
0
 10
99.059747581996831
 20
135.36924257913921
 30
0.0
  0
VERTEX
  5
7B9
  8
0
 10
99.029695364331076
 20
135.5076046661315
 30
0.0
  0
VERTEX
  5
7BA
  8
0
 10
98.996883983885553
 20
135.64722172447981
 30
0.0
  0
VERTEX
  5
7BB
  8
0
 10
98.961276857489111
 20
135.78828031680831
 30
0.0
  0
VERTEX
  5
7BC
  8
0
 10
98.922829893316077
 20
135.93097037088361
 30
0.0
  0
VERTEX
  5
7BD
  8
0
 10
98.902525596855583
 20
136.00298767832911
 30
0.0
  0
VERTEX
  5
7BE
  8
0
 10
98.881491310366684
 20
136.07548603372749
 30
0.0
  0
VERTEX
  5
7BF
  8
0
 10
98.837201405822555
 20
136.2220265529696
 30
0.0
  0
VERTEX
  5
7C0
  8
0
 10
98.7898922680791
 20
136.37079719385079
 30
0.0
  0
VERTEX
  5
7C1
  8
0
 10
98.765081936319291
 20
136.44608483629821
 30
0.0
  0
SEQEND
  5
7C2
  8
0
  0
POLYLINE
  5
2FB
  8
0
 66
     1
 10
0.0
 20
0.0
 30
0.0
  0
VERTEX
  5
7C3
  8
0
 10
98.765081936319291
 20
131.44608483629821
 30
0.0
  0
VERTEX
  5
7C4
  8
0
 10
98.7898922680791
 20
131.5213724787458
 30
0.0
  0
VERTEX
  5
7C5
  8
0
 10
98.837201405822555
 20
131.670143119627
 30
0.0
  0
VERTEX
  5
7C6
  8
0
 10
98.881491310366684
 20
131.81668363886899
 30
0.0
  0
VERTEX
  5
7C7
  8
0
 10
98.902525596855583
 20
131.8891819942674
 30
0.0
  0
VERTEX
  5
7C8
  8
0
 10
98.922829893316077
 20
131.9611993017129
 30
0.0
  0
VERTEX
  5
7C9
  8
0
 10
98.961276857489111
 20
132.1038893557882
 30
0.0
  0
VERTEX
  5
7CA
  8
0
 10
98.996883983885553
 20
132.24494794811679
 30
0.0
  0
VERTEX
  5
7CB
  8
0
 10
99.029695364331076
 20
132.3845650064651
 30
0.0
  0
VERTEX
  5
7CC
  8
0
 10
99.059747581996831
 20
132.52292709345741
 30
0.0
  0
VERTEX
  5
7CD
  8
0
 10
99.087069841330674
 20
132.6602182415381
 30
0.0
  0
VERTEX
  5
7CE
  8
0
 10
99.099714366153151
 20
132.72851923459149
 30
0.0
  0
VERTEX
  5
7CF
  8
0
 10
99.111684048298514
 20
132.79662077667061
 30
0.0
  0
VERTEX
  5
7D0
  8
0
 10
99.133604841203635
 20
132.93231613859669
 30
0.0
  0
VERTEX
  5
7D1
  8
0
 10
99.152839571719539
 20
133.0674857055385
 30
0.0
  0
VERTEX
  5
7D2
  8
0
 10
99.169388235120621
 20
133.2023116314208
 30
0.0
  0
VERTEX
  5
7D3
  8
0
 10
99.183243348014628
 20
133.33697770402199
 30
0.0
  0
VERTEX
  5
7D4
  8
0
 10
99.194389771151634
 20
133.47167023294591
 30
0.0
  0
VERTEX
  5
7D5
  8
0
 10
99.198940342989474
 20
133.5390855570802
 30
0.0
  0
VERTEX
  5
7D6
  8
0
 10
99.202804474095444
 20
133.60657897695069
 30
0.0
  0
VERTEX
  5
7D7
  8
0
 10
99.208456237670717
 20
133.7418981210071
 30
0.0
  0
VERTEX
  5
7D8
  8
0
 10
99.211305289121697
 20
133.87782731449221
 30
0.0
  0
VERTEX
  5
7D9
  8
0
 10
99.211663923704521
 20
133.94608483629821
 30
0.0
  0
SEQEND
  5
7DA
  8
0
  0
LINE
  5
2FC
  8
0
 10
99.211663923704521
 20
126.4460848362982
 30
0.0
 11
99.211663923704521
 21
136.44608483629821
 31
0.0
  0
LINE
  5
2FD
  8
0
 10
78.211663923704521
 20
128.05958483629831
 30
0.0
 11
78.211663923704521
 21
134.83258483629831
 31
0.0
  0
LINE
  5
2FE
  8
0
 10
78.825163923704508
 20
127.4460848362982
 30
0.0
 11
78.825163923704508
 21
135.44608483629821
 31
0.0
  0
LINE
  5
301
  8
0
 10
99.565217314299616
 20
126.4460848362982
 30
0.0
 11
99.565217314295921
 21
136.44608483629821
 31
0.0
  0
LINE
  5
302
  8
0
 10
105.81166392370631
 20
126.4460848362982
 30
0.0
 11
105.8116639237027
 21
136.44608483629821
 31
0.0
  0
LINE
  5
303
  8
0
 10
111.3171916055925
 20
122.4460848362982
 30
0.0
 11
111.3171916055859
 21
140.44608483629821
 31
0.0
  0
LINE
  5
304
  8
0
 10
111.7116639237078
 20
122.4460848362982
 30
0.0
 11
111.7116639237012
 21
140.44608483629821
 31
0.0
  0
LINE
  5
305
  8
0
 10
112.7116639237075
 20
123.4460848362982
 30
0.0
 11
112.71166392370149
 21
139.4460848362983
 31
0.0
  0
LINE
  5
306
  8
0
 10
78.825163923704508
 20
127.4460848362982
 30
0.0
 11
78.211663923704521
 21
128.05958483629831
 31
0.0
  0
LINE
  5
307
  8
0
 10
78.211663923704521
 20
134.83258483629831
 30
0.0
 11
78.825163923704508
 21
135.44608483629821
 31
0.0
  0
LINE
  5
308
  8
0
 10
93.211663923704521
 20
127.4460848362982
 30
0.0
 11
78.825163923704508
 21
127.4460848362982
 31
0.0
  0
LINE
  5
309
  8
0
 10
78.825163923704508
 20
135.44608483629821
 30
0.0
 11
93.211663923704521
 21
135.44608483629821
 31
0.0
  0
LINE
  5
30E
  8
0
 10
99.565217314297811
 20
126.4460848362982
 30
0.0
 11
99.211663923704521
 21
126.7996382268916
 31
0.0
  0
LINE
  5
30F
  8
0
 10
99.211663923704521
 20
136.09253144570499
 30
0.0
 11
99.565217314297811
 21
136.44608483629821
 31
0.0
  0
LINE
  5
310
  8
0
 10
105.8116639237045
 20
126.4460848362982
 30
0.0
 11
99.565217314297811
 21
126.4460848362982
 31
0.0
  0
LINE
  5
311
  8
0
 10
99.565217314297811
 20
136.44608483629821
 30
0.0
 11
105.8116639237045
 21
136.44608483629821
 31
0.0
  0
LINE
  5
312
  8
0
 10
111.3171916055892
 20
122.4460848362982
 30
0.0
 11
105.8116639237045
 21
126.4460848362982
 31
0.0
  0
LINE
  5
313
  8
0
 10
105.8116639237045
 20
136.44608483629821
 30
0.0
 11
111.3171916055892
 21
140.44608483629821
 31
0.0
  0
LINE
  5
314
  8
0
 10
111.71166392370451
 20
122.4460848362982
 30
0.0
 11
111.3171916055892
 21
122.4460848362982
 31
0.0
  0
LINE
  5
315
  8
0
 10
111.3171916055892
 20
140.44608483629821
 30
0.0
 11
111.71166392370451
 21
140.44608483629821
 31
0.0
  0
ARC
  5
316
  8
0
 10
111.71166392370451
 20
139.4460848362983
 30
0.0
 40
0.9999999999999982
 50
0.0
 51
90.000000000000028
  0
ARC
  5
317
  8
0
 10
111.71166392370451
 20
123.4460848362983
 30
0.0
 40
1.0000000000000011
 50
270.0
 51
0.0
  0
ARC
  5
318
  8
2
 10
122.21166392370451
 20
131.4460848362983
 30
0.0
 40
12.000000000000011
 50
142.34153799379141
 51
217.65846200620871
  0
ARC
  5
495
  8
0
 10
78.211663923704464
 20
91.299613551758625
 30
0.0
 40
4.0
 50
156.09778102925119
 51
203.9022189707492
  0
LINE
  5
4A6
  8
0
 10
74.554710867363454
 20
92.920321527835185
 30
0.0
 11
74.554710867363454
 21
89.678905575682052
 31
0.0
  0
LINE
  5
4A7
  8
0
 10
75.211663923704464
 20
89.299613551758625
 30
0.0
 11
74.554710867363454
 21
89.678905575682066
 31
0.0
  0
LINE
  5
4A8
  8
0
 10
75.21166392370445
 20
129.44608483629821
 30
0.0
 11
74.55471086736344
 21
129.8253768602217
 31
0.0
  0
LINE
  5
4A9
  8
0
 10
74.55471086736344
 20
133.06679281237481
 30
0.0
 11
74.55471086736344
 21
129.8253768602217
 31
0.0
  0
ARC
  5
4AA
  8
0
 10
78.21166392370445
 20
131.44608483629821
 30
0.0
 40
4.0
 50
156.09778102925119
 51
203.9022189707492
  0
LINE
  5
4AB
  8
0
 10
75.21166392370445
 20
129.44608483629821
 30
0.0
 11
78.21166392370445
 21
129.44608483629821
 31
0.0
  0
LINE
  5
4AC
  8
0
 10
78.21166392370445
 20
133.44608483629821
 30
0.0
 11
75.21166392370445
 21
133.44608483629821
 31
0.0
  0
LINE
  5
4AD
  8
0
 10
75.21166392370445
 20
133.44608483629821
 30
0.0
 11
74.55471086736344
 21
133.06679281237481
 31
0.0
  0
LINE
  5
4AE
  8
0
 10
75.21166392370445
 20
133.44608483629821
 30
0.0
 11
75.21166392370445
 21
129.44608483629821
 31
0.0
  0
CIRCLE
  5
4B0
  8
0
 10
35.211663923704457
 20
91.299613551758625
 30
0.0
 40
1.620707976076559
  0
LINE
  5
661
  8
0
 10
99.213210216791055
 20
86.651620649265297
 30
0.0
 11
99.565217314297726
 21
86.299613551758625
 31
0.0
  0
LINE
  5
662
  8
0
 10
99.565217314297726
 20
96.299613551758654
 30
0.0
 11
99.213210216791055
 21
95.947606454252025
 31
0.0
  0
LINE
  5
663
  8
0
 10
98.765081936319277
 20
85.526110859862357
 30
0.0
 11
99.211663923704506
 21
86.299613551758625
 31
0.0
  0
LINE
  5
664
  8
0
 10
99.211663923704506
 20
96.299613551758654
 30
0.0
 11
98.765081936319277
 21
97.073116243654937
 31
0.0
  0
LINE
  5
665
  8
0
 10
99.565217314297726
 20
96.299613551758654
 30
0.0
 11
99.565217314297726
 21
93.699613551758645
 31
0.0
  0
LINE
  5
666
  8
0
 10
99.211663923704506
 20
96.299613551758654
 30
0.0
 11
99.211663923704606
 21
93.799613551758611
 31
0.0
  0
POLYLINE
  5
667
  8
0
 66
     1
 10
0.0
 20
0.0
 30
0.0
  0
VERTEX
  5
7DB
  8
0
 10
98.765081936319277
 20
97.073116243654937
 30
0.0
  0
VERTEX
  5
7DC
  8
0
 10
98.789892268079058
 20
97.029648903021169
 30
0.0
  0
VERTEX
  5
7DD
  8
0
 10
98.837201405822412
 20
96.943756133460923
 30
0.0
  0
VERTEX
  5
7DE
  8
0
 10
98.881491310366684
 20
96.859150925229315
 30
0.0
  0
VERTEX
  5
7DF
  8
0
 10
98.902525596855554
 20
96.817293980224264
 30
0.0
  0
VERTEX
  5
7E0
  8
0
 10
98.922829893315935
 20
96.775714768384276
 30
0.0
  0
VERTEX
  5
7E1
  8
0
 10
98.961276857489025
 20
96.693332627253227
 30
0.0
  0
VERTEX
  5
7E2
  8
0
 10
98.99688398388551
 20
96.611892411000795
 30
0.0
  0
VERTEX
  5
7E3
  8
0
 10
99.029695364331033
 20
96.531284464779986
 30
0.0
  0
VERTEX
  5
7E4
  8
0
 10
99.059747581996746
 20
96.451401076609343
 30
0.0
  0
VERTEX
  5
7E5
  8
0
 10
99.087069841330646
 20
96.372135995307602
 30
0.0
  0
VERTEX
  5
7E6
  8
0
 10
99.099714366153108
 20
96.332702398582256
 30
0.0
  0
VERTEX
  5
7E7
  8
0
 10
99.111684048298486
 20
96.293383954930704
 30
0.0
  0
VERTEX
  5
7E8
  8
0
 10
99.133604841203606
 20
96.215040201194839
 30
0.0
  0
VERTEX
  5
7E9
  8
0
 10
99.152839571719511
 20
96.137000015334777
 30
0.0
  0
VERTEX
  5
7EA
  8
0
 10
99.169388235120579
 20
96.059158230732891
 30
0.0
  0
VERTEX
  5
7EB
  8
0
 10
99.183243348014614
 20
95.981408737465827
 30
0.0
  0
VERTEX
  5
7EC
  8
0
 10
99.194389771151606
 20
95.903643969633848
 30
0.0
  0
VERTEX
  5
7ED
  8
0
 10
99.198940342989474
 20
95.864721714097357
 30
0.0
  0
VERTEX
  5
7EE
  8
0
 10
99.202804474095416
 20
95.825754369966603
 30
0.0
  0
VERTEX
  5
7EF
  8
0
 10
99.208456237670617
 20
95.747627825719135
 30
0.0
  0
VERTEX
  5
7F0
  8
0
 10
99.211305289121611
 20
95.669149069269736
 30
0.0
  0
VERTEX
  5
7F1
  8
0
 10
99.211663923704506
 20
95.629740570680852
 30
0.0
  0
SEQEND
  5
7F2
  8
0
  0
POLYLINE
  5
668
  8
0
 66
     1
 10
0.0
 20
0.0
 30
0.0
  0
VERTEX
  5
7F3
  8
0
 10
99.211663923704506
 20
95.629740570680852
 30
0.0
  0
VERTEX
  5
7F4
  8
0
 10
99.211305289121611
 20
95.590332072091897
 30
0.0
  0
VERTEX
  5
7F5
  8
0
 10
99.208456237670617
 20
95.511853315642512
 30
0.0
  0
VERTEX
  5
7F6
  8
0
 10
99.202804474095416
 20
95.43372677139503
 30
0.0
  0
VERTEX
  5
7F7
  8
0
 10
99.198940342989474
 20
95.394759427264276
 30
0.0
  0
VERTEX
  5
7F8
  8
0
 10
99.194389771151606
 20
95.355837171727856
 30
0.0
  0
VERTEX
  5
7F9
  8
0
 10
99.183243348014614
 20
95.278072403895834
 30
0.0
  0
VERTEX
  5
7FA
  8
0
 10
99.169388235120579
 20
95.200322910628771
 30
0.0
  0
VERTEX
  5
7FB
  8
0
 10
99.152839571719511
 20
95.122481126026869
 30
0.0
  0
VERTEX
  5
7FC
  8
0
 10
99.133604841203606
 20
95.044440940166808
 30
0.0
  0
VERTEX
  5
7FD
  8
0
 10
99.111684048298486
 20
94.966097186431014
 30
0.0
  0
VERTEX
  5
7FE
  8
0
 10
99.099714366153108
 20
94.926778742779405
 30
0.0
  0
VERTEX
  5
7FF
  8
0
 10
99.087069841330646
 20
94.887345146054088
 30
0.0
  0
VERTEX
  5
800
  8
0
 10
99.059747581996746
 20
94.808080064752303
 30
0.0
  0
VERTEX
  5
801
  8
0
 10
99.029695364331033
 20
94.728196676581675
 30
0.0
  0
VERTEX
  5
802
  8
0
 10
98.99688398388551
 20
94.647588730360852
 30
0.0
  0
VERTEX
  5
803
  8
0
 10
98.961276857489025
 20
94.566148514108434
 30
0.0
  0
VERTEX
  5
804
  8
0
 10
98.922829893315935
 20
94.483766372977371
 30
0.0
  0
VERTEX
  5
805
  8
0
 10
98.902525596855554
 20
94.442187161137454
 30
0.0
  0
VERTEX
  5
806
  8
0
 10
98.881491310366684
 20
94.400330216132332
 30
0.0
  0
VERTEX
  5
807
  8
0
 10
98.837201405822526
 20
94.315725007900781
 30
0.0
  0
VERTEX
  5
808
  8
0
 10
98.789892268079058
 20
94.229832238340478
 30
0.0
  0
VERTEX
  5
809
  8
0
 10
98.765081936319277
 20
94.186364897706781
 30
0.0
  0
SEQEND
  5
80A
  8
0
  0
LINE
  5
669
  8
0
 10
98.765081936319277
 20
94.186364897706781
 30
0.0
 11
93.211663923704478
 21
94.186364897706781
 31
0.0
  0
POLYLINE
  5
66A
  8
0
 66
     1
 10
0.0
 20
0.0
 30
0.0
  0
VERTEX
  5
80B
  8
0
 10
98.765081936319277
 20
94.186364897706781
 30
0.0
  0
VERTEX
  5
80C
  8
0
 10
98.789892268079058
 20
94.099430216439373
 30
0.0
  0
VERTEX
  5
80D
  8
0
 10
98.837201405822526
 20
93.927644677318767
 30
0.0
  0
VERTEX
  5
80E
  8
0
 10
98.870712855343555
 20
93.799613551758625
 30
0.0
  0
SEQEND
  5
80F
  8
0
  0
POLYLINE
  5
66B
  8
0
 66
     1
 10
0.0
 20
0.0
 30
0.0
  0
VERTEX
  5
810
  8
0
 10
98.870712855343555
 20
88.799613551758625
 30
0.0
  0
VERTEX
  5
811
  8
0
 10
98.837201405822526
 20
88.671582426198484
 30
0.0
  0
VERTEX
  5
812
  8
0
 10
98.789892268079058
 20
88.499796887077878
 30
0.0
  0
VERTEX
  5
813
  8
0
 10
98.765081936319277
 20
88.412862205810498
 30
0.0
  0
SEQEND
  5
814
  8
0
  0
LINE
  5
66C
  8
0
 10
98.765081936319277
 20
88.412862205810498
 30
0.0
 11
93.211663923704478
 21
88.412862205810498
 31
0.0
  0
POLYLINE
  5
66D
  8
0
 66
     1
 10
0.0
 20
0.0
 30
0.0
  0
VERTEX
  5
815
  8
0
 10
98.765081936319277
 20
88.412862205810498
 30
0.0
  0
VERTEX
  5
816
  8
0
 10
98.789892268079058
 20
88.369394865176801
 30
0.0
  0
VERTEX
  5
817
  8
0
 10
98.837201405822526
 20
88.283502095616498
 30
0.0
  0
VERTEX
  5
818
  8
0
 10
98.881491310366684
 20
88.198896887384947
 30
0.0
  0
VERTEX
  5
819
  8
0
 10
98.902525596855554
 20
88.157039942379825
 30
0.0
  0
VERTEX
  5
81A
  8
0
 10
98.922829893315935
 20
88.115460730539908
 30
0.0
  0
VERTEX
  5
81B
  8
0
 10
98.961276857489025
 20
88.033078589408845
 30
0.0
  0
VERTEX
  5
81C
  8
0
 10
98.99688398388551
 20
87.951638373156428
 30
0.0
  0
VERTEX
  5
81D
  8
0
 10
99.029695364331033
 20
87.871030426935604
 30
0.0
  0
VERTEX
  5
81E
  8
0
 10
99.059747581996746
 20
87.791147038764976
 30
0.0
  0
VERTEX
  5
81F
  8
0
 10
99.087069841330646
 20
87.711881957463163
 30
0.0
  0
VERTEX
  5
820
  8
0
 10
99.099714366153108
 20
87.672448360737874
 30
0.0
  0
VERTEX
  5
821
  8
0
 10
99.111684048298486
 20
87.633129917086265
 30
0.0
  0
VERTEX
  5
822
  8
0
 10
99.133604841203606
 20
87.554786163350471
 30
0.0
  0
VERTEX
  5
823
  8
0
 10
99.152839571719511
 20
87.47674597749041
 30
0.0
  0
VERTEX
  5
824
  8
0
 10
99.169388235120579
 20
87.398904192888509
 30
0.0
  0
VERTEX
  5
825
  8
0
 10
99.183243348014614
 20
87.321154699621445
 30
0.0
  0
VERTEX
  5
826
  8
0
 10
99.194389771151606
 20
87.243389931789423
 30
0.0
  0
VERTEX
  5
827
  8
0
 10
99.198940342989474
 20
87.204467676253003
 30
0.0
  0
VERTEX
  5
828
  8
0
 10
99.202804474095416
 20
87.165500332122249
 30
0.0
  0
VERTEX
  5
829
  8
0
 10
99.208456237670617
 20
87.087373787874768
 30
0.0
  0
VERTEX
  5
82A
  8
0
 10
99.211305289121611
 20
87.008895031425396
 30
0.0
  0
VERTEX
  5
82B
  8
0
 10
99.211663923704506
 20
86.969486532836427
 30
0.0
  0
SEQEND
  5
82C
  8
0
  0
POLYLINE
  5
66E
  8
0
 66
     1
 10
0.0
 20
0.0
 30
0.0
  0
VERTEX
  5
82D
  8
0
 10
99.211663923704506
 20
86.969486532836427
 30
0.0
  0
VERTEX
  5
82E
  8
0
 10
99.211305289121611
 20
86.930078034247529
 30
0.0
  0
VERTEX
  5
82F
  8
0
 10
99.208456237670617
 20
86.851599277798144
 30
0.0
  0
VERTEX
  5
830
  8
0
 10
99.202804474095416
 20
86.773472733550648
 30
0.0
  0
VERTEX
  5
831
  8
0
 10
99.198940342989474
 20
86.734505389419894
 30
0.0
  0
VERTEX
  5
832
  8
0
 10
99.194389771151606
 20
86.695583133883432
 30
0.0
  0
VERTEX
  5
833
  8
0
 10
99.183243348014614
 20
86.617818366051452
 30
0.0
  0
VERTEX
  5
834
  8
0
 10
99.169388235120579
 20
86.540068872784389
 30
0.0
  0
VERTEX
  5
835
  8
0
 10
99.152839571719511
 20
86.462227088182502
 30
0.0
  0
VERTEX
  5
836
  8
0
 10
99.133604841203606
 20
86.38418690232244
 30
0.0
  0
VERTEX
  5
837
  8
0
 10
99.111684048298486
 20
86.305843148586575
 30
0.0
  0
VERTEX
  5
838
  8
0
 10
99.099714366153108
 20
86.266524704935037
 30
0.0
  0
VERTEX
  5
839
  8
0
 10
99.087069841330646
 20
86.227091108209677
 30
0.0
  0
VERTEX
  5
83A
  8
0
 10
99.059747581996746
 20
86.147826026907936
 30
0.0
  0
VERTEX
  5
83B
  8
0
 10
99.029695364331033
 20
86.067942638737307
 30
0.0
  0
VERTEX
  5
83C
  8
0
 10
98.99688398388551
 20
85.987334692516484
 30
0.0
  0
VERTEX
  5
83D
  8
0
 10
98.961276857489025
 20
85.905894476264066
 30
0.0
  0
VERTEX
  5
83E
  8
0
 10
98.922829893315935
 20
85.823512335133003
 30
0.0
  0
VERTEX
  5
83F
  8
0
 10
98.902525596855554
 20
85.781933123293015
 30
0.0
  0
VERTEX
  5
840
  8
0
 10
98.881491310366684
 20
85.740076178287964
 30
0.0
  0
VERTEX
  5
841
  8
0
 10
98.837201405822412
 20
85.655470970056356
 30
0.0
  0
VERTEX
  5
842
  8
0
 10
98.789892268079058
 20
85.56957820049611
 30
0.0
  0
VERTEX
  5
843
  8
0
 10
98.765081936319277
 20
85.526110859862357
 30
0.0
  0
SEQEND
  5
844
  8
0
  0
LINE
  5
66F
  8
0
 10
93.211663923704478
 20
85.526110859862357
 30
0.0
 11
93.211663923704478
 21
97.073116243654937
 31
0.0
  0
LINE
  5
670
  8
0
 10
98.765081936319277
 20
85.526110859862357
 30
0.0
 11
93.211663923704478
 21
85.526110859862357
 31
0.0
  0
LINE
  5
671
  8
0
 10
98.765081936319277
 20
97.073116243654937
 30
0.0
 11
93.211663923704478
 21
97.073116243654937
 31
0.0
  0
LINE
  5
672
  8
0
 10
99.565217314297826
 20
93.699613551758617
 30
0.0
 11
95.211663923704492
 21
93.699613551758617
 31
0.0
  0
LINE
  5
673
  8
0
 10
95.211663923702901
 20
93.699613551758617
 30
0.0
 11
95.211663923702901
 21
88.899613551758662
 31
0.0
  0
LINE
  5
674
  8
0
 10
94.711663923704492
 20
93.799613551758625
 30
0.0
 11
99.211663923704506
 21
93.799613551758625
 31
0.0
  0
LINE
  5
675
  8
0
 10
94.711663923704492
 20
88.799613551758625
 30
0.0
 11
94.711663923704492
 21
93.799613551758625
 31
0.0
  0
LINE
  5
676
  8
0
 10
99.565217314297826
 20
88.899613551758662
 30
0.0
 11
95.211663923704492
 21
88.899613551758662
 31
0.0
  0
LINE
  5
677
  8
0
 10
99.211663923704506
 20
88.799613551758625
 30
0.0
 11
94.711663923704492
 21
88.799613551758625
 31
0.0
  0
LINE
  5
678
  8
0
 10
99.211663923704606
 20
88.799613551758611
 30
0.0
 11
99.211663923704506
 21
86.299613551758625
 31
0.0
  0
LINE
  5
679
  8
0
 10
99.565217314297726
 20
88.899613551758662
 30
0.0
 11
99.565217314297726
 21
86.299613551758625
 31
0.0
  0
TEXT
  5
725
  8
0
 62
     3
 10
0.0
 20
0.0
 30
0.0
 40
5.0
  1
NDXN8L
  7
STANDARD1
  0
ENDSEC
  0
EOF
