  0
SECTION
  2
HEADER
  9
$ACADVER
  1
AC1009
  9
$INSBASE
 10
0.0
 20
0.0
 30
0.0
  9
$EXTMIN
 10
0.0
 20
-1.4802182810368341
 30
0.0
  9
$EXTMAX
 10
152.94463966077379
 20
77.309757559875379
 30
0.0
  9
$LIMMIN
 10
0.0
 20
0.0
  9
$LIMMAX
 10
385.0
 20
270.0
  9
$ORTHOMODE
 70
     1
  9
$REGENMODE
 70
     1
  9
$FILLMODE
 70
     1
  9
$QTEXTMODE
 70
     0
  9
$MIRRTEXT
 70
     0
  9
$DRAGMODE
 70
     2
  9
$LTSCALE
 40
5.0
  9
$OSMODE
 70
  3071
  9
$ATTMODE
 70
     1
  9
$TEXTSIZE
 40
4.000000000000048
  9
$TRACEWID
 40
0.05
  9
$TEXTSTYLE
  7
STANDARD
  9
$CLAYER
  8
0
  9
$CELTYPE
  6
BYLAYER
  9
$CECOLOR
 62
   256
  9
$DIMSCALE
 40
1.0
  9
$DIMASZ
 40
3.0
  9
$DIMEXO
 40
2.0
  9
$DIMDLI
 40
0.38
  9
$DIMRND
 40
0.0
  9
$DIMDLE
 40
0.0
  9
$DIMEXE
 40
2.0
  9
$DIMTP
 40
0.0
  9
$DIMTM
 40
0.0
  9
$DIMTXT
 40
3.0
  9
$DIMCEN
 40
0.0
  9
$DIMTSZ
 40
0.0
  9
$DIMTOL
 70
     0
  9
$DIMLIM
 70
     0
  9
$DIMTIH
 70
     0
  9
$DIMTOH
 70
     0
  9
$DIMSE1
 70
     0
  9
$DIMSE2
 70
     0
  9
$DIMTAD
 70
     1
  9
$DIMZIN
 70
     0
  9
$DIMBLK
  1

  9
$DIMASO
 70
     0
  9
$DIMSHO
 70
     0
  9
$DIMPOST
  1

  9
$DIMAPOST
  1

  9
$DIMALT
 70
     0
  9
$DIMALTD
 70
     2
  9
$DIMALTF
 40
25.399999999999999
  9
$DIMLFAC
 40
1.0
  9
$DIMTOFL
 70
     1
  9
$DIMTVP
 40
1.6000000000000001
  9
$DIMTIX
 70
     1
  9
$DIMSOXD
 70
     0
  9
$DIMSAH
 70
     0
  9
$DIMBLK1
  1

  9
$DIMBLK2
  1

  9
$DIMSTYLE
  2
STANDARD
  9
$DIMCLRD
 70
     0
  9
$DIMCLRE
 70
     0
  9
$DIMCLRT
 70
     0
  9
$DIMTFAC
 40
1.0
  9
$DIMGAP
 40
1.0
  9
$LUNITS
 70
     2
  9
$LUPREC
 70
     4
  9
$SKETCHINC
 40
0.1
  9
$FILLETRAD
 40
0.0
  9
$AUNITS
 70
     0
  9
$AUPREC
 70
     4
  9
$MENU
  1
E:\r13\win\SUPPORT\ACAD
  9
$ELEVATION
 40
0.0
  9
$PELEVATION
 40
0.0
  9
$THICKNESS
 40
0.0
  9
$LIMCHECK
 70
     0
  9
$BLIPMODE
 70
     0
  9
$CHAMFERA
 40
0.0
  9
$CHAMFERB
 40
0.0
  9
$SKPOLY
 70
     0
  9
$TDCREATE
 40
2450280.598206134
  9
$TDUPDATE
 40
2456597.6892911228
  9
$TDINDWG
 40
0.1465976389
  9
$TDUSRTIMER
 40
0.1465976389
  9
$USRTIMER
 70
     1
  9
$ANGBASE
 50
0.0
  9
$ANGDIR
 70
     0
  9
$PDMODE
 70
     0
  9
$PDSIZE
 40
0.0
  9
$PLINEWID
 40
0.0
  9
$COORDS
 70
     1
  9
$SPLFRAME
 70
     0
  9
$SPLINETYPE
 70
     6
  9
$SPLINESEGS
 70
     8
  9
$ATTDIA
 70
     0
  9
$ATTREQ
 70
     1
  9
$HANDLING
 70
     1
  9
$HANDSEED
  5
E65
  9
$SURFTAB1
 70
     6
  9
$SURFTAB2
 70
     6
  9
$SURFTYPE
 70
     6
  9
$SURFU
 70
     6
  9
$SURFV
 70
     6
  9
$UCSNAME
  2

  9
$UCSORG
 10
0.0
 20
0.0
 30
0.0
  9
$UCSXDIR
 10
1.0
 20
0.0
 30
0.0
  9
$UCSYDIR
 10
0.0
 20
1.0
 30
0.0
  9
$PUCSNAME
  2

  9
$PUCSORG
 10
0.0
 20
0.0
 30
0.0
  9
$PUCSXDIR
 10
1.0
 20
0.0
 30
0.0
  9
$PUCSYDIR
 10
0.0
 20
1.0
 30
0.0
  9
$USERI1
 70
     3
  9
$USERI2
 70
     1
  9
$USERI3
 70
     1
  9
$USERI4
 70
     0
  9
$USERI5
 70
     0
  9
$USERR1
 40
1.0
  9
$USERR2
 40
3.0
  9
$USERR3
 40
3.0
  9
$USERR4
 40
3.0
  9
$USERR5
 40
10.0
  9
$WORLDVIEW
 70
     1
  9
$SHADEDGE
 70
     3
  9
$SHADEDIF
 70
    70
  9
$TILEMODE
 70
     1
  9
$MAXACTVP
 70
    16
  9
$PLIMCHECK
 70
     0
  9
$PEXTMIN
 10
1.0000000000000000E+020
 20
1.0000000000000000E+020
 30
1.0000000000000000E+020
  9
$PEXTMAX
 10
-1.0000000000000000E+020
 20
-1.0000000000000000E+020
 30
-1.0000000000000000E+020
  9
$PLIMMIN
 10
0.0
 20
0.0
  9
$PLIMMAX
 10
12.0
 20
9.0
  9
$UNITMODE
 70
     0
  9
$VISRETAIN
 70
     0
  9
$PLINEGEN
 70
     0
  9
$PSLTSCALE
 70
     0
  0
ENDSEC
  0
SECTION
  2
TABLES
  0
TABLE
  2
VPORT
 70
     1
  0
VPORT
  2
*ACTIVE
 70
     0
 10
0.0
 20
0.0
 11
1.0
 21
1.0
 12
192.49412581440311
 22
134.84202934784381
 13
0.0
 23
0.0
 14
5.0
 24
5.0
 15
10.0
 25
10.0
 16
0.0
 26
0.0
 36
1.0
 17
0.0
 27
0.0
 37
0.0
 40
275.78743625673241
 41
2.304913294797688
 42
50.0
 43
0.0
 44
0.0
 50
0.0
 51
0.0
 71
     0
 72
   500
 73
     1
 74
     0
 75
     0
 76
     0
 77
     0
 78
     2
  0
ENDTAB
  0
TABLE
  2
LTYPE
 70
     4
  0
LTYPE
  2
CONTINUOUS
 70
     0
  3
Solid Line
 72
    65
 73
     0
 40
0.0
  0
LTYPE
  2
CENTER
 70
     0
  3
____ _ ____ _ ____ _ ____ _ ____ _ ____ _ ____
 72
    65
 73
     4
 40
2.0
 49
1.25
 49
-0.25
 49
0.25
 49
-0.25
  0
LTYPE
  2
HIDDEN
 70
     0
  3
_ _ _ _ _ _ _ _ _ _ _ _ _ _ _ _ _ _ _ _ _ _ _
 72
    65
 73
     2
 40
0.375
 49
0.25
 49
-0.125
  0
LTYPE
  2
PHANTOM2
 70
     0
  3
___ _ _ ___ _ _ ___ _ _ ___ _ _
 72
    65
 73
     6
 40
1.25
 49
0.625
 49
-0.125
 49
0.125
 49
-0.125
 49
0.125
 49
-0.125
  0
ENDTAB
  0
TABLE
  2
LAYER
 70
     4
  0
LAYER
  2
0
 70
     0
 62
     7
  6
CONTINUOUS
  0
LAYER
  2
1
 70
     0
 62
     1
  6
CENTER
  0
LAYER
  2
3
 70
     0
 62
     3
  6
CONTINUOUS
  0
LAYER
  2
2
 70
     0
 62
     2
  6
HIDDEN
  0
ENDTAB
  0
TABLE
  2
STYLE
 70
     2
  0
STYLE
  2
STANDARD
 70
     0
 40
0.0
 41
1.0
 50
0.0
 71
     0
 42
4.000000000000048
  3
SIMPLEX
  4
BIGFONT
  0
STYLE
  2
STANDARD1
 70
     0
 40
0.0
 41
1.0
 50
0.0
 71
     0
 42
3.0
  3
txt
  4

  0
ENDTAB
  0
TABLE
  2
VIEW
 70
     1
  0
VIEW
  2
OLE1
 70
     0
 40
100.4021213141917
 10
119.5958647627379
 20
30.845687992436051
 41
193.4756206346469
 11
0.0
 21
0.0
 31
1.0
 12
0.0
 22
0.0
 32
0.0
 42
50.0
 43
0.0
 44
0.0
 50
0.0
 71
     0
  0
ENDTAB
  0
TABLE
  2
UCS
 70
     0
  0
ENDTAB
  0
TABLE
  2
APPID
 70
     3
  0
APPID
  2
ACAD
 70
     0
  0
APPID
  2
ACAD_MLEADERVER
 70
     0
  0
APPID
  2
ACAD_NAV_VCDISPLAY
 70
     0
  0
ENDTAB
  0
TABLE
  2
DIMSTYLE
 70
     1
  0
DIMSTYLE
  2
STANDARD
 70
     0
  3

  4

  5

  6

  7

 40
1.0
 41
0.18
 42
0.0625
 43
0.38
 44
0.18
 45
0.0
 46
0.0
 47
0.0
 48
0.0
140
0.18
141
0.09
142
0.0
143
25.399999999999999
144
1.0
145
0.0
146
1.0
147
0.09
 71
     0
 72
     0
 73
     1
 74
     1
 75
     0
 76
     0
 77
     0
 78
     0
170
     0
171
     2
172
     0
173
     0
174
     0
175
     0
176
     0
177
     0
178
     0
  0
ENDTAB
  0
ENDSEC
  0
SECTION
  2
BLOCKS
  0
BLOCK
  8
0
  2
$MODEL_SPACE
 70
     0
 10
0.0
 20
0.0
 30
0.0
  3
$MODEL_SPACE
  1

  0
ENDBLK
  5
175
  8
0
  0
BLOCK
 67
     1
  8
0
  2
$PAPER_SPACE
 70
     0
 10
0.0
 20
0.0
 30
0.0
  3
$PAPER_SPACE
  1

  0
ENDBLK
  5
173
 67
     1
  8
0
  0
ENDSEC
  0
SECTION
  2
ENTITIES
  0
CIRCLE
  5
6DF
  8
0
  6
CONTINUOUS
 62
     0
 10
26.115849080650829
 20
30.309757559875379
 30
0.0
 40
5.0000000000000071
  0
LINE
  5
6E0
  8
1
 10
26.115849080650829
 20
20.309757559875379
 30
0.0
 11
26.115849080650829
 21
40.309757559875379
 31
0.0
  0
LINE
  5
6E1
  8
1
 10
16.115849080650829
 20
30.309757559875379
 30
0.0
 11
36.115849080650833
 21
30.309757559875379
 31
0.0
  0
POLYLINE
  5
6F6
  8
0
  6
CONTINUOUS
 62
     0
 66
     1
 10
0.0
 20
0.0
 30
0.0
  0
VERTEX
  5
B2D
  8
0
  6
CONTINUOUS
 62
     0
 10
23.615849080650829
 20
25.979630540953181
 30
0.0
  0
VERTEX
  5
B2E
  8
0
  6
CONTINUOUS
 62
     0
 10
24.026963383544398
 20
25.742273587509871
 30
0.0
  0
VERTEX
  5
B2F
  8
0
  6
CONTINUOUS
 62
     0
 10
24.840874896436699
 20
25.27236155644497
 30
0.0
  0
VERTEX
  5
B30
  8
0
  6
CONTINUOUS
 62
     0
 10
25.677125456517359
 20
24.789552070472421
 30
0.0
  0
VERTEX
  5
B31
  8
0
  6
CONTINUOUS
 62
     0
 10
26.115849080650829
 20
24.536254867979132
 30
0.0
  0
SEQEND
  5
B32
  8
0
  6
CONTINUOUS
 62
     0
  0
POLYLINE
  5
6F7
  8
0
  6
CONTINUOUS
 62
     0
 66
     1
 10
0.0
 20
0.0
 30
0.0
  0
VERTEX
  5
B33
  8
0
  6
CONTINUOUS
 62
     0
 10
21.115849080650829
 20
27.423006213927248
 30
0.0
  0
VERTEX
  5
B34
  8
0
  6
CONTINUOUS
 62
     0
 10
21.554572704784849
 20
27.169709011433639
 30
0.0
  0
VERTEX
  5
B35
  8
0
  6
CONTINUOUS
 62
     0
 10
22.390823264866011
 20
26.686899525460799
 30
0.0
  0
VERTEX
  5
B36
  8
0
  6
CONTINUOUS
 62
     0
 10
23.204734777757889
 20
26.216987494396129
 30
0.0
  0
VERTEX
  5
B37
  8
0
  6
CONTINUOUS
 62
     0
 10
23.615849080650829
 20
25.979630540953181
 30
0.0
  0
SEQEND
  5
B38
  8
0
  6
CONTINUOUS
 62
     0
  0
POLYLINE
  5
6F8
  8
0
  6
CONTINUOUS
 62
     0
 66
     1
 10
0.0
 20
0.0
 30
0.0
  0
VERTEX
  5
B39
  8
0
  6
CONTINUOUS
 62
     0
 10
23.615849080650829
 20
34.639884578797577
 30
0.0
  0
VERTEX
  5
B3A
  8
0
  6
CONTINUOUS
 62
     0
 10
23.20473477775727
 20
34.40252762535426
 30
0.0
  0
VERTEX
  5
B3B
  8
0
  6
CONTINUOUS
 62
     0
 10
22.390823264864959
 20
33.932615594289359
 30
0.0
  0
VERTEX
  5
B3C
  8
0
  6
CONTINUOUS
 62
     0
 10
21.554572704784299
 20
33.449806108316807
 30
0.0
  0
VERTEX
  5
B3D
  8
0
  6
CONTINUOUS
 62
     0
 10
21.115849080650829
 20
33.196508905823507
 30
0.0
  0
SEQEND
  5
B3E
  8
0
  6
CONTINUOUS
 62
     0
  0
POLYLINE
  5
6F9
  8
0
  6
CONTINUOUS
 62
     0
 66
     1
 10
0.0
 20
0.0
 30
0.0
  0
VERTEX
  5
B3F
  8
0
  6
CONTINUOUS
 62
     0
 10
26.115849080650829
 20
36.083260251771627
 30
0.0
  0
VERTEX
  5
B40
  8
0
  6
CONTINUOUS
 62
     0
 10
25.677125456516819
 20
35.829963049278021
 30
0.0
  0
VERTEX
  5
B41
  8
0
  6
CONTINUOUS
 62
     0
 10
24.84087489643565
 20
35.347153563305191
 30
0.0
  0
VERTEX
  5
B42
  8
0
  6
CONTINUOUS
 62
     0
 10
24.02696338354378
 20
34.877241532240518
 30
0.0
  0
VERTEX
  5
B43
  8
0
  6
CONTINUOUS
 62
     0
 10
23.615849080650829
 20
34.639884578797577
 30
0.0
  0
SEQEND
  5
B44
  8
0
  6
CONTINUOUS
 62
     0
  0
POLYLINE
  5
6FA
  8
0
  6
CONTINUOUS
 62
     0
 66
     1
 10
0.0
 20
0.0
 30
0.0
  0
VERTEX
  5
B45
  8
0
  6
CONTINUOUS
 62
     0
 10
21.115849080650829
 20
30.309757559875379
 30
0.0
  0
VERTEX
  5
B46
  8
0
  6
CONTINUOUS
 62
     0
 10
21.115849080650829
 20
29.835043652988759
 30
0.0
  0
VERTEX
  5
B47
  8
0
  6
CONTINUOUS
 62
     0
 10
21.115849080650829
 20
28.89521959085895
 30
0.0
  0
VERTEX
  5
B48
  8
0
  6
CONTINUOUS
 62
     0
 10
21.115849080650829
 20
27.929600618913849
 30
0.0
  0
VERTEX
  5
B49
  8
0
  6
CONTINUOUS
 62
     0
 10
21.115849080650829
 20
27.423006213927248
 30
0.0
  0
SEQEND
  5
B4A
  8
0
  6
CONTINUOUS
 62
     0
  0
POLYLINE
  5
6FB
  8
0
  6
CONTINUOUS
 62
     0
 66
     1
 10
0.0
 20
0.0
 30
0.0
  0
VERTEX
  5
B4B
  8
0
  6
CONTINUOUS
 62
     0
 10
21.115849080650829
 20
33.196508905823507
 30
0.0
  0
VERTEX
  5
B4C
  8
0
  6
CONTINUOUS
 62
     0
 10
21.115849080650829
 20
32.689914500836281
 30
0.0
  0
VERTEX
  5
B4D
  8
0
  6
CONTINUOUS
 62
     0
 10
21.115849080650829
 20
31.7242955288906
 30
0.0
  0
VERTEX
  5
B4E
  8
0
  6
CONTINUOUS
 62
     0
 10
21.115849080650829
 20
30.784471466761271
 30
0.0
  0
VERTEX
  5
B4F
  8
0
  6
CONTINUOUS
 62
     0
 10
21.115849080650829
 20
30.309757559875379
 30
0.0
  0
SEQEND
  5
B50
  8
0
  6
CONTINUOUS
 62
     0
  0
POLYLINE
  5
6FC
  8
0
  6
CONTINUOUS
 62
     0
 66
     1
 10
0.0
 20
0.0
 30
0.0
  0
VERTEX
  5
B51
  8
0
  6
CONTINUOUS
 62
     0
 10
28.615849080650829
 20
34.639884578797577
 30
0.0
  0
VERTEX
  5
B52
  8
0
  6
CONTINUOUS
 62
     0
 10
28.20473477775727
 20
34.877241532240888
 30
0.0
  0
VERTEX
  5
B53
  8
0
  6
CONTINUOUS
 62
     0
 10
27.390823264864959
 20
35.347153563305788
 30
0.0
  0
VERTEX
  5
B54
  8
0
  6
CONTINUOUS
 62
     0
 10
26.554572704784309
 20
35.829963049278341
 30
0.0
  0
VERTEX
  5
B55
  8
0
  6
CONTINUOUS
 62
     0
 10
26.115849080650829
 20
36.083260251771627
 30
0.0
  0
SEQEND
  5
B56
  8
0
  6
CONTINUOUS
 62
     0
  0
POLYLINE
  5
6FD
  8
0
  6
CONTINUOUS
 62
     0
 66
     1
 10
0.0
 20
0.0
 30
0.0
  0
VERTEX
  5
B57
  8
0
  6
CONTINUOUS
 62
     0
 10
31.115849080650829
 20
33.196508905823507
 30
0.0
  0
VERTEX
  5
B58
  8
0
  6
CONTINUOUS
 62
     0
 10
30.677125456516819
 20
33.449806108317119
 30
0.0
  0
VERTEX
  5
B59
  8
0
  6
CONTINUOUS
 62
     0
 10
29.84087489643565
 20
33.932615594289963
 30
0.0
  0
VERTEX
  5
B5A
  8
0
  6
CONTINUOUS
 62
     0
 10
29.02696338354378
 20
34.402527625354629
 30
0.0
  0
VERTEX
  5
B5B
  8
0
  6
CONTINUOUS
 62
     0
 10
28.615849080650829
 20
34.639884578797577
 30
0.0
  0
SEQEND
  5
B5C
  8
0
  6
CONTINUOUS
 62
     0
  0
POLYLINE
  5
6FE
  8
0
  6
CONTINUOUS
 62
     0
 66
     1
 10
0.0
 20
0.0
 30
0.0
  0
VERTEX
  5
B5D
  8
0
  6
CONTINUOUS
 62
     0
 10
31.115849080650829
 20
30.309757559875379
 30
0.0
  0
VERTEX
  5
B5E
  8
0
  6
CONTINUOUS
 62
     0
 10
31.115849080650829
 20
30.784471466762
 30
0.0
  0
VERTEX
  5
B5F
  8
0
  6
CONTINUOUS
 62
     0
 10
31.115849080650829
 20
31.724295528891819
 30
0.0
  0
VERTEX
  5
B60
  8
0
  6
CONTINUOUS
 62
     0
 10
31.115849080650829
 20
32.689914500836913
 30
0.0
  0
VERTEX
  5
B61
  8
0
  6
CONTINUOUS
 62
     0
 10
31.115849080650829
 20
33.196508905823507
 30
0.0
  0
SEQEND
  5
B62
  8
0
  6
CONTINUOUS
 62
     0
  0
POLYLINE
  5
6FF
  8
0
  6
CONTINUOUS
 62
     0
 66
     1
 10
0.0
 20
0.0
 30
0.0
  0
VERTEX
  5
B63
  8
0
  6
CONTINUOUS
 62
     0
 10
31.115849080650829
 20
27.423006213927248
 30
0.0
  0
VERTEX
  5
B64
  8
0
  6
CONTINUOUS
 62
     0
 10
31.115849080650829
 20
27.929600618914481
 30
0.0
  0
VERTEX
  5
B65
  8
0
  6
CONTINUOUS
 62
     0
 10
31.115849080650829
 20
28.895219590860162
 30
0.0
  0
VERTEX
  5
B66
  8
0
  6
CONTINUOUS
 62
     0
 10
31.115849080650829
 20
29.835043652989491
 30
0.0
  0
VERTEX
  5
B67
  8
0
  6
CONTINUOUS
 62
     0
 10
31.115849080650829
 20
30.309757559875379
 30
0.0
  0
SEQEND
  5
B68
  8
0
  6
CONTINUOUS
 62
     0
  0
POLYLINE
  5
700
  8
0
  6
CONTINUOUS
 62
     0
 66
     1
 10
0.0
 20
0.0
 30
0.0
  0
VERTEX
  5
B69
  8
0
  6
CONTINUOUS
 62
     0
 10
28.615849080650829
 20
25.979630540953181
 30
0.0
  0
VERTEX
  5
B6A
  8
0
  6
CONTINUOUS
 62
     0
 10
29.026963383544398
 20
26.216987494396498
 30
0.0
  0
VERTEX
  5
B6B
  8
0
  6
CONTINUOUS
 62
     0
 10
29.840874896436699
 20
26.686899525461399
 30
0.0
  0
VERTEX
  5
B6C
  8
0
  6
CONTINUOUS
 62
     0
 10
30.677125456517391
 20
27.169709011433952
 30
0.0
  0
VERTEX
  5
B6D
  8
0
  6
CONTINUOUS
 62
     0
 10
31.115849080650829
 20
27.423006213927248
 30
0.0
  0
SEQEND
  5
B6E
  8
0
  6
CONTINUOUS
 62
     0
  0
POLYLINE
  5
701
  8
0
  6
CONTINUOUS
 62
     0
 66
     1
 10
0.0
 20
0.0
 30
0.0
  0
VERTEX
  5
B6F
  8
0
  6
CONTINUOUS
 62
     0
 10
26.115849080650829
 20
24.536254867979132
 30
0.0
  0
VERTEX
  5
B70
  8
0
  6
CONTINUOUS
 62
     0
 10
26.554572704784849
 20
24.789552070472741
 30
0.0
  0
VERTEX
  5
B71
  8
0
  6
CONTINUOUS
 62
     0
 10
27.390823264866011
 20
25.272361556445571
 30
0.0
  0
VERTEX
  5
B72
  8
0
  6
CONTINUOUS
 62
     0
 10
28.204734777757889
 20
25.74227358751024
 30
0.0
  0
VERTEX
  5
B73
  8
0
  6
CONTINUOUS
 62
     0
 10
28.615849080650829
 20
25.979630540953181
 30
0.0
  0
SEQEND
  5
B74
  8
0
  6
CONTINUOUS
 62
     0
  0
CIRCLE
  5
702
  8
0
  6
CONTINUOUS
 62
     0
 10
26.115849080650829
 20
30.309757559875379
 30
0.0
 40
3.0
  0
CIRCLE
  5
70D
  8
0
  6
CONTINUOUS
 62
     0
 10
26.115849080650829
 20
30.309757559875379
 30
0.0
 40
1.5
  0
CIRCLE
  5
70E
  8
0
  6
CONTINUOUS
 62
     0
 10
26.115849080650829
 20
30.309757559875379
 30
0.0
 40
1.1769870379867231
  0
CIRCLE
  5
70F
  8
0
  6
CONTINUOUS
 62
     0
 10
26.115849080650829
 20
30.309757559875379
 30
0.0
 40
7.0
  0
LINE
  5
77A
  8
1
 10
100.1902016975212
 20
30.309757559875379
 30
0.0
 11
62.272933110532719
 21
30.309757559875379
 31
0.0
  0
LINE
  5
77B
  8
0
  6
CONTINUOUS
 62
     0
 10
79.190201697521275
 20
33.309757559875379
 30
0.0
 11
79.190201697521275
 21
32.696257559875377
 31
0.0
  0
LINE
  5
77C
  8
3
 10
69.190201697521275
 20
32.696257559875392
 30
0.0
 11
73.690201697521275
 21
32.696257559875392
 31
0.0
  0
LINE
  5
77D
  8
0
  6
CONTINUOUS
 62
     0
 10
79.190201697521275
 20
27.309757559875379
 30
0.0
 11
79.190201697521275
 21
33.309757559875379
 31
0.0
  0
LINE
  5
77E
  8
0
  6
CONTINUOUS
 62
     0
 10
79.190201697521275
 20
27.309757559875379
 30
0.0
 11
79.190201697521275
 21
27.923257559875381
 31
0.0
  0
LINE
  5
77F
  8
3
 10
69.190201697521275
 20
27.923257559875399
 30
0.0
 11
73.690201697521275
 21
27.923257559875388
 31
0.0
  0
LINE
  5
780
  8
0
  6
CONTINUOUS
 62
     0
 10
85.917613876808275
 20
28.309757559875379
 30
0.0
 11
86.190201697521275
 21
28.309757559875379
 31
0.0
  0
LINE
  5
781
  8
0
  6
CONTINUOUS
 62
     0
 10
86.190201697521275
 20
32.309757559875379
 30
0.0
 11
85.917613876808176
 21
32.309757559875379
 31
0.0
  0
POLYLINE
  5
782
  8
0
  6
CONTINUOUS
 62
     0
 66
     1
 10
0.0
 20
0.0
 30
0.0
  0
VERTEX
  5
B75
  8
0
  6
CONTINUOUS
 62
     0
 10
86.190201697521275
 20
26.845655944737629
 30
0.0
  0
VERTEX
  5
B76
  8
0
  6
CONTINUOUS
 62
     0
 10
86.189911171257336
 20
26.877380947563651
 30
0.0
  0
VERTEX
  5
B77
  8
0
  6
CONTINUOUS
 62
     0
 10
86.187605137255517
 20
26.940523247873841
 30
0.0
  0
VERTEX
  5
B78
  8
0
  6
CONTINUOUS
 62
     0
 10
86.183035464095056
 20
27.003336244593299
 30
0.0
  0
VERTEX
  5
B79
  8
0
  6
CONTINUOUS
 62
     0
 10
86.179913629112292
 20
27.034648795544669
 30
0.0
  0
VERTEX
  5
B7A
  8
0
  6
CONTINUOUS
 62
     0
 10
86.176239222223415
 20
27.0659140802703
 30
0.0
  0
VERTEX
  5
B7B
  8
0
  6
CONTINUOUS
 62
     0
 10
86.167246380486972
 20
27.128347933924129
 30
0.0
  0
VERTEX
  5
B7C
  8
0
  6
CONTINUOUS
 62
     0
 10
86.156080152858195
 20
27.190726528585099
 30
0.0
  0
VERTEX
  5
B7D
  8
0
  6
CONTINUOUS
 62
     0
 10
86.142757286956453
 20
27.253136604816451
 30
0.0
  0
VERTEX
  5
B7E
  8
0
  6
CONTINUOUS
 62
     0
 10
86.127288299319048
 20
27.315663366043349
 30
0.0
  0
VERTEX
  5
B7F
  8
0
  6
CONTINUOUS
 62
     0
 10
86.109677661496875
 20
27.378390900915889
 30
0.0
  0
VERTEX
  5
B80
  8
0
  6
CONTINUOUS
 62
     0
 10
86.10006900360392
 20
27.409856031109459
 30
0.0
  0
VERTEX
  5
B81
  8
0
  6
CONTINUOUS
 62
     0
 10
86.089923940272485
 20
27.44140258744638
 30
0.0
  0
VERTEX
  5
B82
  8
0
  6
CONTINUOUS
 62
     0
 10
86.06801989460493
 20
27.504781483271561
 30
0.0
  0
VERTEX
  5
B83
  8
0
  6
CONTINUOUS
 62
     0
 10
86.043952531281633
 20
27.56861070608478
 30
0.0
  0
VERTEX
  5
B84
  8
0
  6
CONTINUOUS
 62
     0
 10
86.017703120682455
 20
27.632973808053809
 30
0.0
  0
VERTEX
  5
B85
  8
0
  6
CONTINUOUS
 62
     0
 10
85.989247173527474
 20
27.697955147877661
 30
0.0
  0
VERTEX
  5
B86
  8
0
  6
CONTINUOUS
 62
     0
 10
85.958554378970092
 20
27.763640264037829
 30
0.0
  0
VERTEX
  5
B87
  8
0
  6
CONTINUOUS
 62
     0
 10
85.942358075965558
 20
27.79677388447675
 30
0.0
  0
VERTEX
  5
B88
  8
0
  6
CONTINUOUS
 62
     0
 10
85.925588503905217
 20
27.830116252759321
 30
0.0
  0
VERTEX
  5
B89
  8
0
  6
CONTINUOUS
 62
     0
 10
85.890307252873924
 20
27.89747215421643
 30
0.0
  0
VERTEX
  5
B8A
  8
0
  6
CONTINUOUS
 62
     0
 10
85.852662087454036
 20
27.965799350592629
 30
0.0
  0
VERTEX
  5
B8B
  8
0
  6
CONTINUOUS
 62
     0
 10
85.832936107613108
 20
28.000356483116882
 30
0.0
  0
SEQEND
  5
B8C
  8
0
  6
CONTINUOUS
 62
     0
  0
POLYLINE
  5
783
  8
0
  6
CONTINUOUS
 62
     0
 66
     1
 10
0.0
 20
0.0
 30
0.0
  0
VERTEX
  5
B8D
  8
0
  6
CONTINUOUS
 62
     0
 10
85.832936107613108
 20
28.000356483116882
 30
0.0
  0
VERTEX
  5
B8E
  8
0
  6
CONTINUOUS
 62
     0
 10
85.847905497833665
 20
28.052658683499931
 30
0.0
  0
VERTEX
  5
B8F
  8
0
  6
CONTINUOUS
 62
     0
 10
85.876807594021884
 20
28.156350103597681
 30
0.0
  0
VERTEX
  5
B90
  8
0
  6
CONTINUOUS
 62
     0
 10
85.904347600508956
 20
28.258892315410751
 30
0.0
  0
VERTEX
  5
B91
  8
0
  6
CONTINUOUS
 62
     0
 10
85.917613876808176
 20
28.309757559875379
 30
0.0
  0
SEQEND
  5
B92
  8
0
  6
CONTINUOUS
 62
     0
  0
LINE
  5
784
  8
0
  6
CONTINUOUS
 62
     0
 10
86.190201697521275
 20
34.309757559875379
 30
0.0
 11
86.190201697521275
 21
32.009757559875382
 31
0.0
  0
LINE
  5
785
  8
0
  6
CONTINUOUS
 62
     0
 10
86.190201697521275
 20
32.009757559875382
 30
0.0
 11
82.190201697521275
 21
32.009757559875382
 31
0.0
  0
LINE
  5
786
  8
0
  6
CONTINUOUS
 62
     0
 10
82.190201697521275
 20
32.009757559875382
 30
0.0
 11
82.190201697521275
 21
28.60975755987538
 31
0.0
  0
LINE
  5
787
  8
0
  6
CONTINUOUS
 62
     0
 10
86.190201697521275
 20
28.60975755987538
 30
0.0
 11
82.190201697521275
 21
28.60975755987538
 31
0.0
  0
LINE
  5
788
  8
0
  6
CONTINUOUS
 62
     0
 10
86.190201697521275
 20
28.60975755987538
 30
0.0
 11
86.190201697521275
 21
26.309757559875379
 31
0.0
  0
POLYLINE
  5
789
  8
0
  6
CONTINUOUS
 62
     0
 66
     1
 10
0.0
 20
0.0
 30
0.0
  0
VERTEX
  5
B93
  8
0
  6
CONTINUOUS
 62
     0
 10
86.190201697521275
 20
28.309757559875379
 30
0.0
  0
VERTEX
  5
B94
  8
0
  6
CONTINUOUS
 62
     0
 10
86.147421382666906
 20
28.309757559875379
 30
0.0
  0
VERTEX
  5
B95
  8
0
  6
CONTINUOUS
 62
     0
 10
86.058766695857287
 20
28.309757559875379
 30
0.0
  0
VERTEX
  5
B96
  8
0
  6
CONTINUOUS
 62
     0
 10
85.965795347318533
 20
28.309757559875379
 30
0.0
  0
VERTEX
  5
B97
  8
0
  6
CONTINUOUS
 62
     0
 10
85.917613876808275
 20
28.309757559875379
 30
0.0
  0
SEQEND
  5
B98
  8
0
  6
CONTINUOUS
 62
     0
  0
LINE
  5
78A
  8
0
  6
CONTINUOUS
 62
     0
 10
85.917613876808275
 20
28.309757559875379
 30
0.0
 11
81.990201697521258
 21
28.309757559875379
 31
0.0
  0
POLYLINE
  5
78B
  8
0
  6
CONTINUOUS
 62
     0
 66
     1
 10
0.0
 20
0.0
 30
0.0
  0
VERTEX
  5
B99
  8
0
  6
CONTINUOUS
 62
     0
 10
85.917613876808176
 20
32.309757559875379
 30
0.0
  0
VERTEX
  5
B9A
  8
0
  6
CONTINUOUS
 62
     0
 10
85.965795347318476
 20
32.309757559875379
 30
0.0
  0
VERTEX
  5
B9B
  8
0
  6
CONTINUOUS
 62
     0
 10
86.058766695857244
 20
32.309757559875379
 30
0.0
  0
VERTEX
  5
B9C
  8
0
  6
CONTINUOUS
 62
     0
 10
86.147421382666906
 20
32.309757559875379
 30
0.0
  0
VERTEX
  5
B9D
  8
0
  6
CONTINUOUS
 62
     0
 10
86.190201697521275
 20
32.309757559875379
 30
0.0
  0
SEQEND
  5
B9E
  8
0
  6
CONTINUOUS
 62
     0
  0
LINE
  5
78C
  8
0
  6
CONTINUOUS
 62
     0
 10
81.990201697521258
 20
32.309757559875379
 30
0.0
 11
85.917613876808176
 21
32.309757559875379
 31
0.0
  0
LINE
  5
78D
  8
0
  6
CONTINUOUS
 62
     0
 10
91.990201697521272
 20
34.309757559875379
 30
0.0
 11
91.990201697521272
 21
26.309757559875379
 31
0.0
  0
POLYLINE
  5
78E
  8
0
  6
CONTINUOUS
 62
     0
 66
     1
 10
0.0
 20
0.0
 30
0.0
  0
VERTEX
  5
B9F
  8
0
  6
CONTINUOUS
 62
     0
 10
85.917613876808275
 20
28.309757559875379
 30
0.0
  0
VERTEX
  5
BA0
  8
0
  6
CONTINUOUS
 62
     0
 10
85.904347600508956
 20
28.2588923154103
 30
0.0
  0
VERTEX
  5
BA1
  8
0
  6
CONTINUOUS
 62
     0
 10
85.876807594021756
 20
28.156350103596871
 30
0.0
  0
VERTEX
  5
BA2
  8
0
  6
CONTINUOUS
 62
     0
 10
85.84790549783358
 20
28.05265868349947
 30
0.0
  0
VERTEX
  5
BA3
  8
0
  6
CONTINUOUS
 62
     0
 10
85.832936107613108
 20
28.000356483116882
 30
0.0
  0
SEQEND
  5
BA4
  8
0
  6
CONTINUOUS
 62
     0
  0
POLYLINE
  5
78F
  8
0
  6
CONTINUOUS
 62
     0
 66
     1
 10
0.0
 20
0.0
 30
0.0
  0
VERTEX
  5
BA5
  8
0
  6
CONTINUOUS
 62
     0
 10
85.832936107613108
 20
28.000356483116882
 30
0.0
  0
VERTEX
  5
BA6
  8
0
  6
CONTINUOUS
 62
     0
 10
85.852662087454036
 20
27.965799350592508
 30
0.0
  0
VERTEX
  5
BA7
  8
0
  6
CONTINUOUS
 62
     0
 10
85.890307252873896
 20
27.897472154216079
 30
0.0
  0
VERTEX
  5
BA8
  8
0
  6
CONTINUOUS
 62
     0
 10
85.925588503905203
 20
27.83011625275876
 30
0.0
  0
VERTEX
  5
BA9
  8
0
  6
CONTINUOUS
 62
     0
 10
85.942358075965515
 20
27.796773884476082
 30
0.0
  0
VERTEX
  5
BAA
  8
0
  6
CONTINUOUS
 62
     0
 10
85.958554378970064
 20
27.763640264037079
 30
0.0
  0
VERTEX
  5
BAB
  8
0
  6
CONTINUOUS
 62
     0
 10
85.989247173527417
 20
27.697955147876769
 30
0.0
  0
VERTEX
  5
BAC
  8
0
  6
CONTINUOUS
 62
     0
 10
86.017703120682427
 20
27.632973808052771
 30
0.0
  0
VERTEX
  5
BAD
  8
0
  6
CONTINUOUS
 62
     0
 10
86.043952531281604
 20
27.56861070608365
 30
0.0
  0
VERTEX
  5
BAE
  8
0
  6
CONTINUOUS
 62
     0
 10
86.068019894604916
 20
27.504781483270332
 30
0.0
  0
VERTEX
  5
BAF
  8
0
  6
CONTINUOUS
 62
     0
 10
86.089923940272456
 20
27.441402587445129
 30
0.0
  0
VERTEX
  5
BB0
  8
0
  6
CONTINUOUS
 62
     0
 10
86.10006900360392
 20
27.40985603110818
 30
0.0
  0
VERTEX
  5
BB1
  8
0
  6
CONTINUOUS
 62
     0
 10
86.109677661496875
 20
27.37839090091461
 30
0.0
  0
VERTEX
  5
BB2
  8
0
  6
CONTINUOUS
 62
     0
 10
86.127288299319048
 20
27.315663366042092
 30
0.0
  0
VERTEX
  5
BB3
  8
0
  6
CONTINUOUS
 62
     0
 10
86.142757286956453
 20
27.253136604815239
 30
0.0
  0
VERTEX
  5
BB4
  8
0
  6
CONTINUOUS
 62
     0
 10
86.156080152858181
 20
27.19072652858398
 30
0.0
  0
VERTEX
  5
BB5
  8
0
  6
CONTINUOUS
 62
     0
 10
86.167246380486972
 20
27.128347933923131
 30
0.0
  0
VERTEX
  5
BB6
  8
0
  6
CONTINUOUS
 62
     0
 10
86.176239222223415
 20
27.06591408026944
 30
0.0
  0
VERTEX
  5
BB7
  8
0
  6
CONTINUOUS
 62
     0
 10
86.179913629112292
 20
27.034648795543919
 30
0.0
  0
VERTEX
  5
BB8
  8
0
  6
CONTINUOUS
 62
     0
 10
86.183035464095056
 20
27.003336244592631
 30
0.0
  0
VERTEX
  5
BB9
  8
0
  6
CONTINUOUS
 62
     0
 10
86.187605137255517
 20
26.940523247873401
 30
0.0
  0
VERTEX
  5
BBA
  8
0
  6
CONTINUOUS
 62
     0
 10
86.189911171257336
 20
26.877380947563498
 30
0.0
  0
VERTEX
  5
BBB
  8
0
  6
CONTINUOUS
 62
     0
 10
86.190201697521275
 20
26.845655944737629
 30
0.0
  0
SEQEND
  5
BBC
  8
0
  6
CONTINUOUS
 62
     0
  0
POLYLINE
  5
790
  8
0
  6
CONTINUOUS
 62
     0
 66
     1
 10
0.0
 20
0.0
 30
0.0
  0
VERTEX
  5
BBD
  8
0
  6
CONTINUOUS
 62
     0
 10
73.971733653496273
 20
36.083260251771627
 30
0.0
  0
VERTEX
  5
BBE
  8
0
  6
CONTINUOUS
 62
     0
 10
73.885876476285603
 20
35.829963049278021
 30
0.0
  0
VERTEX
  5
BBF
  8
0
  6
CONTINUOUS
 62
     0
 10
73.761627479948999
 20
35.347153563305191
 30
0.0
  0
VERTEX
  5
BC0
  8
0
  6
CONTINUOUS
 62
     0
 10
73.698385485558532
 20
34.877241532240518
 30
0.0
  0
VERTEX
  5
BC1
  8
0
  6
CONTINUOUS
 62
     0
 10
73.690201697521275
 20
34.639884578797577
 30
0.0
  0
SEQEND
  5
BC2
  8
0
  6
CONTINUOUS
 62
     0
  0
LINE
  5
791
  8
0
  6
CONTINUOUS
 62
     0
 10
76.408669741546248
 20
36.083260251771627
 30
0.0
 11
73.971733653496273
 21
36.083260251771627
 31
0.0
  0
POLYLINE
  5
792
  8
0
  6
CONTINUOUS
 62
     0
 66
     1
 10
0.0
 20
0.0
 30
0.0
  0
VERTEX
  5
BC3
  8
0
  6
CONTINUOUS
 62
     0
 10
76.690201697521275
 20
34.639884578797577
 30
0.0
  0
VERTEX
  5
BC4
  8
0
  6
CONTINUOUS
 62
     0
 10
76.682017909483989
 20
34.877241532240888
 30
0.0
  0
VERTEX
  5
BC5
  8
0
  6
CONTINUOUS
 62
     0
 10
76.618775915093551
 20
35.347153563305788
 30
0.0
  0
VERTEX
  5
BC6
  8
0
  6
CONTINUOUS
 62
     0
 10
76.494526918756947
 20
35.829963049278341
 30
0.0
  0
VERTEX
  5
BC7
  8
0
  6
CONTINUOUS
 62
     0
 10
76.408669741546248
 20
36.083260251771627
 30
0.0
  0
SEQEND
  5
BC8
  8
0
  6
CONTINUOUS
 62
     0
  0
POLYLINE
  5
793
  8
0
  6
CONTINUOUS
 62
     0
 66
     1
 10
0.0
 20
0.0
 30
0.0
  0
VERTEX
  5
BC9
  8
0
  6
CONTINUOUS
 62
     0
 10
76.408669741546248
 20
33.196508905823507
 30
0.0
  0
VERTEX
  5
BCA
  8
0
  6
CONTINUOUS
 62
     0
 10
76.494526918756904
 20
33.449806108317119
 30
0.0
  0
VERTEX
  5
BCB
  8
0
  6
CONTINUOUS
 62
     0
 10
76.618775915093551
 20
33.932615594289963
 30
0.0
  0
VERTEX
  5
BCC
  8
0
  6
CONTINUOUS
 62
     0
 10
76.682017909483989
 20
34.402527625354622
 30
0.0
  0
VERTEX
  5
BCD
  8
0
  6
CONTINUOUS
 62
     0
 10
76.690201697521275
 20
34.639884578797577
 30
0.0
  0
SEQEND
  5
BCE
  8
0
  6
CONTINUOUS
 62
     0
  0
POLYLINE
  5
794
  8
0
  6
CONTINUOUS
 62
     0
 66
     1
 10
0.0
 20
0.0
 30
0.0
  0
VERTEX
  5
BCF
  8
0
  6
CONTINUOUS
 62
     0
 10
73.690201697521275
 20
34.639884578797577
 30
0.0
  0
VERTEX
  5
BD0
  8
0
  6
CONTINUOUS
 62
     0
 10
73.698385485558532
 20
34.402527625354267
 30
0.0
  0
VERTEX
  5
BD1
  8
0
  6
CONTINUOUS
 62
     0
 10
73.76162747994897
 20
33.932615594289359
 30
0.0
  0
VERTEX
  5
BD2
  8
0
  6
CONTINUOUS
 62
     0
 10
73.885876476285603
 20
33.449806108316807
 30
0.0
  0
VERTEX
  5
BD3
  8
0
  6
CONTINUOUS
 62
     0
 10
73.971733653496273
 20
33.196508905823507
 30
0.0
  0
SEQEND
  5
BD4
  8
0
  6
CONTINUOUS
 62
     0
  0
POLYLINE
  5
795
  8
0
  6
CONTINUOUS
 62
     0
 66
     1
 10
0.0
 20
0.0
 30
0.0
  0
VERTEX
  5
BD5
  8
0
  6
CONTINUOUS
 62
     0
 10
73.971733653496273
 20
27.423006213927248
 30
0.0
  0
VERTEX
  5
BD6
  8
0
  6
CONTINUOUS
 62
     0
 10
73.885876476285603
 20
27.169709011433639
 30
0.0
  0
VERTEX
  5
BD7
  8
0
  6
CONTINUOUS
 62
     0
 10
73.761627479948999
 20
26.686899525460799
 30
0.0
  0
VERTEX
  5
BD8
  8
0
  6
CONTINUOUS
 62
     0
 10
73.698385485558532
 20
26.21698749439614
 30
0.0
  0
VERTEX
  5
BD9
  8
0
  6
CONTINUOUS
 62
     0
 10
73.690201697521275
 20
25.979630540953181
 30
0.0
  0
SEQEND
  5
BDA
  8
0
  6
CONTINUOUS
 62
     0
  0
POLYLINE
  5
796
  8
0
  6
CONTINUOUS
 62
     0
 66
     1
 10
0.0
 20
0.0
 30
0.0
  0
VERTEX
  5
BDB
  8
0
  6
CONTINUOUS
 62
     0
 10
76.690201697521275
 20
25.979630540953181
 30
0.0
  0
VERTEX
  5
BDC
  8
0
  6
CONTINUOUS
 62
     0
 10
76.682017909483989
 20
26.216987494396491
 30
0.0
  0
VERTEX
  5
BDD
  8
0
  6
CONTINUOUS
 62
     0
 10
76.618775915093551
 20
26.686899525461399
 30
0.0
  0
VERTEX
  5
BDE
  8
0
  6
CONTINUOUS
 62
     0
 10
76.494526918756947
 20
27.169709011433952
 30
0.0
  0
VERTEX
  5
BDF
  8
0
  6
CONTINUOUS
 62
     0
 10
76.408669741546248
 20
27.423006213927248
 30
0.0
  0
SEQEND
  5
BE0
  8
0
  6
CONTINUOUS
 62
     0
  0
POLYLINE
  5
797
  8
0
  6
CONTINUOUS
 62
     0
 66
     1
 10
0.0
 20
0.0
 30
0.0
  0
VERTEX
  5
BE1
  8
0
  6
CONTINUOUS
 62
     0
 10
76.408669741546248
 20
24.536254867979132
 30
0.0
  0
VERTEX
  5
BE2
  8
0
  6
CONTINUOUS
 62
     0
 10
76.494526918756904
 20
24.789552070472741
 30
0.0
  0
VERTEX
  5
BE3
  8
0
  6
CONTINUOUS
 62
     0
 10
76.618775915093551
 20
25.272361556445571
 30
0.0
  0
VERTEX
  5
BE4
  8
0
  6
CONTINUOUS
 62
     0
 10
76.682017909483989
 20
25.74227358751024
 30
0.0
  0
VERTEX
  5
BE5
  8
0
  6
CONTINUOUS
 62
     0
 10
76.690201697521275
 20
25.979630540953181
 30
0.0
  0
SEQEND
  5
BE6
  8
0
  6
CONTINUOUS
 62
     0
  0
LINE
  5
798
  8
0
  6
CONTINUOUS
 62
     0
 10
76.408669741546248
 20
24.536254867979132
 30
0.0
 11
73.971733653496273
 21
24.536254867979132
 31
0.0
  0
POLYLINE
  5
799
  8
0
  6
CONTINUOUS
 62
     0
 66
     1
 10
0.0
 20
0.0
 30
0.0
  0
VERTEX
  5
BE7
  8
0
  6
CONTINUOUS
 62
     0
 10
73.690201697521275
 20
25.979630540953181
 30
0.0
  0
VERTEX
  5
BE8
  8
0
  6
CONTINUOUS
 62
     0
 10
73.698385485558532
 20
25.742273587509871
 30
0.0
  0
VERTEX
  5
BE9
  8
0
  6
CONTINUOUS
 62
     0
 10
73.761627479948999
 20
25.272361556444981
 30
0.0
  0
VERTEX
  5
BEA
  8
0
  6
CONTINUOUS
 62
     0
 10
73.885876476285603
 20
24.789552070472421
 30
0.0
  0
VERTEX
  5
BEB
  8
0
  6
CONTINUOUS
 62
     0
 10
73.971733653496273
 20
24.536254867979132
 30
0.0
  0
SEQEND
  5
BEC
  8
0
  6
CONTINUOUS
 62
     0
  0
POLYLINE
  5
79A
  8
0
  6
CONTINUOUS
 62
     0
 66
     1
 10
0.0
 20
0.0
 30
0.0
  0
VERTEX
  5
BED
  8
0
  6
CONTINUOUS
 62
     0
 10
73.971733653496273
 20
33.196508905823507
 30
0.0
  0
VERTEX
  5
BEE
  8
0
  6
CONTINUOUS
 62
     0
 10
73.885876476285603
 20
32.689914500836281
 30
0.0
  0
VERTEX
  5
BEF
  8
0
  6
CONTINUOUS
 62
     0
 10
73.761627479948999
 20
31.7242955288906
 30
0.0
  0
VERTEX
  5
BF0
  8
0
  6
CONTINUOUS
 62
     0
 10
73.698385485558532
 20
30.784471466761261
 30
0.0
  0
VERTEX
  5
BF1
  8
0
  6
CONTINUOUS
 62
     0
 10
73.690201697521275
 20
30.309757559875379
 30
0.0
  0
SEQEND
  5
BF2
  8
0
  6
CONTINUOUS
 62
     0
  0
POLYLINE
  5
79B
  8
0
  6
CONTINUOUS
 62
     0
 66
     1
 10
0.0
 20
0.0
 30
0.0
  0
VERTEX
  5
BF3
  8
0
  6
CONTINUOUS
 62
     0
 10
76.690201697521275
 20
30.309757559875379
 30
0.0
  0
VERTEX
  5
BF4
  8
0
  6
CONTINUOUS
 62
     0
 10
76.682017909483989
 20
30.784471466762
 30
0.0
  0
VERTEX
  5
BF5
  8
0
  6
CONTINUOUS
 62
     0
 10
76.618775915093551
 20
31.724295528891819
 30
0.0
  0
VERTEX
  5
BF6
  8
0
  6
CONTINUOUS
 62
     0
 10
76.494526918756947
 20
32.689914500836913
 30
0.0
  0
VERTEX
  5
BF7
  8
0
  6
CONTINUOUS
 62
     0
 10
76.408669741546248
 20
33.196508905823507
 30
0.0
  0
SEQEND
  5
BF8
  8
0
  6
CONTINUOUS
 62
     0
  0
POLYLINE
  5
79C
  8
0
  6
CONTINUOUS
 62
     0
 66
     1
 10
0.0
 20
0.0
 30
0.0
  0
VERTEX
  5
BF9
  8
0
  6
CONTINUOUS
 62
     0
 10
76.408669741546248
 20
27.423006213927248
 30
0.0
  0
VERTEX
  5
BFA
  8
0
  6
CONTINUOUS
 62
     0
 10
76.494526918756904
 20
27.929600618914481
 30
0.0
  0
VERTEX
  5
BFB
  8
0
  6
CONTINUOUS
 62
     0
 10
76.618775915093551
 20
28.895219590860169
 30
0.0
  0
VERTEX
  5
BFC
  8
0
  6
CONTINUOUS
 62
     0
 10
76.682017909483989
 20
29.835043652989501
 30
0.0
  0
VERTEX
  5
BFD
  8
0
  6
CONTINUOUS
 62
     0
 10
76.690201697521275
 20
30.309757559875379
 30
0.0
  0
SEQEND
  5
BFE
  8
0
  6
CONTINUOUS
 62
     0
  0
POLYLINE
  5
79D
  8
0
  6
CONTINUOUS
 62
     0
 66
     1
 10
0.0
 20
0.0
 30
0.0
  0
VERTEX
  5
BFF
  8
0
  6
CONTINUOUS
 62
     0
 10
73.690201697521275
 20
30.309757559875379
 30
0.0
  0
VERTEX
  5
C00
  8
0
  6
CONTINUOUS
 62
     0
 10
73.698385485558532
 20
29.835043652988759
 30
0.0
  0
VERTEX
  5
C01
  8
0
  6
CONTINUOUS
 62
     0
 10
73.761627479948999
 20
28.89521959085895
 30
0.0
  0
VERTEX
  5
C02
  8
0
  6
CONTINUOUS
 62
     0
 10
73.885876476285603
 20
27.929600618913849
 30
0.0
  0
VERTEX
  5
C03
  8
0
  6
CONTINUOUS
 62
     0
 10
73.971733653496273
 20
27.423006213927248
 30
0.0
  0
SEQEND
  5
C04
  8
0
  6
CONTINUOUS
 62
     0
  0
POLYLINE
  5
79E
  8
0
  6
CONTINUOUS
 62
     0
 66
     1
 10
0.0
 20
0.0
 30
0.0
  0
VERTEX
  5
C05
  8
0
  6
CONTINUOUS
 62
     0
 10
73.690201697521275
 20
25.979630540953181
 30
0.0
  0
VERTEX
  5
C06
  8
0
  6
CONTINUOUS
 62
     0
 10
73.698385485558532
 20
26.216987494396491
 30
0.0
  0
VERTEX
  5
C07
  8
0
  6
CONTINUOUS
 62
     0
 10
73.76162747994897
 20
26.686899525461399
 30
0.0
  0
VERTEX
  5
C08
  8
0
  6
CONTINUOUS
 62
     0
 10
73.885876476285603
 20
27.169709011433952
 30
0.0
  0
VERTEX
  5
C09
  8
0
  6
CONTINUOUS
 62
     0
 10
73.971733653496273
 20
27.423006213927248
 30
0.0
  0
SEQEND
  5
C0A
  8
0
  6
CONTINUOUS
 62
     0
  0
POLYLINE
  5
79F
  8
0
  6
CONTINUOUS
 62
     0
 66
     1
 10
0.0
 20
0.0
 30
0.0
  0
VERTEX
  5
C0B
  8
0
  6
CONTINUOUS
 62
     0
 10
73.971733653496273
 20
24.536254867979132
 30
0.0
  0
VERTEX
  5
C0C
  8
0
  6
CONTINUOUS
 62
     0
 10
73.885876476285603
 20
24.789552070472741
 30
0.0
  0
VERTEX
  5
C0D
  8
0
  6
CONTINUOUS
 62
     0
 10
73.761627479948999
 20
25.272361556445571
 30
0.0
  0
VERTEX
  5
C0E
  8
0
  6
CONTINUOUS
 62
     0
 10
73.698385485558532
 20
25.74227358751024
 30
0.0
  0
VERTEX
  5
C0F
  8
0
  6
CONTINUOUS
 62
     0
 10
73.690201697521275
 20
25.979630540953181
 30
0.0
  0
SEQEND
  5
C10
  8
0
  6
CONTINUOUS
 62
     0
  0
POLYLINE
  5
7A0
  8
0
  6
CONTINUOUS
 62
     0
 66
     1
 10
0.0
 20
0.0
 30
0.0
  0
VERTEX
  5
C11
  8
0
  6
CONTINUOUS
 62
     0
 10
76.690201697521275
 20
25.979630540953181
 30
0.0
  0
VERTEX
  5
C12
  8
0
  6
CONTINUOUS
 62
     0
 10
76.682017909483989
 20
25.742273587509871
 30
0.0
  0
VERTEX
  5
C13
  8
0
  6
CONTINUOUS
 62
     0
 10
76.618775915093551
 20
25.272361556444981
 30
0.0
  0
VERTEX
  5
C14
  8
0
  6
CONTINUOUS
 62
     0
 10
76.494526918756947
 20
24.789552070472421
 30
0.0
  0
VERTEX
  5
C15
  8
0
  6
CONTINUOUS
 62
     0
 10
76.408669741546248
 20
24.536254867979132
 30
0.0
  0
SEQEND
  5
C16
  8
0
  6
CONTINUOUS
 62
     0
  0
POLYLINE
  5
7A1
  8
0
  6
CONTINUOUS
 62
     0
 66
     1
 10
0.0
 20
0.0
 30
0.0
  0
VERTEX
  5
C17
  8
0
  6
CONTINUOUS
 62
     0
 10
76.408669741546248
 20
27.423006213927248
 30
0.0
  0
VERTEX
  5
C18
  8
0
  6
CONTINUOUS
 62
     0
 10
76.494526918756904
 20
27.169709011433639
 30
0.0
  0
VERTEX
  5
C19
  8
0
  6
CONTINUOUS
 62
     0
 10
76.618775915093551
 20
26.686899525460799
 30
0.0
  0
VERTEX
  5
C1A
  8
0
  6
CONTINUOUS
 62
     0
 10
76.682017909483989
 20
26.21698749439614
 30
0.0
  0
VERTEX
  5
C1B
  8
0
  6
CONTINUOUS
 62
     0
 10
76.690201697521275
 20
25.979630540953181
 30
0.0
  0
SEQEND
  5
C1C
  8
0
  6
CONTINUOUS
 62
     0
  0
LINE
  5
7A2
  8
0
  6
CONTINUOUS
 62
     0
 10
76.408669741546248
 20
27.423006213927248
 30
0.0
 11
73.971733653496273
 21
27.423006213927248
 31
0.0
  0
POLYLINE
  5
7A3
  8
0
  6
CONTINUOUS
 62
     0
 66
     1
 10
0.0
 20
0.0
 30
0.0
  0
VERTEX
  5
C1D
  8
0
  6
CONTINUOUS
 62
     0
 10
73.690201697521275
 20
30.309757559875379
 30
0.0
  0
VERTEX
  5
C1E
  8
0
  6
CONTINUOUS
 62
     0
 10
73.698385485558532
 20
30.784471466762
 30
0.0
  0
VERTEX
  5
C1F
  8
0
  6
CONTINUOUS
 62
     0
 10
73.761627479948999
 20
31.724295528891819
 30
0.0
  0
VERTEX
  5
C20
  8
0
  6
CONTINUOUS
 62
     0
 10
73.885876476285603
 20
32.689914500836913
 30
0.0
  0
VERTEX
  5
C21
  8
0
  6
CONTINUOUS
 62
     0
 10
73.971733653496273
 20
33.196508905823507
 30
0.0
  0
SEQEND
  5
C22
  8
0
  6
CONTINUOUS
 62
     0
  0
POLYLINE
  5
7A4
  8
0
  6
CONTINUOUS
 62
     0
 66
     1
 10
0.0
 20
0.0
 30
0.0
  0
VERTEX
  5
C23
  8
0
  6
CONTINUOUS
 62
     0
 10
73.971733653496273
 20
27.423006213927248
 30
0.0
  0
VERTEX
  5
C24
  8
0
  6
CONTINUOUS
 62
     0
 10
73.885876476285603
 20
27.929600618914481
 30
0.0
  0
VERTEX
  5
C25
  8
0
  6
CONTINUOUS
 62
     0
 10
73.761627479948999
 20
28.895219590860169
 30
0.0
  0
VERTEX
  5
C26
  8
0
  6
CONTINUOUS
 62
     0
 10
73.698385485558532
 20
29.83504365298948
 30
0.0
  0
VERTEX
  5
C27
  8
0
  6
CONTINUOUS
 62
     0
 10
73.690201697521275
 20
30.309757559875379
 30
0.0
  0
SEQEND
  5
C28
  8
0
  6
CONTINUOUS
 62
     0
  0
POLYLINE
  5
7A5
  8
0
  6
CONTINUOUS
 62
     0
 66
     1
 10
0.0
 20
0.0
 30
0.0
  0
VERTEX
  5
C29
  8
0
  6
CONTINUOUS
 62
     0
 10
76.690201697521275
 20
30.309757559875379
 30
0.0
  0
VERTEX
  5
C2A
  8
0
  6
CONTINUOUS
 62
     0
 10
76.682017909483989
 20
29.835043652988759
 30
0.0
  0
VERTEX
  5
C2B
  8
0
  6
CONTINUOUS
 62
     0
 10
76.618775915093551
 20
28.89521959085895
 30
0.0
  0
VERTEX
  5
C2C
  8
0
  6
CONTINUOUS
 62
     0
 10
76.494526918756947
 20
27.929600618913849
 30
0.0
  0
VERTEX
  5
C2D
  8
0
  6
CONTINUOUS
 62
     0
 10
76.408669741546248
 20
27.423006213927248
 30
0.0
  0
SEQEND
  5
C2E
  8
0
  6
CONTINUOUS
 62
     0
  0
POLYLINE
  5
7A6
  8
0
  6
CONTINUOUS
 62
     0
 66
     1
 10
0.0
 20
0.0
 30
0.0
  0
VERTEX
  5
C2F
  8
0
  6
CONTINUOUS
 62
     0
 10
76.408669741546248
 20
33.196508905823507
 30
0.0
  0
VERTEX
  5
C30
  8
0
  6
CONTINUOUS
 62
     0
 10
76.494526918756904
 20
32.689914500836281
 30
0.0
  0
VERTEX
  5
C31
  8
0
  6
CONTINUOUS
 62
     0
 10
76.618775915093551
 20
31.7242955288906
 30
0.0
  0
VERTEX
  5
C32
  8
0
  6
CONTINUOUS
 62
     0
 10
76.682017909483989
 20
30.784471466761261
 30
0.0
  0
VERTEX
  5
C33
  8
0
  6
CONTINUOUS
 62
     0
 10
76.690201697521275
 20
30.309757559875379
 30
0.0
  0
SEQEND
  5
C34
  8
0
  6
CONTINUOUS
 62
     0
  0
LINE
  5
7A7
  8
0
  6
CONTINUOUS
 62
     0
 10
76.408669741546248
 20
33.196508905823507
 30
0.0
 11
73.971733653496273
 21
33.196508905823507
 31
0.0
  0
POLYLINE
  5
7A8
  8
0
  6
CONTINUOUS
 62
     0
 66
     1
 10
0.0
 20
0.0
 30
0.0
  0
VERTEX
  5
C35
  8
0
  6
CONTINUOUS
 62
     0
 10
73.690201697521275
 20
34.639884578797577
 30
0.0
  0
VERTEX
  5
C36
  8
0
  6
CONTINUOUS
 62
     0
 10
73.698385485558532
 20
34.877241532240888
 30
0.0
  0
VERTEX
  5
C37
  8
0
  6
CONTINUOUS
 62
     0
 10
73.761627479948999
 20
35.347153563305788
 30
0.0
  0
VERTEX
  5
C38
  8
0
  6
CONTINUOUS
 62
     0
 10
73.885876476285603
 20
35.829963049278341
 30
0.0
  0
VERTEX
  5
C39
  8
0
  6
CONTINUOUS
 62
     0
 10
73.971733653496273
 20
36.083260251771627
 30
0.0
  0
SEQEND
  5
C3A
  8
0
  6
CONTINUOUS
 62
     0
  0
POLYLINE
  5
7A9
  8
0
  6
CONTINUOUS
 62
     0
 66
     1
 10
0.0
 20
0.0
 30
0.0
  0
VERTEX
  5
C3B
  8
0
  6
CONTINUOUS
 62
     0
 10
73.971733653496273
 20
33.196508905823507
 30
0.0
  0
VERTEX
  5
C3C
  8
0
  6
CONTINUOUS
 62
     0
 10
73.885876476285603
 20
33.449806108317119
 30
0.0
  0
VERTEX
  5
C3D
  8
0
  6
CONTINUOUS
 62
     0
 10
73.761627479948999
 20
33.932615594289963
 30
0.0
  0
VERTEX
  5
C3E
  8
0
  6
CONTINUOUS
 62
     0
 10
73.698385485558532
 20
34.402527625354622
 30
0.0
  0
VERTEX
  5
C3F
  8
0
  6
CONTINUOUS
 62
     0
 10
73.690201697521275
 20
34.639884578797577
 30
0.0
  0
SEQEND
  5
C40
  8
0
  6
CONTINUOUS
 62
     0
  0
POLYLINE
  5
7AA
  8
0
  6
CONTINUOUS
 62
     0
 66
     1
 10
0.0
 20
0.0
 30
0.0
  0
VERTEX
  5
C41
  8
0
  6
CONTINUOUS
 62
     0
 10
76.690201697521275
 20
34.639884578797577
 30
0.0
  0
VERTEX
  5
C42
  8
0
  6
CONTINUOUS
 62
     0
 10
76.682017909483989
 20
34.402527625354267
 30
0.0
  0
VERTEX
  5
C43
  8
0
  6
CONTINUOUS
 62
     0
 10
76.618775915093551
 20
33.932615594289359
 30
0.0
  0
VERTEX
  5
C44
  8
0
  6
CONTINUOUS
 62
     0
 10
76.494526918756947
 20
33.449806108316807
 30
0.0
  0
VERTEX
  5
C45
  8
0
  6
CONTINUOUS
 62
     0
 10
76.408669741546248
 20
33.196508905823507
 30
0.0
  0
SEQEND
  5
C46
  8
0
  6
CONTINUOUS
 62
     0
  0
POLYLINE
  5
7AB
  8
0
  6
CONTINUOUS
 62
     0
 66
     1
 10
0.0
 20
0.0
 30
0.0
  0
VERTEX
  5
C47
  8
0
  6
CONTINUOUS
 62
     0
 10
76.408669741546248
 20
36.083260251771627
 30
0.0
  0
VERTEX
  5
C48
  8
0
  6
CONTINUOUS
 62
     0
 10
76.494526918756904
 20
35.829963049278021
 30
0.0
  0
VERTEX
  5
C49
  8
0
  6
CONTINUOUS
 62
     0
 10
76.618775915093551
 20
35.347153563305191
 30
0.0
  0
VERTEX
  5
C4A
  8
0
  6
CONTINUOUS
 62
     0
 10
76.682017909483989
 20
34.877241532240518
 30
0.0
  0
VERTEX
  5
C4B
  8
0
  6
CONTINUOUS
 62
     0
 10
76.690201697521275
 20
34.639884578797577
 30
0.0
  0
SEQEND
  5
C4C
  8
0
  6
CONTINUOUS
 62
     0
  0
LINE
  5
7AC
  8
0
  6
CONTINUOUS
 62
     0
 10
73.690201697521275
 20
35.309757559875379
 30
0.0
 11
73.690201697521275
 21
25.309757559875379
 31
0.0
  0
LINE
  5
7AD
  8
0
  6
CONTINUOUS
 62
     0
 10
76.690201697521275
 20
35.309757559875379
 30
0.0
 11
76.690201697521275
 21
25.309757559875379
 31
0.0
  0
POLYLINE
  5
7AE
  8
0
  6
CONTINUOUS
 62
     0
 66
     1
 10
0.0
 20
0.0
 30
0.0
  0
VERTEX
  5
C4D
  8
0
  6
CONTINUOUS
 62
     0
 10
85.832936107613108
 20
32.619158636633877
 30
0.0
  0
VERTEX
  5
C4E
  8
0
  6
CONTINUOUS
 62
     0
 10
85.847905497833665
 20
32.566856436250831
 30
0.0
  0
VERTEX
  5
C4F
  8
0
  6
CONTINUOUS
 62
     0
 10
85.876807594021884
 20
32.463165016153091
 30
0.0
  0
VERTEX
  5
C50
  8
0
  6
CONTINUOUS
 62
     0
 10
85.904347600508956
 20
32.360622804340011
 30
0.0
  0
VERTEX
  5
C51
  8
0
  6
CONTINUOUS
 62
     0
 10
85.917613876808176
 20
32.309757559875379
 30
0.0
  0
SEQEND
  5
C52
  8
0
  6
CONTINUOUS
 62
     0
  0
LINE
  5
7AF
  8
0
  6
CONTINUOUS
 62
     0
 10
85.832936107613108
 20
32.619158636633877
 30
0.0
 11
81.190201697521275
 21
32.619158636633877
 31
0.0
  0
LINE
  5
7B0
  8
0
  6
CONTINUOUS
 62
     0
 10
85.832936107613108
 20
28.000356483116882
 30
0.0
 11
81.190201697521275
 21
28.000356483116882
 31
0.0
  0
LINE
  5
7B1
  8
0
  6
CONTINUOUS
 62
     0
 10
81.990201697521258
 20
28.309757559875379
 30
0.0
 11
81.990201697521258
 21
32.309757559875379
 31
0.0
  0
LINE
  5
7B2
  8
0
  6
CONTINUOUS
 62
     0
 10
81.190201697521275
 20
25.69095540635837
 30
0.0
 11
81.190201697521275
 21
34.928559713392389
 31
0.0
  0
LINE
  5
7B3
  8
0
  6
CONTINUOUS
 62
     0
 10
85.832936107613108
 20
25.69095540635837
 30
0.0
 11
81.190201697521275
 21
25.69095540635837
 31
0.0
  0
POLYLINE
  5
7B4
  8
0
  6
CONTINUOUS
 62
     0
 66
     1
 10
0.0
 20
0.0
 30
0.0
  0
VERTEX
  5
C53
  8
0
  6
CONTINUOUS
 62
     0
 10
86.190201697521275
 20
26.845655944737629
 30
0.0
  0
VERTEX
  5
C54
  8
0
  6
CONTINUOUS
 62
     0
 10
86.189911171257336
 20
26.8139309419116
 30
0.0
  0
VERTEX
  5
C55
  8
0
  6
CONTINUOUS
 62
     0
 10
86.187605137255517
 20
26.750788641601421
 30
0.0
  0
VERTEX
  5
C56
  8
0
  6
CONTINUOUS
 62
     0
 10
86.183035464095056
 20
26.687975644881941
 30
0.0
  0
VERTEX
  5
C57
  8
0
  6
CONTINUOUS
 62
     0
 10
86.179913629112292
 20
26.656663093930579
 30
0.0
  0
VERTEX
  5
C58
  8
0
  6
CONTINUOUS
 62
     0
 10
86.176239222223415
 20
26.625397809204959
 30
0.0
  0
VERTEX
  5
C59
  8
0
  6
CONTINUOUS
 62
     0
 10
86.167246380486972
 20
26.562963955551108
 30
0.0
  0
VERTEX
  5
C5A
  8
0
  6
CONTINUOUS
 62
     0
 10
86.156080152858195
 20
26.500585360890138
 30
0.0
  0
VERTEX
  5
C5B
  8
0
  6
CONTINUOUS
 62
     0
 10
86.142757286956453
 20
26.438175284658801
 30
0.0
  0
VERTEX
  5
C5C
  8
0
  6
CONTINUOUS
 62
     0
 10
86.127288299319048
 20
26.375648523431892
 30
0.0
  0
VERTEX
  5
C5D
  8
0
  6
CONTINUOUS
 62
     0
 10
86.109677661496875
 20
26.31292098855937
 30
0.0
  0
VERTEX
  5
C5E
  8
0
  6
CONTINUOUS
 62
     0
 10
86.10006900360392
 20
26.281455858365788
 30
0.0
  0
VERTEX
  5
C5F
  8
0
  6
CONTINUOUS
 62
     0
 10
86.089923940272485
 20
26.249909302028868
 30
0.0
  0
VERTEX
  5
C60
  8
0
  6
CONTINUOUS
 62
     0
 10
86.06801989460493
 20
26.186530406203701
 30
0.0
  0
VERTEX
  5
C61
  8
0
  6
CONTINUOUS
 62
     0
 10
86.043952531281633
 20
26.122701183390461
 30
0.0
  0
VERTEX
  5
C62
  8
0
  6
CONTINUOUS
 62
     0
 10
86.017703120682455
 20
26.058338081421439
 30
0.0
  0
VERTEX
  5
C63
  8
0
  6
CONTINUOUS
 62
     0
 10
85.989247173527474
 20
25.99335674159758
 30
0.0
  0
VERTEX
  5
C64
  8
0
  6
CONTINUOUS
 62
     0
 10
85.958554378970092
 20
25.92767162543743
 30
0.0
  0
VERTEX
  5
C65
  8
0
  6
CONTINUOUS
 62
     0
 10
85.942358075965558
 20
25.894538004998509
 30
0.0
  0
VERTEX
  5
C66
  8
0
  6
CONTINUOUS
 62
     0
 10
85.925588503905217
 20
25.86119563671593
 30
0.0
  0
VERTEX
  5
C67
  8
0
  6
CONTINUOUS
 62
     0
 10
85.890307252873924
 20
25.793839735258821
 30
0.0
  0
VERTEX
  5
C68
  8
0
  6
CONTINUOUS
 62
     0
 10
85.852662087454036
 20
25.725512538882629
 30
0.0
  0
VERTEX
  5
C69
  8
0
  6
CONTINUOUS
 62
     0
 10
85.832936107613108
 20
25.69095540635837
 30
0.0
  0
SEQEND
  5
C6A
  8
0
  6
CONTINUOUS
 62
     0
  0
POLYLINE
  5
7B5
  8
0
  6
CONTINUOUS
 62
     0
 66
     1
 10
0.0
 20
0.0
 30
0.0
  0
VERTEX
  5
C6B
  8
0
  6
CONTINUOUS
 62
     0
 10
85.832936107613108
 20
25.69095540635837
 30
0.0
  0
VERTEX
  5
C6C
  8
0
  6
CONTINUOUS
 62
     0
 10
85.852662087454036
 20
25.725512538882739
 30
0.0
  0
VERTEX
  5
C6D
  8
0
  6
CONTINUOUS
 62
     0
 10
85.890307252873896
 20
25.793839735259169
 30
0.0
  0
VERTEX
  5
C6E
  8
0
  6
CONTINUOUS
 62
     0
 10
85.925588503905203
 20
25.861195636716491
 30
0.0
  0
VERTEX
  5
C6F
  8
0
  6
CONTINUOUS
 62
     0
 10
85.942358075965515
 20
25.894538004999159
 30
0.0
  0
VERTEX
  5
C70
  8
0
  6
CONTINUOUS
 62
     0
 10
85.958554378970064
 20
25.927671625438169
 30
0.0
  0
VERTEX
  5
C71
  8
0
  6
CONTINUOUS
 62
     0
 10
85.989247173527417
 20
25.99335674159849
 30
0.0
  0
VERTEX
  5
C72
  8
0
  6
CONTINUOUS
 62
     0
 10
86.017703120682427
 20
26.05833808142248
 30
0.0
  0
VERTEX
  5
C73
  8
0
  6
CONTINUOUS
 62
     0
 10
86.043952531281604
 20
26.122701183391609
 30
0.0
  0
VERTEX
  5
C74
  8
0
  6
CONTINUOUS
 62
     0
 10
86.068019894604916
 20
26.186530406204909
 30
0.0
  0
VERTEX
  5
C75
  8
0
  6
CONTINUOUS
 62
     0
 10
86.089923940272456
 20
26.24990930203014
 30
0.0
  0
VERTEX
  5
C76
  8
0
  6
CONTINUOUS
 62
     0
 10
86.10006900360392
 20
26.281455858367071
 30
0.0
  0
VERTEX
  5
C77
  8
0
  6
CONTINUOUS
 62
     0
 10
86.109677661496875
 20
26.312920988560631
 30
0.0
  0
VERTEX
  5
C78
  8
0
  6
CONTINUOUS
 62
     0
 10
86.127288299319048
 20
26.37564852343316
 30
0.0
  0
VERTEX
  5
C79
  8
0
  6
CONTINUOUS
 62
     0
 10
86.142757286956453
 20
26.438175284660009
 30
0.0
  0
VERTEX
  5
C7A
  8
0
  6
CONTINUOUS
 62
     0
 10
86.156080152858181
 20
26.500585360891279
 30
0.0
  0
VERTEX
  5
C7B
  8
0
  6
CONTINUOUS
 62
     0
 10
86.167246380486972
 20
26.562963955552121
 30
0.0
  0
VERTEX
  5
C7C
  8
0
  6
CONTINUOUS
 62
     0
 10
86.176239222223415
 20
26.625397809205811
 30
0.0
  0
VERTEX
  5
C7D
  8
0
  6
CONTINUOUS
 62
     0
 10
86.179913629112292
 20
26.656663093931339
 30
0.0
  0
VERTEX
  5
C7E
  8
0
  6
CONTINUOUS
 62
     0
 10
86.183035464095056
 20
26.687975644882609
 30
0.0
  0
VERTEX
  5
C7F
  8
0
  6
CONTINUOUS
 62
     0
 10
86.187605137255517
 20
26.75078864160184
 30
0.0
  0
VERTEX
  5
C80
  8
0
  6
CONTINUOUS
 62
     0
 10
86.189911171257336
 20
26.81393094191175
 30
0.0
  0
VERTEX
  5
C81
  8
0
  6
CONTINUOUS
 62
     0
 10
86.190201697521275
 20
26.845655944737629
 30
0.0
  0
SEQEND
  5
C82
  8
0
  6
CONTINUOUS
 62
     0
  0
POLYLINE
  5
7B6
  8
0
  6
CONTINUOUS
 62
     0
 66
     1
 10
0.0
 20
0.0
 30
0.0
  0
VERTEX
  5
C83
  8
0
  6
CONTINUOUS
 62
     0
 10
86.190201697521275
 20
33.773859175013129
 30
0.0
  0
VERTEX
  5
C84
  8
0
  6
CONTINUOUS
 62
     0
 10
86.189911171257336
 20
33.742134172187107
 30
0.0
  0
VERTEX
  5
C85
  8
0
  6
CONTINUOUS
 62
     0
 10
86.187605137255517
 20
33.678991871876917
 30
0.0
  0
VERTEX
  5
C86
  8
0
  6
CONTINUOUS
 62
     0
 10
86.183035464095056
 20
33.616178875157459
 30
0.0
  0
VERTEX
  5
C87
  8
0
  6
CONTINUOUS
 62
     0
 10
86.179913629112292
 20
33.584866324206068
 30
0.0
  0
VERTEX
  5
C88
  8
0
  6
CONTINUOUS
 62
     0
 10
86.176239222223415
 20
33.553601039480462
 30
0.0
  0
VERTEX
  5
C89
  8
0
  6
CONTINUOUS
 62
     0
 10
86.167246380486972
 20
33.491167185826633
 30
0.0
  0
VERTEX
  5
C8A
  8
0
  6
CONTINUOUS
 62
     0
 10
86.156080152858195
 20
33.428788591165663
 30
0.0
  0
VERTEX
  5
C8B
  8
0
  6
CONTINUOUS
 62
     0
 10
86.142757286956453
 20
33.366378514934297
 30
0.0
  0
VERTEX
  5
C8C
  8
0
  6
CONTINUOUS
 62
     0
 10
86.127288299319048
 20
33.303851753707413
 30
0.0
  0
VERTEX
  5
C8D
  8
0
  6
CONTINUOUS
 62
     0
 10
86.109677661496875
 20
33.241124218834869
 30
0.0
  0
VERTEX
  5
C8E
  8
0
  6
CONTINUOUS
 62
     0
 10
86.10006900360392
 20
33.209659088641303
 30
0.0
  0
VERTEX
  5
C8F
  8
0
  6
CONTINUOUS
 62
     0
 10
86.089923940272485
 20
33.178112532304382
 30
0.0
  0
VERTEX
  5
C90
  8
0
  6
CONTINUOUS
 62
     0
 10
86.06801989460493
 20
33.114733636479201
 30
0.0
  0
VERTEX
  5
C91
  8
0
  6
CONTINUOUS
 62
     0
 10
86.043952531281633
 20
33.050904413665982
 30
0.0
  0
VERTEX
  5
C92
  8
0
  6
CONTINUOUS
 62
     0
 10
86.017703120682455
 20
32.986541311696953
 30
0.0
  0
VERTEX
  5
C93
  8
0
  6
CONTINUOUS
 62
     0
 10
85.989247173527474
 20
32.921559971873101
 30
0.0
  0
VERTEX
  5
C94
  8
0
  6
CONTINUOUS
 62
     0
 10
85.958554378970092
 20
32.855874855712933
 30
0.0
  0
VERTEX
  5
C95
  8
0
  6
CONTINUOUS
 62
     0
 10
85.942358075965558
 20
32.822741235274009
 30
0.0
  0
VERTEX
  5
C96
  8
0
  6
CONTINUOUS
 62
     0
 10
85.925588503905217
 20
32.789398866991441
 30
0.0
  0
VERTEX
  5
C97
  8
0
  6
CONTINUOUS
 62
     0
 10
85.890307252873924
 20
32.722042965534328
 30
0.0
  0
VERTEX
  5
C98
  8
0
  6
CONTINUOUS
 62
     0
 10
85.852662087454036
 20
32.653715769158133
 30
0.0
  0
VERTEX
  5
C99
  8
0
  6
CONTINUOUS
 62
     0
 10
85.832936107613108
 20
32.619158636633877
 30
0.0
  0
SEQEND
  5
C9A
  8
0
  6
CONTINUOUS
 62
     0
  0
POLYLINE
  5
7B7
  8
0
  6
CONTINUOUS
 62
     0
 66
     1
 10
0.0
 20
0.0
 30
0.0
  0
VERTEX
  5
C9B
  8
0
  6
CONTINUOUS
 62
     0
 10
85.832936107613108
 20
34.928559713392389
 30
0.0
  0
VERTEX
  5
C9C
  8
0
  6
CONTINUOUS
 62
     0
 10
85.852662087454036
 20
34.894002580868012
 30
0.0
  0
VERTEX
  5
C9D
  8
0
  6
CONTINUOUS
 62
     0
 10
85.890307252873896
 20
34.825675384491589
 30
0.0
  0
VERTEX
  5
C9E
  8
0
  6
CONTINUOUS
 62
     0
 10
85.925588503905203
 20
34.758319483034271
 30
0.0
  0
VERTEX
  5
C9F
  8
0
  6
CONTINUOUS
 62
     0
 10
85.942358075965515
 20
34.724977114751603
 30
0.0
  0
VERTEX
  5
CA0
  8
0
  6
CONTINUOUS
 62
     0
 10
85.958554378970064
 20
34.691843494312593
 30
0.0
  0
VERTEX
  5
CA1
  8
0
  6
CONTINUOUS
 62
     0
 10
85.989247173527417
 20
34.626158378152269
 30
0.0
  0
VERTEX
  5
CA2
  8
0
  6
CONTINUOUS
 62
     0
 10
86.017703120682427
 20
34.561177038328282
 30
0.0
  0
VERTEX
  5
CA3
  8
0
  6
CONTINUOUS
 62
     0
 10
86.043952531281604
 20
34.49681393635916
 30
0.0
  0
VERTEX
  5
CA4
  8
0
  6
CONTINUOUS
 62
     0
 10
86.068019894604916
 20
34.432984713545849
 30
0.0
  0
VERTEX
  5
CA5
  8
0
  6
CONTINUOUS
 62
     0
 10
86.089923940272456
 20
34.369605817720618
 30
0.0
  0
VERTEX
  5
CA6
  8
0
  6
CONTINUOUS
 62
     0
 10
86.10006900360392
 20
34.338059261383691
 30
0.0
  0
VERTEX
  5
CA7
  8
0
  6
CONTINUOUS
 62
     0
 10
86.109677661496875
 20
34.306594131190131
 30
0.0
  0
VERTEX
  5
CA8
  8
0
  6
CONTINUOUS
 62
     0
 10
86.127288299319048
 20
34.243866596317602
 30
0.0
  0
VERTEX
  5
CA9
  8
0
  6
CONTINUOUS
 62
     0
 10
86.142757286956453
 20
34.18133983509076
 30
0.0
  0
VERTEX
  5
CAA
  8
0
  6
CONTINUOUS
 62
     0
 10
86.156080152858181
 20
34.11892975885948
 30
0.0
  0
VERTEX
  5
CAB
  8
0
  6
CONTINUOUS
 62
     0
 10
86.167246380486972
 20
34.056551164198638
 30
0.0
  0
VERTEX
  5
CAC
  8
0
  6
CONTINUOUS
 62
     0
 10
86.176239222223415
 20
33.994117310544951
 30
0.0
  0
VERTEX
  5
CAD
  8
0
  6
CONTINUOUS
 62
     0
 10
86.179913629112292
 20
33.962852025819423
 30
0.0
  0
VERTEX
  5
CAE
  8
0
  6
CONTINUOUS
 62
     0
 10
86.183035464095056
 20
33.931539474868153
 30
0.0
  0
VERTEX
  5
CAF
  8
0
  6
CONTINUOUS
 62
     0
 10
86.187605137255517
 20
33.868726478148922
 30
0.0
  0
VERTEX
  5
CB0
  8
0
  6
CONTINUOUS
 62
     0
 10
86.189911171257336
 20
33.805584177839009
 30
0.0
  0
VERTEX
  5
CB1
  8
0
  6
CONTINUOUS
 62
     0
 10
86.190201697521275
 20
33.773859175013129
 30
0.0
  0
SEQEND
  5
CB2
  8
0
  6
CONTINUOUS
 62
     0
  0
LINE
  5
7B8
  8
0
  6
CONTINUOUS
 62
     0
 10
85.832936107613108
 20
34.928559713392389
 30
0.0
 11
81.190201697521275
 21
34.928559713392389
 31
0.0
  0
POLYLINE
  5
7B9
  8
0
  6
CONTINUOUS
 62
     0
 66
     1
 10
0.0
 20
0.0
 30
0.0
  0
VERTEX
  5
CB3
  8
0
  6
CONTINUOUS
 62
     0
 10
86.190201697521275
 20
33.773859175013129
 30
0.0
  0
VERTEX
  5
CB4
  8
0
  6
CONTINUOUS
 62
     0
 10
86.189911171257336
 20
33.805584177839158
 30
0.0
  0
VERTEX
  5
CB5
  8
0
  6
CONTINUOUS
 62
     0
 10
86.187605137255517
 20
33.868726478149341
 30
0.0
  0
VERTEX
  5
CB6
  8
0
  6
CONTINUOUS
 62
     0
 10
86.183035464095056
 20
33.931539474868821
 30
0.0
  0
VERTEX
  5
CB7
  8
0
  6
CONTINUOUS
 62
     0
 10
86.179913629112292
 20
33.962852025820183
 30
0.0
  0
VERTEX
  5
CB8
  8
0
  6
CONTINUOUS
 62
     0
 10
86.176239222223415
 20
33.994117310545818
 30
0.0
  0
VERTEX
  5
CB9
  8
0
  6
CONTINUOUS
 62
     0
 10
86.167246380486972
 20
34.056551164199647
 30
0.0
  0
VERTEX
  5
CBA
  8
0
  6
CONTINUOUS
 62
     0
 10
86.156080152858195
 20
34.118929758860617
 30
0.0
  0
VERTEX
  5
CBB
  8
0
  6
CONTINUOUS
 62
     0
 10
86.142757286956453
 20
34.181339835091961
 30
0.0
  0
VERTEX
  5
CBC
  8
0
  6
CONTINUOUS
 62
     0
 10
86.127288299319048
 20
34.243866596318867
 30
0.0
  0
VERTEX
  5
CBD
  8
0
  6
CONTINUOUS
 62
     0
 10
86.109677661496875
 20
34.306594131191389
 30
0.0
  0
VERTEX
  5
CBE
  8
0
  6
CONTINUOUS
 62
     0
 10
86.10006900360392
 20
34.338059261384963
 30
0.0
  0
VERTEX
  5
CBF
  8
0
  6
CONTINUOUS
 62
     0
 10
86.089923940272485
 20
34.36960581772189
 30
0.0
  0
VERTEX
  5
CC0
  8
0
  6
CONTINUOUS
 62
     0
 10
86.06801989460493
 20
34.432984713547057
 30
0.0
  0
VERTEX
  5
CC1
  8
0
  6
CONTINUOUS
 62
     0
 10
86.043952531281633
 20
34.496813936360297
 30
0.0
  0
VERTEX
  5
CC2
  8
0
  6
CONTINUOUS
 62
     0
 10
86.017703120682455
 20
34.561177038329319
 30
0.0
  0
VERTEX
  5
CC3
  8
0
  6
CONTINUOUS
 62
     0
 10
85.989247173527474
 20
34.626158378153178
 30
0.0
  0
VERTEX
  5
CC4
  8
0
  6
CONTINUOUS
 62
     0
 10
85.958554378970092
 20
34.691843494313332
 30
0.0
  0
VERTEX
  5
CC5
  8
0
  6
CONTINUOUS
 62
     0
 10
85.942358075965558
 20
34.724977114752249
 30
0.0
  0
VERTEX
  5
CC6
  8
0
  6
CONTINUOUS
 62
     0
 10
85.925588503905217
 20
34.758319483034832
 30
0.0
  0
VERTEX
  5
CC7
  8
0
  6
CONTINUOUS
 62
     0
 10
85.890307252873924
 20
34.825675384491937
 30
0.0
  0
VERTEX
  5
CC8
  8
0
  6
CONTINUOUS
 62
     0
 10
85.852662087454036
 20
34.894002580868133
 30
0.0
  0
VERTEX
  5
CC9
  8
0
  6
CONTINUOUS
 62
     0
 10
85.832936107613108
 20
34.928559713392389
 30
0.0
  0
SEQEND
  5
CCA
  8
0
  6
CONTINUOUS
 62
     0
  0
POLYLINE
  5
7BA
  8
0
  6
CONTINUOUS
 62
     0
 66
     1
 10
0.0
 20
0.0
 30
0.0
  0
VERTEX
  5
CCB
  8
0
  6
CONTINUOUS
 62
     0
 10
85.832936107613108
 20
32.619158636633877
 30
0.0
  0
VERTEX
  5
CCC
  8
0
  6
CONTINUOUS
 62
     0
 10
85.852662087454036
 20
32.653715769158246
 30
0.0
  0
VERTEX
  5
CCD
  8
0
  6
CONTINUOUS
 62
     0
 10
85.890307252873896
 20
32.722042965534683
 30
0.0
  0
VERTEX
  5
CCE
  8
0
  6
CONTINUOUS
 62
     0
 10
85.925588503905203
 20
32.789398866992009
 30
0.0
  0
VERTEX
  5
CCF
  8
0
  6
CONTINUOUS
 62
     0
 10
85.942358075965515
 20
32.822741235274677
 30
0.0
  0
VERTEX
  5
CD0
  8
0
  6
CONTINUOUS
 62
     0
 10
85.958554378970064
 20
32.855874855713679
 30
0.0
  0
VERTEX
  5
CD1
  8
0
  6
CONTINUOUS
 62
     0
 10
85.989247173527417
 20
32.92155997187399
 30
0.0
  0
VERTEX
  5
CD2
  8
0
  6
CONTINUOUS
 62
     0
 10
86.017703120682427
 20
32.986541311697991
 30
0.0
  0
VERTEX
  5
CD3
  8
0
  6
CONTINUOUS
 62
     0
 10
86.043952531281604
 20
33.050904413667112
 30
0.0
  0
VERTEX
  5
CD4
  8
0
  6
CONTINUOUS
 62
     0
 10
86.068019894604916
 20
33.11473363648043
 30
0.0
  0
VERTEX
  5
CD5
  8
0
  6
CONTINUOUS
 62
     0
 10
86.089923940272456
 20
33.178112532305633
 30
0.0
  0
VERTEX
  5
CD6
  8
0
  6
CONTINUOUS
 62
     0
 10
86.10006900360392
 20
33.209659088642582
 30
0.0
  0
VERTEX
  5
CD7
  8
0
  6
CONTINUOUS
 62
     0
 10
86.109677661496875
 20
33.241124218836148
 30
0.0
  0
VERTEX
  5
CD8
  8
0
  6
CONTINUOUS
 62
     0
 10
86.127288299319048
 20
33.30385175370867
 30
0.0
  0
VERTEX
  5
CD9
  8
0
  6
CONTINUOUS
 62
     0
 10
86.142757286956453
 20
33.366378514935519
 30
0.0
  0
VERTEX
  5
CDA
  8
0
  6
CONTINUOUS
 62
     0
 10
86.156080152858181
 20
33.428788591166779
 30
0.0
  0
VERTEX
  5
CDB
  8
0
  6
CONTINUOUS
 62
     0
 10
86.167246380486972
 20
33.491167185827628
 30
0.0
  0
VERTEX
  5
CDC
  8
0
  6
CONTINUOUS
 62
     0
 10
86.176239222223415
 20
33.553601039481322
 30
0.0
  0
VERTEX
  5
CDD
  8
0
  6
CONTINUOUS
 62
     0
 10
86.179913629112292
 20
33.584866324206843
 30
0.0
  0
VERTEX
  5
CDE
  8
0
  6
CONTINUOUS
 62
     0
 10
86.183035464095056
 20
33.616178875158127
 30
0.0
  0
VERTEX
  5
CDF
  8
0
  6
CONTINUOUS
 62
     0
 10
86.187605137255517
 20
33.678991871877358
 30
0.0
  0
VERTEX
  5
CE0
  8
0
  6
CONTINUOUS
 62
     0
 10
86.189911171257336
 20
33.742134172187257
 30
0.0
  0
VERTEX
  5
CE1
  8
0
  6
CONTINUOUS
 62
     0
 10
86.190201697521275
 20
33.773859175013129
 30
0.0
  0
SEQEND
  5
CE2
  8
0
  6
CONTINUOUS
 62
     0
  0
POLYLINE
  5
7BB
  8
0
  6
CONTINUOUS
 62
     0
 66
     1
 10
0.0
 20
0.0
 30
0.0
  0
VERTEX
  5
CE3
  8
0
  6
CONTINUOUS
 62
     0
 10
85.917613876808275
 20
32.309757559875379
 30
0.0
  0
VERTEX
  5
CE4
  8
0
  6
CONTINUOUS
 62
     0
 10
85.904347600508956
 20
32.360622804340473
 30
0.0
  0
VERTEX
  5
CE5
  8
0
  6
CONTINUOUS
 62
     0
 10
85.876807594021756
 20
32.463165016153887
 30
0.0
  0
VERTEX
  5
CE6
  8
0
  6
CONTINUOUS
 62
     0
 10
85.84790549783358
 20
32.566856436251292
 30
0.0
  0
VERTEX
  5
CE7
  8
0
  6
CONTINUOUS
 62
     0
 10
85.832936107613108
 20
32.619158636633877
 30
0.0
  0
SEQEND
  5
CE8
  8
0
  6
CONTINUOUS
 62
     0
  0
LINE
  5
7BC
  8
0
  6
CONTINUOUS
 62
     0
 10
69.190201697521275
 20
32.696257559875392
 30
0.0
 11
69.190201697521275
 21
27.923257559875399
 31
0.0
  0
LINE
  5
7BD
  8
0
  6
CONTINUOUS
 62
     0
 10
69.803701697521262
 20
33.309757559875379
 30
0.0
 11
69.803701697521262
 21
27.309757559875379
 31
0.0
  0
LINE
  5
7C0
  8
0
  6
CONTINUOUS
 62
     0
 10
96.119347458934797
 20
37.309757559875379
 30
0.0
 11
96.119347458934797
 21
23.309757559875379
 31
0.0
  0
LINE
  5
7C1
  8
0
  6
CONTINUOUS
 62
     0
 10
96.390201697521263
 20
37.309757559875379
 30
0.0
 11
96.390201697521263
 21
23.309757559875379
 31
0.0
  0
LINE
  5
7C2
  8
0
  6
CONTINUOUS
 62
     0
 10
97.190201697521275
 20
36.509757559875382
 30
0.0
 11
97.190201697521275
 21
24.10975755987538
 31
0.0
  0
LINE
  5
7C3
  8
0
  6
CONTINUOUS
 62
     0
 10
91.990201697521272
 20
34.309757559875379
 30
0.0
 11
86.190201697521275
 21
34.309757559875379
 31
0.0
  0
LINE
  5
7C4
  8
0
  6
CONTINUOUS
 62
     0
 10
86.190201697521275
 20
26.309757559875379
 30
0.0
 11
91.990201697521272
 21
26.309757559875379
 31
0.0
  0
LINE
  5
7C5
  8
0
  6
CONTINUOUS
 62
     0
 10
73.971733653496273
 20
36.083260251771627
 30
0.0
 11
73.690201697521275
 21
35.309757559875379
 31
0.0
  0
LINE
  5
7C6
  8
0
  6
CONTINUOUS
 62
     0
 10
73.690201697521275
 20
25.309757559875379
 30
0.0
 11
73.971733653496273
 21
24.536254867979132
 31
0.0
  0
LINE
  5
7C7
  8
0
  6
CONTINUOUS
 62
     0
 10
76.690201697521275
 20
35.309757559875379
 30
0.0
 11
76.408669741546248
 21
36.083260251771627
 31
0.0
  0
LINE
  5
7C8
  8
0
  6
CONTINUOUS
 62
     0
 10
76.408669741546248
 20
24.536254867979132
 30
0.0
 11
76.690201697521275
 21
25.309757559875379
 31
0.0
  0
LINE
  5
7C9
  8
0
  6
CONTINUOUS
 62
     0
 10
81.190201697521275
 20
33.309757559875379
 30
0.0
 11
76.690201697521275
 21
33.309757559875379
 31
0.0
  0
LINE
  5
7CA
  8
0
  6
CONTINUOUS
 62
     0
 10
76.690201697521275
 20
27.309757559875379
 30
0.0
 11
81.190201697521275
 21
27.309757559875379
 31
0.0
  0
LINE
  5
7CB
  8
0
  6
CONTINUOUS
 62
     0
 10
86.190201697521275
 20
34.309757559875379
 30
0.0
 11
85.832936107613108
 21
34.928559713392389
 31
0.0
  0
LINE
  5
7CC
  8
0
  6
CONTINUOUS
 62
     0
 10
85.832936107613108
 20
25.69095540635837
 30
0.0
 11
86.190201697521275
 21
26.309757559875379
 31
0.0
  0
LINE
  5
7CD
  8
0
  6
CONTINUOUS
 62
     0
 10
69.803701697521262
 20
33.309757559875379
 30
0.0
 11
69.190201697521275
 21
32.696257559875392
 31
0.0
  0
LINE
  5
7CE
  8
0
  6
CONTINUOUS
 62
     0
 10
69.190201697521275
 20
27.923257559875399
 30
0.0
 11
69.803701697521262
 21
27.309757559875379
 31
0.0
  0
LINE
  5
7CF
  8
0
  6
CONTINUOUS
 62
     0
 10
73.690201697521275
 20
33.309757559875379
 30
0.0
 11
69.803701697521262
 21
33.309757559875379
 31
0.0
  0
LINE
  5
7D0
  8
0
  6
CONTINUOUS
 62
     0
 10
69.803701697521262
 20
27.309757559875379
 30
0.0
 11
73.690201697521275
 21
27.309757559875379
 31
0.0
  0
LINE
  5
7D5
  8
0
  6
CONTINUOUS
 62
     0
 10
96.119347458934797
 20
37.309757559875379
 30
0.0
 11
91.990201697521272
 21
34.309757559875379
 31
0.0
  0
LINE
  5
7D6
  8
0
  6
CONTINUOUS
 62
     0
 10
91.990201697521272
 20
26.309757559875379
 30
0.0
 11
96.119347458934797
 21
23.309757559875379
 31
0.0
  0
LINE
  5
7D7
  8
0
  6
CONTINUOUS
 62
     0
 10
96.390201697521263
 20
37.309757559875379
 30
0.0
 11
96.119347458934797
 21
37.309757559875379
 31
0.0
  0
LINE
  5
7D8
  8
0
  6
CONTINUOUS
 62
     0
 10
96.119347458934797
 20
23.309757559875379
 30
0.0
 11
96.390201697521263
 21
23.309757559875379
 31
0.0
  0
ARC
  5
7D9
  8
0
  6
CONTINUOUS
 62
     0
 10
96.390201697521292
 20
24.109757559875359
 30
0.0
 40
0.7999999999999999
 50
270.0
 51
0.0
  0
ARC
  5
7DA
  8
0
  6
CONTINUOUS
 62
     0
 10
96.390201697521292
 20
36.509757559875368
 30
0.0
 40
0.7999999999999991
 50
0.0
 51
90.0
  0
LINE
  5
7DB
  8
0
  6
CONTINUOUS
 62
     0
 10
97.190201697521275
 20
24.58376693712751
 30
0.0
 11
97.190201697521275
 21
36.035748182623252
 31
0.0
  0
ARC
  5
7DC
  8
2
 10
105.39020169752121
 20
30.309757559875379
 30
0.0
 40
9.9999999999999645
 50
145.0847937525561
 51
214.9152062474439
  0
LINE
  5
837
  8
1
 10
100.1902016975212
 20
70.309757559875365
 30
0.0
 11
63.072933110532702
 21
70.309757559875351
 31
0.0
  0
LINE
  5
838
  8
0
  6
CONTINUOUS
 62
     0
 10
79.190201697521275
 20
73.309757559875365
 30
0.0
 11
79.190201697521275
 21
72.696257559875363
 31
0.0
  0
LINE
  5
839
  8
3
 10
69.190201697521275
 20
72.696257559875363
 30
0.0
 11
73.690201697521275
 21
72.696257559875392
 31
0.0
  0
LINE
  5
83A
  8
0
  6
CONTINUOUS
 62
     0
 10
79.190201697521275
 20
67.309757559875379
 30
0.0
 11
79.190201697521275
 21
73.309757559875365
 31
0.0
  0
LINE
  5
83B
  8
0
  6
CONTINUOUS
 62
     0
 10
79.190201697521275
 20
67.309757559875379
 30
0.0
 11
79.190201697521275
 21
67.923257559875381
 31
0.0
  0
LINE
  5
83C
  8
3
 10
69.190201697521275
 20
67.923257559875381
 30
0.0
 11
73.690201697521275
 21
67.923257559875381
 31
0.0
  0
LINE
  5
841
  8
0
  6
CONTINUOUS
 62
     0
 10
86.190201697521275
 20
74.309757559875365
 30
0.0
 11
86.190201697521275
 21
66.309757559875379
 31
0.0
  0
POLYLINE
  5
845
  8
0
  6
CONTINUOUS
 62
     0
 66
     1
 10
0.0
 20
0.0
 30
0.0
  0
VERTEX
  5
CE9
  8
0
  6
CONTINUOUS
 62
     0
 10
86.190201697521275
 20
72.309757559875379
 30
0.0
  0
VERTEX
  5
CEA
  8
0
  6
CONTINUOUS
 62
     0
 10
86.189911171257336
 20
72.364706876640327
 30
0.0
  0
VERTEX
  5
CEB
  8
0
  6
CONTINUOUS
 62
     0
 10
86.187605137255517
 20
72.474072548884337
 30
0.0
  0
VERTEX
  5
CEC
  8
0
  6
CONTINUOUS
 62
     0
 10
86.183035464095056
 20
72.582867850578097
 30
0.0
  0
VERTEX
  5
CED
  8
0
  6
CONTINUOUS
 62
     0
 10
86.179913629112292
 20
72.637102779740474
 30
0.0
  0
VERTEX
  5
CEE
  8
0
  6
CONTINUOUS
 62
     0
 10
86.176239222223415
 20
72.691255841398345
 30
0.0
  0
VERTEX
  5
CEF
  8
0
  6
CONTINUOUS
 62
     0
 10
86.167246380486972
 20
72.799394448039124
 30
0.0
  0
VERTEX
  5
CF0
  8
0
  6
CONTINUOUS
 62
     0
 10
86.156080152858195
 20
72.907437343296664
 30
0.0
  0
VERTEX
  5
CF1
  8
0
  6
CONTINUOUS
 62
     0
 10
86.142757286956481
 20
73.015534766233614
 30
0.0
  0
VERTEX
  5
CF2
  8
0
  6
CONTINUOUS
 62
     0
 10
86.127288299319048
 20
73.123834293511322
 30
0.0
  0
VERTEX
  5
CF3
  8
0
  6
CONTINUOUS
 62
     0
 10
86.109677661496875
 20
73.232481570944103
 30
0.0
  0
VERTEX
  5
CF4
  8
0
  6
CONTINUOUS
 62
     0
 10
86.100069003603934
 20
73.286980775106144
 30
0.0
  0
VERTEX
  5
CF5
  8
0
  6
CONTINUOUS
 62
     0
 10
86.089923940272485
 20
73.341621013485522
 30
0.0
  0
VERTEX
  5
CF6
  8
0
  6
CONTINUOUS
 62
     0
 10
86.06801989460493
 20
73.451396481182343
 30
0.0
  0
VERTEX
  5
CF7
  8
0
  6
CONTINUOUS
 62
     0
 10
86.043952531281633
 20
73.561951938102482
 30
0.0
  0
VERTEX
  5
CF8
  8
0
  6
CONTINUOUS
 62
     0
 10
86.017703120682455
 20
73.673432100845574
 30
0.0
  0
VERTEX
  5
CF9
  8
0
  6
CONTINUOUS
 62
     0
 10
85.989247173527474
 20
73.785983082964407
 30
0.0
  0
VERTEX
  5
CFA
  8
0
  6
CONTINUOUS
 62
     0
 10
85.958554378970092
 20
73.899753041454858
 30
0.0
  0
VERTEX
  5
CFB
  8
0
  6
CONTINUOUS
 62
     0
 10
85.942358075965558
 20
73.95714215549377
 30
0.0
  0
VERTEX
  5
CFC
  8
0
  6
CONTINUOUS
 62
     0
 10
85.925588503905217
 20
74.01489283140387
 30
0.0
  0
VERTEX
  5
CFD
  8
0
  6
CONTINUOUS
 62
     0
 10
85.890307252873924
 20
74.131556674917192
 30
0.0
  0
VERTEX
  5
CFE
  8
0
  6
CONTINUOUS
 62
     0
 10
85.852662087454036
 20
74.249902850579488
 30
0.0
  0
VERTEX
  5
CFF
  8
0
  6
CONTINUOUS
 62
     0
 10
85.832936107613108
 20
74.309757559875379
 30
0.0
  0
SEQEND
  5
D00
  8
0
  6
CONTINUOUS
 62
     0
  0
LINE
  5
84D
  8
0
  6
CONTINUOUS
 62
     0
 10
91.990201697521272
 20
74.309757559875379
 30
0.0
 11
91.990201697521272
 21
66.309757559875379
 31
0.0
  0
POLYLINE
  5
84E
  8
0
  6
CONTINUOUS
 62
     0
 66
     1
 10
0.0
 20
0.0
 30
0.0
  0
VERTEX
  5
D01
  8
0
  6
CONTINUOUS
 62
     0
 10
85.832936107613108
 20
66.309757559875379
 30
0.0
  0
VERTEX
  5
D02
  8
0
  6
CONTINUOUS
 62
     0
 10
85.852662087454036
 20
66.369612269171483
 30
0.0
  0
VERTEX
  5
D03
  8
0
  6
CONTINUOUS
 62
     0
 10
85.890307252873896
 20
66.487958444834192
 30
0.0
  0
VERTEX
  5
D04
  8
0
  6
CONTINUOUS
 62
     0
 10
85.925588503905203
 20
66.604622288347869
 30
0.0
  0
VERTEX
  5
D05
  8
0
  6
CONTINUOUS
 62
     0
 10
85.942358075965515
 20
66.66237296425814
 30
0.0
  0
VERTEX
  5
D06
  8
0
  6
CONTINUOUS
 62
     0
 10
85.958554378970064
 20
66.719762078297194
 30
0.0
  0
VERTEX
  5
D07
  8
0
  6
CONTINUOUS
 62
     0
 10
85.989247173527446
 20
66.833532036787915
 30
0.0
  0
VERTEX
  5
D08
  8
0
  6
CONTINUOUS
 62
     0
 10
86.017703120682427
 20
66.946083018906975
 30
0.0
  0
VERTEX
  5
D09
  8
0
  6
CONTINUOUS
 62
     0
 10
86.043952531281604
 20
67.057563181650238
 30
0.0
  0
VERTEX
  5
D0A
  8
0
  6
CONTINUOUS
 62
     0
 10
86.068019894604916
 20
67.168118638570519
 30
0.0
  0
VERTEX
  5
D0B
  8
0
  6
CONTINUOUS
 62
     0
 10
86.089923940272456
 20
67.277894106267411
 30
0.0
  0
VERTEX
  5
D0C
  8
0
  6
CONTINUOUS
 62
     0
 10
86.10006900360392
 20
67.332534344646817
 30
0.0
  0
VERTEX
  5
D0D
  8
0
  6
CONTINUOUS
 62
     0
 10
86.109677661496875
 20
67.387033548808859
 30
0.0
  0
VERTEX
  5
D0E
  8
0
  6
CONTINUOUS
 62
     0
 10
86.127288299319048
 20
67.49568082624161
 30
0.0
  0
VERTEX
  5
D0F
  8
0
  6
CONTINUOUS
 62
     0
 10
86.142757286956453
 20
67.603980353519248
 30
0.0
  0
VERTEX
  5
D10
  8
0
  6
CONTINUOUS
 62
     0
 10
86.156080152858195
 20
67.712077776456042
 30
0.0
  0
VERTEX
  5
D11
  8
0
  6
CONTINUOUS
 62
     0
 10
86.167246380486972
 20
67.820120671713383
 30
0.0
  0
VERTEX
  5
D12
  8
0
  6
CONTINUOUS
 62
     0
 10
86.176239222223415
 20
67.928259278353863
 30
0.0
  0
VERTEX
  5
D13
  8
0
  6
CONTINUOUS
 62
     0
 10
86.179913629112292
 20
67.982412340011606
 30
0.0
  0
VERTEX
  5
D14
  8
0
  6
CONTINUOUS
 62
     0
 10
86.183035464095056
 20
68.036647269173812
 30
0.0
  0
VERTEX
  5
D15
  8
0
  6
CONTINUOUS
 62
     0
 10
86.187605137255517
 20
68.145442570867175
 30
0.0
  0
VERTEX
  5
D16
  8
0
  6
CONTINUOUS
 62
     0
 10
86.189911171257336
 20
68.254808243110702
 30
0.0
  0
VERTEX
  5
D17
  8
0
  6
CONTINUOUS
 62
     0
 10
86.190201697521275
 20
68.309757559875365
 30
0.0
  0
SEQEND
  5
D18
  8
0
  6
CONTINUOUS
 62
     0
  0
POLYLINE
  5
84F
  8
0
  6
CONTINUOUS
 62
     0
 66
     1
 10
0.0
 20
0.0
 30
0.0
  0
VERTEX
  5
D19
  8
0
  6
CONTINUOUS
 62
     0
 10
73.971733653496273
 20
70.309757559875379
 30
0.0
  0
VERTEX
  5
D1A
  8
0
  6
CONTINUOUS
 62
     0
 10
73.885876476285603
 20
70.748481184009378
 30
0.0
  0
VERTEX
  5
D1B
  8
0
  6
CONTINUOUS
 62
     0
 10
73.761627479948999
 20
71.584731744090547
 30
0.0
  0
VERTEX
  5
D1C
  8
0
  6
CONTINUOUS
 62
     0
 10
73.698385485558532
 20
72.398643256982439
 30
0.0
  0
VERTEX
  5
D1D
  8
0
  6
CONTINUOUS
 62
     0
 10
73.690201697521275
 20
72.809757559875379
 30
0.0
  0
SEQEND
  5
D1E
  8
0
  6
CONTINUOUS
 62
     0
  0
LINE
  5
850
  8
0
  6
CONTINUOUS
 62
     0
 10
76.408669741546248
 20
70.309757559875379
 30
0.0
 11
73.971733653496273
 21
70.309757559875379
 31
0.0
  0
POLYLINE
  5
851
  8
0
  6
CONTINUOUS
 62
     0
 66
     1
 10
0.0
 20
0.0
 30
0.0
  0
VERTEX
  5
D1F
  8
0
  6
CONTINUOUS
 62
     0
 10
76.690201697521275
 20
72.809757559875379
 30
0.0
  0
VERTEX
  5
D20
  8
0
  6
CONTINUOUS
 62
     0
 10
76.682017909484017
 20
72.398643256981799
 30
0.0
  0
VERTEX
  5
D21
  8
0
  6
CONTINUOUS
 62
     0
 10
76.618775915093551
 20
71.58473174408951
 30
0.0
  0
VERTEX
  5
D22
  8
0
  6
CONTINUOUS
 62
     0
 10
76.494526918756947
 20
70.748481184008838
 30
0.0
  0
VERTEX
  5
D23
  8
0
  6
CONTINUOUS
 62
     0
 10
76.408669741546248
 20
70.309757559875379
 30
0.0
  0
SEQEND
  5
D24
  8
0
  6
CONTINUOUS
 62
     0
  0
POLYLINE
  5
852
  8
0
  6
CONTINUOUS
 62
     0
 66
     1
 10
0.0
 20
0.0
 30
0.0
  0
VERTEX
  5
D25
  8
0
  6
CONTINUOUS
 62
     0
 10
76.408669741546248
 20
75.309757559875379
 30
0.0
  0
VERTEX
  5
D26
  8
0
  6
CONTINUOUS
 62
     0
 10
76.494526918756904
 20
74.87103393574138
 30
0.0
  0
VERTEX
  5
D27
  8
0
  6
CONTINUOUS
 62
     0
 10
76.618775915093551
 20
74.034783375660211
 30
0.0
  0
VERTEX
  5
D28
  8
0
  6
CONTINUOUS
 62
     0
 10
76.682017909483989
 20
73.220871862768306
 30
0.0
  0
VERTEX
  5
D29
  8
0
  6
CONTINUOUS
 62
     0
 10
76.690201697521275
 20
72.809757559875379
 30
0.0
  0
SEQEND
  5
D2A
  8
0
  6
CONTINUOUS
 62
     0
  0
LINE
  5
853
  8
0
  6
CONTINUOUS
 62
     0
 10
76.408669741546248
 20
75.309757559875379
 30
0.0
 11
73.971733653496273
 21
75.309757559875379
 31
0.0
  0
POLYLINE
  5
854
  8
0
  6
CONTINUOUS
 62
     0
 66
     1
 10
0.0
 20
0.0
 30
0.0
  0
VERTEX
  5
D2B
  8
0
  6
CONTINUOUS
 62
     0
 10
73.690201697521275
 20
72.809757559875379
 30
0.0
  0
VERTEX
  5
D2C
  8
0
  6
CONTINUOUS
 62
     0
 10
73.698385485558532
 20
73.220871862768945
 30
0.0
  0
VERTEX
  5
D2D
  8
0
  6
CONTINUOUS
 62
     0
 10
73.761627479948999
 20
74.034783375661249
 30
0.0
  0
VERTEX
  5
D2E
  8
0
  6
CONTINUOUS
 62
     0
 10
73.885876476285603
 20
74.87103393574192
 30
0.0
  0
VERTEX
  5
D2F
  8
0
  6
CONTINUOUS
 62
     0
 10
73.971733653496273
 20
75.309757559875379
 30
0.0
  0
SEQEND
  5
D30
  8
0
  6
CONTINUOUS
 62
     0
  0
POLYLINE
  5
855
  8
0
  6
CONTINUOUS
 62
     0
 66
     1
 10
0.0
 20
0.0
 30
0.0
  0
VERTEX
  5
D31
  8
0
  6
CONTINUOUS
 62
     0
 10
73.971733653496273
 20
75.309757559875379
 30
0.0
  0
VERTEX
  5
D32
  8
0
  6
CONTINUOUS
 62
     0
 10
73.885876476285603
 20
74.87103393574138
 30
0.0
  0
VERTEX
  5
D33
  8
0
  6
CONTINUOUS
 62
     0
 10
73.761627479948999
 20
74.034783375660211
 30
0.0
  0
VERTEX
  5
D34
  8
0
  6
CONTINUOUS
 62
     0
 10
73.698385485558532
 20
73.220871862768306
 30
0.0
  0
VERTEX
  5
D35
  8
0
  6
CONTINUOUS
 62
     0
 10
73.690201697521275
 20
72.809757559875379
 30
0.0
  0
SEQEND
  5
D36
  8
0
  6
CONTINUOUS
 62
     0
  0
POLYLINE
  5
856
  8
0
  6
CONTINUOUS
 62
     0
 66
     1
 10
0.0
 20
0.0
 30
0.0
  0
VERTEX
  5
D37
  8
0
  6
CONTINUOUS
 62
     0
 10
76.690201697521275
 20
72.809757559875379
 30
0.0
  0
VERTEX
  5
D38
  8
0
  6
CONTINUOUS
 62
     0
 10
76.682017909484017
 20
73.220871862768945
 30
0.0
  0
VERTEX
  5
D39
  8
0
  6
CONTINUOUS
 62
     0
 10
76.618775915093551
 20
74.034783375661249
 30
0.0
  0
VERTEX
  5
D3A
  8
0
  6
CONTINUOUS
 62
     0
 10
76.494526918756947
 20
74.87103393574192
 30
0.0
  0
VERTEX
  5
D3B
  8
0
  6
CONTINUOUS
 62
     0
 10
76.408669741546248
 20
75.309757559875379
 30
0.0
  0
SEQEND
  5
D3C
  8
0
  6
CONTINUOUS
 62
     0
  0
POLYLINE
  5
857
  8
0
  6
CONTINUOUS
 62
     0
 66
     1
 10
0.0
 20
0.0
 30
0.0
  0
VERTEX
  5
D3D
  8
0
  6
CONTINUOUS
 62
     0
 10
76.408669741546248
 20
70.309757559875379
 30
0.0
  0
VERTEX
  5
D3E
  8
0
  6
CONTINUOUS
 62
     0
 10
76.494526918756904
 20
70.748481184009378
 30
0.0
  0
VERTEX
  5
D3F
  8
0
  6
CONTINUOUS
 62
     0
 10
76.618775915093551
 20
71.584731744090547
 30
0.0
  0
VERTEX
  5
D40
  8
0
  6
CONTINUOUS
 62
     0
 10
76.682017909484017
 20
72.398643256982439
 30
0.0
  0
VERTEX
  5
D41
  8
0
  6
CONTINUOUS
 62
     0
 10
76.690201697521275
 20
72.809757559875379
 30
0.0
  0
SEQEND
  5
D42
  8
0
  6
CONTINUOUS
 62
     0
  0
POLYLINE
  5
858
  8
0
  6
CONTINUOUS
 62
     0
 66
     1
 10
0.0
 20
0.0
 30
0.0
  0
VERTEX
  5
D43
  8
0
  6
CONTINUOUS
 62
     0
 10
73.690201697521275
 20
72.809757559875379
 30
0.0
  0
VERTEX
  5
D44
  8
0
  6
CONTINUOUS
 62
     0
 10
73.698385485558532
 20
72.398643256981799
 30
0.0
  0
VERTEX
  5
D45
  8
0
  6
CONTINUOUS
 62
     0
 10
73.761627479948999
 20
71.58473174408951
 30
0.0
  0
VERTEX
  5
D46
  8
0
  6
CONTINUOUS
 62
     0
 10
73.885876476285603
 20
70.748481184008838
 30
0.0
  0
VERTEX
  5
D47
  8
0
  6
CONTINUOUS
 62
     0
 10
73.971733653496273
 20
70.309757559875379
 30
0.0
  0
SEQEND
  5
D48
  8
0
  6
CONTINUOUS
 62
     0
  0
POLYLINE
  5
859
  8
0
  6
CONTINUOUS
 62
     0
 66
     1
 10
0.0
 20
0.0
 30
0.0
  0
VERTEX
  5
D49
  8
0
  6
CONTINUOUS
 62
     0
 10
73.971733653496273
 20
75.309757559875379
 30
0.0
  0
VERTEX
  5
D4A
  8
0
  6
CONTINUOUS
 62
     0
 10
73.885876476285603
 20
75.309757559875379
 30
0.0
  0
VERTEX
  5
D4B
  8
0
  6
CONTINUOUS
 62
     0
 10
73.761627479948999
 20
75.309757559875379
 30
0.0
  0
VERTEX
  5
D4C
  8
0
  6
CONTINUOUS
 62
     0
 10
73.698385485558532
 20
75.309757559875379
 30
0.0
  0
VERTEX
  5
D4D
  8
0
  6
CONTINUOUS
 62
     0
 10
73.690201697521275
 20
75.309757559875379
 30
0.0
  0
SEQEND
  5
D4E
  8
0
  6
CONTINUOUS
 62
     0
  0
POLYLINE
  5
85A
  8
0
  6
CONTINUOUS
 62
     0
 66
     1
 10
0.0
 20
0.0
 30
0.0
  0
VERTEX
  5
D4F
  8
0
  6
CONTINUOUS
 62
     0
 10
76.690201697521275
 20
75.309757559875379
 30
0.0
  0
VERTEX
  5
D50
  8
0
  6
CONTINUOUS
 62
     0
 10
76.682017909484017
 20
75.309757559875379
 30
0.0
  0
VERTEX
  5
D51
  8
0
  6
CONTINUOUS
 62
     0
 10
76.618775915093551
 20
75.309757559875379
 30
0.0
  0
VERTEX
  5
D52
  8
0
  6
CONTINUOUS
 62
     0
 10
76.494526918756947
 20
75.309757559875379
 30
0.0
  0
VERTEX
  5
D53
  8
0
  6
CONTINUOUS
 62
     0
 10
76.408669741546248
 20
75.309757559875379
 30
0.0
  0
SEQEND
  5
D54
  8
0
  6
CONTINUOUS
 62
     0
  0
POLYLINE
  5
85B
  8
0
  6
CONTINUOUS
 62
     0
 66
     1
 10
0.0
 20
0.0
 30
0.0
  0
VERTEX
  5
D55
  8
0
  6
CONTINUOUS
 62
     0
 10
73.690201697521275
 20
67.809757559875379
 30
0.0
  0
VERTEX
  5
D56
  8
0
  6
CONTINUOUS
 62
     0
 10
73.698385485558532
 20
67.398643256981799
 30
0.0
  0
VERTEX
  5
D57
  8
0
  6
CONTINUOUS
 62
     0
 10
73.761627479948999
 20
66.58473174408951
 30
0.0
  0
VERTEX
  5
D58
  8
0
  6
CONTINUOUS
 62
     0
 10
73.885876476285603
 20
65.748481184008838
 30
0.0
  0
VERTEX
  5
D59
  8
0
  6
CONTINUOUS
 62
     0
 10
73.971733653496273
 20
65.309757559875379
 30
0.0
  0
SEQEND
  5
D5A
  8
0
  6
CONTINUOUS
 62
     0
  0
POLYLINE
  5
85C
  8
0
  6
CONTINUOUS
 62
     0
 66
     1
 10
0.0
 20
0.0
 30
0.0
  0
VERTEX
  5
D5B
  8
0
  6
CONTINUOUS
 62
     0
 10
73.971733653496273
 20
70.309757559875379
 30
0.0
  0
VERTEX
  5
D5C
  8
0
  6
CONTINUOUS
 62
     0
 10
73.885876476285603
 20
69.87103393574138
 30
0.0
  0
VERTEX
  5
D5D
  8
0
  6
CONTINUOUS
 62
     0
 10
73.761627479948999
 20
69.034783375660211
 30
0.0
  0
VERTEX
  5
D5E
  8
0
  6
CONTINUOUS
 62
     0
 10
73.698385485558532
 20
68.220871862768306
 30
0.0
  0
VERTEX
  5
D5F
  8
0
  6
CONTINUOUS
 62
     0
 10
73.690201697521275
 20
67.809757559875379
 30
0.0
  0
SEQEND
  5
D60
  8
0
  6
CONTINUOUS
 62
     0
  0
POLYLINE
  5
85D
  8
0
  6
CONTINUOUS
 62
     0
 66
     1
 10
0.0
 20
0.0
 30
0.0
  0
VERTEX
  5
D61
  8
0
  6
CONTINUOUS
 62
     0
 10
76.690201697521275
 20
67.809757559875379
 30
0.0
  0
VERTEX
  5
D62
  8
0
  6
CONTINUOUS
 62
     0
 10
76.682017909484017
 20
68.220871862768945
 30
0.0
  0
VERTEX
  5
D63
  8
0
  6
CONTINUOUS
 62
     0
 10
76.618775915093551
 20
69.034783375661249
 30
0.0
  0
VERTEX
  5
D64
  8
0
  6
CONTINUOUS
 62
     0
 10
76.494526918756947
 20
69.87103393574192
 30
0.0
  0
VERTEX
  5
D65
  8
0
  6
CONTINUOUS
 62
     0
 10
76.408669741546248
 20
70.309757559875379
 30
0.0
  0
SEQEND
  5
D66
  8
0
  6
CONTINUOUS
 62
     0
  0
POLYLINE
  5
85E
  8
0
  6
CONTINUOUS
 62
     0
 66
     1
 10
0.0
 20
0.0
 30
0.0
  0
VERTEX
  5
D67
  8
0
  6
CONTINUOUS
 62
     0
 10
76.408669741546248
 20
65.309757559875379
 30
0.0
  0
VERTEX
  5
D68
  8
0
  6
CONTINUOUS
 62
     0
 10
76.494526918756904
 20
65.748481184009378
 30
0.0
  0
VERTEX
  5
D69
  8
0
  6
CONTINUOUS
 62
     0
 10
76.618775915093551
 20
66.584731744090547
 30
0.0
  0
VERTEX
  5
D6A
  8
0
  6
CONTINUOUS
 62
     0
 10
76.682017909483989
 20
67.398643256982439
 30
0.0
  0
VERTEX
  5
D6B
  8
0
  6
CONTINUOUS
 62
     0
 10
76.690201697521275
 20
67.809757559875379
 30
0.0
  0
SEQEND
  5
D6C
  8
0
  6
CONTINUOUS
 62
     0
  0
POLYLINE
  5
85F
  8
0
  6
CONTINUOUS
 62
     0
 66
     1
 10
0.0
 20
0.0
 30
0.0
  0
VERTEX
  5
D6D
  8
0
  6
CONTINUOUS
 62
     0
 10
73.690201697521275
 20
65.309757559875379
 30
0.0
  0
VERTEX
  5
D6E
  8
0
  6
CONTINUOUS
 62
     0
 10
73.698385485558532
 20
65.309757559875379
 30
0.0
  0
VERTEX
  5
D6F
  8
0
  6
CONTINUOUS
 62
     0
 10
73.761627479948999
 20
65.309757559875379
 30
0.0
  0
VERTEX
  5
D70
  8
0
  6
CONTINUOUS
 62
     0
 10
73.885876476285603
 20
65.309757559875379
 30
0.0
  0
VERTEX
  5
D71
  8
0
  6
CONTINUOUS
 62
     0
 10
73.971733653496273
 20
65.309757559875379
 30
0.0
  0
SEQEND
  5
D72
  8
0
  6
CONTINUOUS
 62
     0
  0
POLYLINE
  5
860
  8
0
  6
CONTINUOUS
 62
     0
 66
     1
 10
0.0
 20
0.0
 30
0.0
  0
VERTEX
  5
D73
  8
0
  6
CONTINUOUS
 62
     0
 10
76.408669741546248
 20
65.309757559875379
 30
0.0
  0
VERTEX
  5
D74
  8
0
  6
CONTINUOUS
 62
     0
 10
76.494526918756904
 20
65.309757559875379
 30
0.0
  0
VERTEX
  5
D75
  8
0
  6
CONTINUOUS
 62
     0
 10
76.618775915093551
 20
65.309757559875379
 30
0.0
  0
VERTEX
  5
D76
  8
0
  6
CONTINUOUS
 62
     0
 10
76.682017909484017
 20
65.309757559875379
 30
0.0
  0
VERTEX
  5
D77
  8
0
  6
CONTINUOUS
 62
     0
 10
76.690201697521275
 20
65.309757559875379
 30
0.0
  0
SEQEND
  5
D78
  8
0
  6
CONTINUOUS
 62
     0
  0
LINE
  5
861
  8
0
  6
CONTINUOUS
 62
     0
 10
76.408669741546248
 20
65.309757559875379
 30
0.0
 11
73.971733653496273
 21
65.309757559875379
 31
0.0
  0
POLYLINE
  5
862
  8
0
  6
CONTINUOUS
 62
     0
 66
     1
 10
0.0
 20
0.0
 30
0.0
  0
VERTEX
  5
D79
  8
0
  6
CONTINUOUS
 62
     0
 10
73.690201697521275
 20
67.809757559875379
 30
0.0
  0
VERTEX
  5
D7A
  8
0
  6
CONTINUOUS
 62
     0
 10
73.698385485558532
 20
68.220871862768945
 30
0.0
  0
VERTEX
  5
D7B
  8
0
  6
CONTINUOUS
 62
     0
 10
73.761627479948999
 20
69.034783375661249
 30
0.0
  0
VERTEX
  5
D7C
  8
0
  6
CONTINUOUS
 62
     0
 10
73.885876476285603
 20
69.87103393574192
 30
0.0
  0
VERTEX
  5
D7D
  8
0
  6
CONTINUOUS
 62
     0
 10
73.971733653496273
 20
70.309757559875379
 30
0.0
  0
SEQEND
  5
D7E
  8
0
  6
CONTINUOUS
 62
     0
  0
POLYLINE
  5
863
  8
0
  6
CONTINUOUS
 62
     0
 66
     1
 10
0.0
 20
0.0
 30
0.0
  0
VERTEX
  5
D7F
  8
0
  6
CONTINUOUS
 62
     0
 10
73.971733653496273
 20
65.309757559875379
 30
0.0
  0
VERTEX
  5
D80
  8
0
  6
CONTINUOUS
 62
     0
 10
73.885876476285603
 20
65.748481184009378
 30
0.0
  0
VERTEX
  5
D81
  8
0
  6
CONTINUOUS
 62
     0
 10
73.761627479948999
 20
66.584731744090547
 30
0.0
  0
VERTEX
  5
D82
  8
0
  6
CONTINUOUS
 62
     0
 10
73.698385485558532
 20
67.398643256982439
 30
0.0
  0
VERTEX
  5
D83
  8
0
  6
CONTINUOUS
 62
     0
 10
73.690201697521275
 20
67.809757559875379
 30
0.0
  0
SEQEND
  5
D84
  8
0
  6
CONTINUOUS
 62
     0
  0
POLYLINE
  5
864
  8
0
  6
CONTINUOUS
 62
     0
 66
     1
 10
0.0
 20
0.0
 30
0.0
  0
VERTEX
  5
D85
  8
0
  6
CONTINUOUS
 62
     0
 10
76.690201697521275
 20
67.809757559875379
 30
0.0
  0
VERTEX
  5
D86
  8
0
  6
CONTINUOUS
 62
     0
 10
76.682017909484017
 20
67.398643256981799
 30
0.0
  0
VERTEX
  5
D87
  8
0
  6
CONTINUOUS
 62
     0
 10
76.618775915093551
 20
66.58473174408951
 30
0.0
  0
VERTEX
  5
D88
  8
0
  6
CONTINUOUS
 62
     0
 10
76.494526918756947
 20
65.748481184008838
 30
0.0
  0
VERTEX
  5
D89
  8
0
  6
CONTINUOUS
 62
     0
 10
76.408669741546248
 20
65.309757559875379
 30
0.0
  0
SEQEND
  5
D8A
  8
0
  6
CONTINUOUS
 62
     0
  0
POLYLINE
  5
865
  8
0
  6
CONTINUOUS
 62
     0
 66
     1
 10
0.0
 20
0.0
 30
0.0
  0
VERTEX
  5
D8B
  8
0
  6
CONTINUOUS
 62
     0
 10
76.408669741546248
 20
70.309757559875379
 30
0.0
  0
VERTEX
  5
D8C
  8
0
  6
CONTINUOUS
 62
     0
 10
76.494526918756904
 20
69.87103393574138
 30
0.0
  0
VERTEX
  5
D8D
  8
0
  6
CONTINUOUS
 62
     0
 10
76.618775915093551
 20
69.034783375660211
 30
0.0
  0
VERTEX
  5
D8E
  8
0
  6
CONTINUOUS
 62
     0
 10
76.682017909484017
 20
68.220871862768306
 30
0.0
  0
VERTEX
  5
D8F
  8
0
  6
CONTINUOUS
 62
     0
 10
76.690201697521275
 20
67.809757559875379
 30
0.0
  0
SEQEND
  5
D90
  8
0
  6
CONTINUOUS
 62
     0
  0
LINE
  5
866
  8
0
  6
CONTINUOUS
 62
     0
 10
73.690201697521275
 20
75.309757559875379
 30
0.0
 11
73.690201697521275
 21
65.309757559875379
 31
0.0
  0
LINE
  5
867
  8
0
  6
CONTINUOUS
 62
     0
 10
76.690201697521275
 20
75.309757559875379
 30
0.0
 11
76.690201697521275
 21
65.309757559875379
 31
0.0
  0
POLYLINE
  5
868
  8
0
  6
CONTINUOUS
 62
     0
 66
     1
 10
0.0
 20
0.0
 30
0.0
  0
VERTEX
  5
D91
  8
0
  6
CONTINUOUS
 62
     0
 10
85.832936107613108
 20
66.309757559875379
 30
0.0
  0
VERTEX
  5
D92
  8
0
  6
CONTINUOUS
 62
     0
 10
85.847905497833665
 20
66.309757559875379
 30
0.0
  0
VERTEX
  5
D93
  8
0
  6
CONTINUOUS
 62
     0
 10
85.876807594021884
 20
66.309757559875379
 30
0.0
  0
VERTEX
  5
D94
  8
0
  6
CONTINUOUS
 62
     0
 10
85.904347600508956
 20
66.309757559875379
 30
0.0
  0
VERTEX
  5
D95
  8
0
  6
CONTINUOUS
 62
     0
 10
85.917613876808176
 20
66.309757559875379
 30
0.0
  0
SEQEND
  5
D96
  8
0
  6
CONTINUOUS
 62
     0
  0
POLYLINE
  5
869
  8
0
  6
CONTINUOUS
 62
     0
 66
     1
 10
0.0
 20
0.0
 30
0.0
  0
VERTEX
  5
D97
  8
0
  6
CONTINUOUS
 62
     0
 10
86.190201697521275
 20
68.309757559875365
 30
0.0
  0
VERTEX
  5
D98
  8
0
  6
CONTINUOUS
 62
     0
 10
86.189911171257336
 20
68.364706876640327
 30
0.0
  0
VERTEX
  5
D99
  8
0
  6
CONTINUOUS
 62
     0
 10
86.187605137255517
 20
68.474072548884337
 30
0.0
  0
VERTEX
  5
D9A
  8
0
  6
CONTINUOUS
 62
     0
 10
86.18303546409507
 20
68.582867850578097
 30
0.0
  0
VERTEX
  5
D9B
  8
0
  6
CONTINUOUS
 62
     0
 10
86.179913629112292
 20
68.637102779740474
 30
0.0
  0
VERTEX
  5
D9C
  8
0
  6
CONTINUOUS
 62
     0
 10
86.176239222223415
 20
68.691255841398359
 30
0.0
  0
VERTEX
  5
D9D
  8
0
  6
CONTINUOUS
 62
     0
 10
86.167246380486972
 20
68.799394448039124
 30
0.0
  0
VERTEX
  5
D9E
  8
0
  6
CONTINUOUS
 62
     0
 10
86.156080152858195
 20
68.907437343296664
 30
0.0
  0
VERTEX
  5
D9F
  8
0
  6
CONTINUOUS
 62
     0
 10
86.142757286956481
 20
69.015534766233614
 30
0.0
  0
VERTEX
  5
DA0
  8
0
  6
CONTINUOUS
 62
     0
 10
86.127288299319048
 20
69.123834293511322
 30
0.0
  0
VERTEX
  5
DA1
  8
0
  6
CONTINUOUS
 62
     0
 10
86.109677661496875
 20
69.232481570944103
 30
0.0
  0
VERTEX
  5
DA2
  8
0
  6
CONTINUOUS
 62
     0
 10
86.100069003603934
 20
69.286980775106144
 30
0.0
  0
VERTEX
  5
DA3
  8
0
  6
CONTINUOUS
 62
     0
 10
86.089923940272485
 20
69.341621013485522
 30
0.0
  0
VERTEX
  5
DA4
  8
0
  6
CONTINUOUS
 62
     0
 10
86.06801989460493
 20
69.451396481182343
 30
0.0
  0
VERTEX
  5
DA5
  8
0
  6
CONTINUOUS
 62
     0
 10
86.043952531281633
 20
69.561951938102482
 30
0.0
  0
VERTEX
  5
DA6
  8
0
  6
CONTINUOUS
 62
     0
 10
86.017703120682455
 20
69.673432100845574
 30
0.0
  0
VERTEX
  5
DA7
  8
0
  6
CONTINUOUS
 62
     0
 10
85.989247173527474
 20
69.785983082964407
 30
0.0
  0
VERTEX
  5
DA8
  8
0
  6
CONTINUOUS
 62
     0
 10
85.958554378970092
 20
69.899753041454844
 30
0.0
  0
VERTEX
  5
DA9
  8
0
  6
CONTINUOUS
 62
     0
 10
85.942358075965558
 20
69.95714215549377
 30
0.0
  0
VERTEX
  5
DAA
  8
0
  6
CONTINUOUS
 62
     0
 10
85.925588503905217
 20
70.014892831403856
 30
0.0
  0
VERTEX
  5
DAB
  8
0
  6
CONTINUOUS
 62
     0
 10
85.890307252873924
 20
70.131556674917192
 30
0.0
  0
VERTEX
  5
DAC
  8
0
  6
CONTINUOUS
 62
     0
 10
85.852662087454036
 20
70.249902850579488
 30
0.0
  0
VERTEX
  5
DAD
  8
0
  6
CONTINUOUS
 62
     0
 10
85.832936107613108
 20
70.309757559875379
 30
0.0
  0
SEQEND
  5
DAE
  8
0
  6
CONTINUOUS
 62
     0
  0
POLYLINE
  5
86A
  8
0
  6
CONTINUOUS
 62
     0
 66
     1
 10
0.0
 20
0.0
 30
0.0
  0
VERTEX
  5
DAF
  8
0
  6
CONTINUOUS
 62
     0
 10
85.832936107613108
 20
70.309757559875379
 30
0.0
  0
VERTEX
  5
DB0
  8
0
  6
CONTINUOUS
 62
     0
 10
85.852662087454036
 20
70.369612269171483
 30
0.0
  0
VERTEX
  5
DB1
  8
0
  6
CONTINUOUS
 62
     0
 10
85.890307252873896
 20
70.487958444834192
 30
0.0
  0
VERTEX
  5
DB2
  8
0
  6
CONTINUOUS
 62
     0
 10
85.925588503905203
 20
70.604622288347855
 30
0.0
  0
VERTEX
  5
DB3
  8
0
  6
CONTINUOUS
 62
     0
 10
85.942358075965515
 20
70.66237296425814
 30
0.0
  0
VERTEX
  5
DB4
  8
0
  6
CONTINUOUS
 62
     0
 10
85.958554378970064
 20
70.719762078297194
 30
0.0
  0
VERTEX
  5
DB5
  8
0
  6
CONTINUOUS
 62
     0
 10
85.989247173527446
 20
70.833532036787915
 30
0.0
  0
VERTEX
  5
DB6
  8
0
  6
CONTINUOUS
 62
     0
 10
86.017703120682427
 20
70.946083018906975
 30
0.0
  0
VERTEX
  5
DB7
  8
0
  6
CONTINUOUS
 62
     0
 10
86.043952531281604
 20
71.057563181650238
 30
0.0
  0
VERTEX
  5
DB8
  8
0
  6
CONTINUOUS
 62
     0
 10
86.068019894604916
 20
71.168118638570505
 30
0.0
  0
VERTEX
  5
DB9
  8
0
  6
CONTINUOUS
 62
     0
 10
86.089923940272456
 20
71.277894106267411
 30
0.0
  0
VERTEX
  5
DBA
  8
0
  6
CONTINUOUS
 62
     0
 10
86.10006900360392
 20
71.332534344646817
 30
0.0
  0
VERTEX
  5
DBB
  8
0
  6
CONTINUOUS
 62
     0
 10
86.109677661496875
 20
71.387033548808859
 30
0.0
  0
VERTEX
  5
DBC
  8
0
  6
CONTINUOUS
 62
     0
 10
86.127288299319048
 20
71.49568082624161
 30
0.0
  0
VERTEX
  5
DBD
  8
0
  6
CONTINUOUS
 62
     0
 10
86.142757286956453
 20
71.603980353519233
 30
0.0
  0
VERTEX
  5
DBE
  8
0
  6
CONTINUOUS
 62
     0
 10
86.156080152858195
 20
71.712077776456042
 30
0.0
  0
VERTEX
  5
DBF
  8
0
  6
CONTINUOUS
 62
     0
 10
86.167246380486972
 20
71.820120671713383
 30
0.0
  0
VERTEX
  5
DC0
  8
0
  6
CONTINUOUS
 62
     0
 10
86.176239222223415
 20
71.928259278353877
 30
0.0
  0
VERTEX
  5
DC1
  8
0
  6
CONTINUOUS
 62
     0
 10
86.179913629112292
 20
71.982412340011606
 30
0.0
  0
VERTEX
  5
DC2
  8
0
  6
CONTINUOUS
 62
     0
 10
86.183035464095056
 20
72.036647269173798
 30
0.0
  0
VERTEX
  5
DC3
  8
0
  6
CONTINUOUS
 62
     0
 10
86.187605137255517
 20
72.145442570867161
 30
0.0
  0
VERTEX
  5
DC4
  8
0
  6
CONTINUOUS
 62
     0
 10
86.189911171257336
 20
72.254808243110702
 30
0.0
  0
VERTEX
  5
DC5
  8
0
  6
CONTINUOUS
 62
     0
 10
86.190201697521275
 20
72.309757559875379
 30
0.0
  0
SEQEND
  5
DC6
  8
0
  6
CONTINUOUS
 62
     0
  0
POLYLINE
  5
86B
  8
0
  6
CONTINUOUS
 62
     0
 66
     1
 10
0.0
 20
0.0
 30
0.0
  0
VERTEX
  5
DC7
  8
0
  6
CONTINUOUS
 62
     0
 10
86.190201697521275
 20
68.309757559875365
 30
0.0
  0
VERTEX
  5
DC8
  8
0
  6
CONTINUOUS
 62
     0
 10
86.189911171257336
 20
68.254808243110432
 30
0.0
  0
VERTEX
  5
DC9
  8
0
  6
CONTINUOUS
 62
     0
 10
86.187605137255517
 20
68.145442570866422
 30
0.0
  0
VERTEX
  5
DCA
  8
0
  6
CONTINUOUS
 62
     0
 10
86.183035464095056
 20
68.036647269172647
 30
0.0
  0
VERTEX
  5
DCB
  8
0
  6
CONTINUOUS
 62
     0
 10
86.179913629112292
 20
67.982412340010285
 30
0.0
  0
VERTEX
  5
DCC
  8
0
  6
CONTINUOUS
 62
     0
 10
86.176239222223415
 20
67.9282592783524
 30
0.0
  0
VERTEX
  5
DCD
  8
0
  6
CONTINUOUS
 62
     0
 10
86.167246380486972
 20
67.820120671711635
 30
0.0
  0
VERTEX
  5
DCE
  8
0
  6
CONTINUOUS
 62
     0
 10
86.156080152858195
 20
67.712077776454095
 30
0.0
  0
VERTEX
  5
DCF
  8
0
  6
CONTINUOUS
 62
     0
 10
86.142757286956481
 20
67.603980353517144
 30
0.0
  0
VERTEX
  5
DD0
  8
0
  6
CONTINUOUS
 62
     0
 10
86.127288299319048
 20
67.495680826239436
 30
0.0
  0
VERTEX
  5
DD1
  8
0
  6
CONTINUOUS
 62
     0
 10
86.109677661496875
 20
67.387033548806656
 30
0.0
  0
VERTEX
  5
DD2
  8
0
  6
CONTINUOUS
 62
     0
 10
86.100069003603934
 20
67.332534344644614
 30
0.0
  0
VERTEX
  5
DD3
  8
0
  6
CONTINUOUS
 62
     0
 10
86.089923940272485
 20
67.277894106265236
 30
0.0
  0
VERTEX
  5
DD4
  8
0
  6
CONTINUOUS
 62
     0
 10
86.06801989460493
 20
67.168118638568416
 30
0.0
  0
VERTEX
  5
DD5
  8
0
  6
CONTINUOUS
 62
     0
 10
86.043952531281633
 20
67.057563181648277
 30
0.0
  0
VERTEX
  5
DD6
  8
0
  6
CONTINUOUS
 62
     0
 10
86.017703120682455
 20
66.946083018905185
 30
0.0
  0
VERTEX
  5
DD7
  8
0
  6
CONTINUOUS
 62
     0
 10
85.989247173527474
 20
66.833532036786352
 30
0.0
  0
VERTEX
  5
DD8
  8
0
  6
CONTINUOUS
 62
     0
 10
85.958554378970092
 20
66.719762078295901
 30
0.0
  0
VERTEX
  5
DD9
  8
0
  6
CONTINUOUS
 62
     0
 10
85.942358075965558
 20
66.662372964256974
 30
0.0
  0
VERTEX
  5
DDA
  8
0
  6
CONTINUOUS
 62
     0
 10
85.925588503905217
 20
66.604622288346874
 30
0.0
  0
VERTEX
  5
DDB
  8
0
  6
CONTINUOUS
 62
     0
 10
85.890307252873924
 20
66.487958444833566
 30
0.0
  0
VERTEX
  5
DDC
  8
0
  6
CONTINUOUS
 62
     0
 10
85.852662087454036
 20
66.36961226917127
 30
0.0
  0
VERTEX
  5
DDD
  8
0
  6
CONTINUOUS
 62
     0
 10
85.832936107613108
 20
66.309757559875379
 30
0.0
  0
SEQEND
  5
DDE
  8
0
  6
CONTINUOUS
 62
     0
  0
POLYLINE
  5
86C
  8
0
  6
CONTINUOUS
 62
     0
 66
     1
 10
0.0
 20
0.0
 30
0.0
  0
VERTEX
  5
DDF
  8
0
  6
CONTINUOUS
 62
     0
 10
85.832936107613108
 20
70.309757559875379
 30
0.0
  0
VERTEX
  5
DE0
  8
0
  6
CONTINUOUS
 62
     0
 10
85.852662087454036
 20
70.249902850579275
 30
0.0
  0
VERTEX
  5
DE1
  8
0
  6
CONTINUOUS
 62
     0
 10
85.890307252873896
 20
70.131556674916567
 30
0.0
  0
VERTEX
  5
DE2
  8
0
  6
CONTINUOUS
 62
     0
 10
85.925588503905203
 20
70.014892831402889
 30
0.0
  0
VERTEX
  5
DE3
  8
0
  6
CONTINUOUS
 62
     0
 10
85.942358075965515
 20
69.957142155492619
 30
0.0
  0
VERTEX
  5
DE4
  8
0
  6
CONTINUOUS
 62
     0
 10
85.958554378970064
 20
69.899753041453565
 30
0.0
  0
VERTEX
  5
DE5
  8
0
  6
CONTINUOUS
 62
     0
 10
85.989247173527446
 20
69.785983082962844
 30
0.0
  0
VERTEX
  5
DE6
  8
0
  6
CONTINUOUS
 62
     0
 10
86.017703120682427
 20
69.673432100843783
 30
0.0
  0
VERTEX
  5
DE7
  8
0
  6
CONTINUOUS
 62
     0
 10
86.043952531281604
 20
69.56195193810052
 30
0.0
  0
VERTEX
  5
DE8
  8
0
  6
CONTINUOUS
 62
     0
 10
86.068019894604916
 20
69.45139648118024
 30
0.0
  0
VERTEX
  5
DE9
  8
0
  6
CONTINUOUS
 62
     0
 10
86.089923940272456
 20
69.341621013483334
 30
0.0
  0
VERTEX
  5
DEA
  8
0
  6
CONTINUOUS
 62
     0
 10
86.10006900360392
 20
69.286980775103942
 30
0.0
  0
VERTEX
  5
DEB
  8
0
  6
CONTINUOUS
 62
     0
 10
86.109677661496875
 20
69.2324815709419
 30
0.0
  0
VERTEX
  5
DEC
  8
0
  6
CONTINUOUS
 62
     0
 10
86.127288299319048
 20
69.123834293509134
 30
0.0
  0
VERTEX
  5
DED
  8
0
  6
CONTINUOUS
 62
     0
 10
86.142757286956453
 20
69.015534766231525
 30
0.0
  0
VERTEX
  5
DEE
  8
0
  6
CONTINUOUS
 62
     0
 10
86.156080152858195
 20
68.907437343294717
 30
0.0
  0
VERTEX
  5
DEF
  8
0
  6
CONTINUOUS
 62
     0
 10
86.167246380486972
 20
68.799394448037376
 30
0.0
  0
VERTEX
  5
DF0
  8
0
  6
CONTINUOUS
 62
     0
 10
86.176239222223415
 20
68.691255841396881
 30
0.0
  0
VERTEX
  5
DF1
  8
0
  6
CONTINUOUS
 62
     0
 10
86.179913629112292
 20
68.637102779739152
 30
0.0
  0
VERTEX
  5
DF2
  8
0
  6
CONTINUOUS
 62
     0
 10
86.183035464095056
 20
68.58286785057696
 30
0.0
  0
VERTEX
  5
DF3
  8
0
  6
CONTINUOUS
 62
     0
 10
86.187605137255517
 20
68.474072548883584
 30
0.0
  0
VERTEX
  5
DF4
  8
0
  6
CONTINUOUS
 62
     0
 10
86.189911171257336
 20
68.364706876640057
 30
0.0
  0
VERTEX
  5
DF5
  8
0
  6
CONTINUOUS
 62
     0
 10
86.190201697521275
 20
68.309757559875365
 30
0.0
  0
SEQEND
  5
DF6
  8
0
  6
CONTINUOUS
 62
     0
  0
LINE
  5
86D
  8
0
  6
CONTINUOUS
 62
     0
 10
85.832936107613108
 20
70.309757559875379
 30
0.0
 11
81.190201697521275
 21
70.309757559875379
 31
0.0
  0
POLYLINE
  5
86E
  8
0
  6
CONTINUOUS
 62
     0
 66
     1
 10
0.0
 20
0.0
 30
0.0
  0
VERTEX
  5
DF7
  8
0
  6
CONTINUOUS
 62
     0
 10
86.190201697521275
 20
72.309757559875379
 30
0.0
  0
VERTEX
  5
DF8
  8
0
  6
CONTINUOUS
 62
     0
 10
86.189911171257336
 20
72.254808243110432
 30
0.0
  0
VERTEX
  5
DF9
  8
0
  6
CONTINUOUS
 62
     0
 10
86.187605137255517
 20
72.145442570866422
 30
0.0
  0
VERTEX
  5
DFA
  8
0
  6
CONTINUOUS
 62
     0
 10
86.18303546409507
 20
72.036647269172661
 30
0.0
  0
VERTEX
  5
DFB
  8
0
  6
CONTINUOUS
 62
     0
 10
86.179913629112292
 20
71.982412340010285
 30
0.0
  0
VERTEX
  5
DFC
  8
0
  6
CONTINUOUS
 62
     0
 10
86.176239222223415
 20
71.9282592783524
 30
0.0
  0
VERTEX
  5
DFD
  8
0
  6
CONTINUOUS
 62
     0
 10
86.167246380486972
 20
71.820120671711635
 30
0.0
  0
VERTEX
  5
DFE
  8
0
  6
CONTINUOUS
 62
     0
 10
86.156080152858195
 20
71.712077776454095
 30
0.0
  0
VERTEX
  5
DFF
  8
0
  6
CONTINUOUS
 62
     0
 10
86.142757286956481
 20
71.603980353517144
 30
0.0
  0
VERTEX
  5
E00
  8
0
  6
CONTINUOUS
 62
     0
 10
86.127288299319048
 20
71.495680826239436
 30
0.0
  0
VERTEX
  5
E01
  8
0
  6
CONTINUOUS
 62
     0
 10
86.109677661496875
 20
71.387033548806656
 30
0.0
  0
VERTEX
  5
E02
  8
0
  6
CONTINUOUS
 62
     0
 10
86.100069003603934
 20
71.332534344644614
 30
0.0
  0
VERTEX
  5
E03
  8
0
  6
CONTINUOUS
 62
     0
 10
86.089923940272485
 20
71.277894106265236
 30
0.0
  0
VERTEX
  5
E04
  8
0
  6
CONTINUOUS
 62
     0
 10
86.06801989460493
 20
71.168118638568416
 30
0.0
  0
VERTEX
  5
E05
  8
0
  6
CONTINUOUS
 62
     0
 10
86.043952531281633
 20
71.057563181648277
 30
0.0
  0
VERTEX
  5
E06
  8
0
  6
CONTINUOUS
 62
     0
 10
86.017703120682455
 20
70.946083018905185
 30
0.0
  0
VERTEX
  5
E07
  8
0
  6
CONTINUOUS
 62
     0
 10
85.989247173527474
 20
70.833532036786352
 30
0.0
  0
VERTEX
  5
E08
  8
0
  6
CONTINUOUS
 62
     0
 10
85.958554378970092
 20
70.719762078295901
 30
0.0
  0
VERTEX
  5
E09
  8
0
  6
CONTINUOUS
 62
     0
 10
85.942358075965558
 20
70.662372964256988
 30
0.0
  0
VERTEX
  5
E0A
  8
0
  6
CONTINUOUS
 62
     0
 10
85.925588503905217
 20
70.604622288346889
 30
0.0
  0
VERTEX
  5
E0B
  8
0
  6
CONTINUOUS
 62
     0
 10
85.890307252873924
 20
70.487958444833566
 30
0.0
  0
VERTEX
  5
E0C
  8
0
  6
CONTINUOUS
 62
     0
 10
85.852662087454036
 20
70.36961226917127
 30
0.0
  0
VERTEX
  5
E0D
  8
0
  6
CONTINUOUS
 62
     0
 10
85.832936107613108
 20
70.309757559875379
 30
0.0
  0
SEQEND
  5
E0E
  8
0
  6
CONTINUOUS
 62
     0
  0
POLYLINE
  5
86F
  8
0
  6
CONTINUOUS
 62
     0
 66
     1
 10
0.0
 20
0.0
 30
0.0
  0
VERTEX
  5
E0F
  8
0
  6
CONTINUOUS
 62
     0
 10
85.832936107613108
 20
74.309757559875379
 30
0.0
  0
VERTEX
  5
E10
  8
0
  6
CONTINUOUS
 62
     0
 10
85.852662087454036
 20
74.249902850579275
 30
0.0
  0
VERTEX
  5
E11
  8
0
  6
CONTINUOUS
 62
     0
 10
85.890307252873896
 20
74.131556674916567
 30
0.0
  0
VERTEX
  5
E12
  8
0
  6
CONTINUOUS
 62
     0
 10
85.925588503905203
 20
74.014892831402889
 30
0.0
  0
VERTEX
  5
E13
  8
0
  6
CONTINUOUS
 62
     0
 10
85.942358075965515
 20
73.957142155492605
 30
0.0
  0
VERTEX
  5
E14
  8
0
  6
CONTINUOUS
 62
     0
 10
85.958554378970064
 20
73.899753041453565
 30
0.0
  0
VERTEX
  5
E15
  8
0
  6
CONTINUOUS
 62
     0
 10
85.989247173527446
 20
73.785983082962844
 30
0.0
  0
VERTEX
  5
E16
  8
0
  6
CONTINUOUS
 62
     0
 10
86.017703120682427
 20
73.673432100843783
 30
0.0
  0
VERTEX
  5
E17
  8
0
  6
CONTINUOUS
 62
     0
 10
86.043952531281604
 20
73.56195193810052
 30
0.0
  0
VERTEX
  5
E18
  8
0
  6
CONTINUOUS
 62
     0
 10
86.068019894604916
 20
73.45139648118024
 30
0.0
  0
VERTEX
  5
E19
  8
0
  6
CONTINUOUS
 62
     0
 10
86.089923940272456
 20
73.341621013483348
 30
0.0
  0
VERTEX
  5
E1A
  8
0
  6
CONTINUOUS
 62
     0
 10
86.10006900360392
 20
73.286980775103942
 30
0.0
  0
VERTEX
  5
E1B
  8
0
  6
CONTINUOUS
 62
     0
 10
86.109677661496875
 20
73.2324815709419
 30
0.0
  0
VERTEX
  5
E1C
  8
0
  6
CONTINUOUS
 62
     0
 10
86.127288299319048
 20
73.123834293509148
 30
0.0
  0
VERTEX
  5
E1D
  8
0
  6
CONTINUOUS
 62
     0
 10
86.142757286956453
 20
73.015534766231511
 30
0.0
  0
VERTEX
  5
E1E
  8
0
  6
CONTINUOUS
 62
     0
 10
86.156080152858195
 20
72.907437343294717
 30
0.0
  0
VERTEX
  5
E1F
  8
0
  6
CONTINUOUS
 62
     0
 10
86.167246380486972
 20
72.799394448037376
 30
0.0
  0
VERTEX
  5
E20
  8
0
  6
CONTINUOUS
 62
     0
 10
86.176239222223415
 20
72.691255841396881
 30
0.0
  0
VERTEX
  5
E21
  8
0
  6
CONTINUOUS
 62
     0
 10
86.179913629112292
 20
72.637102779739152
 30
0.0
  0
VERTEX
  5
E22
  8
0
  6
CONTINUOUS
 62
     0
 10
86.183035464095056
 20
72.582867850576946
 30
0.0
  0
VERTEX
  5
E23
  8
0
  6
CONTINUOUS
 62
     0
 10
86.187605137255517
 20
72.474072548883584
 30
0.0
  0
VERTEX
  5
E24
  8
0
  6
CONTINUOUS
 62
     0
 10
86.189911171257336
 20
72.364706876640057
 30
0.0
  0
VERTEX
  5
E25
  8
0
  6
CONTINUOUS
 62
     0
 10
86.190201697521275
 20
72.309757559875379
 30
0.0
  0
SEQEND
  5
E26
  8
0
  6
CONTINUOUS
 62
     0
  0
LINE
  5
870
  8
0
  6
CONTINUOUS
 62
     0
 10
81.190201697521275
 20
66.309757559875379
 30
0.0
 11
81.190201697521275
 21
74.309757559875379
 31
0.0
  0
POLYLINE
  5
871
  8
0
  6
CONTINUOUS
 62
     0
 66
     1
 10
0.0
 20
0.0
 30
0.0
  0
VERTEX
  5
E27
  8
0
  6
CONTINUOUS
 62
     0
 10
85.917613876808275
 20
74.309757559875379
 30
0.0
  0
VERTEX
  5
E28
  8
0
  6
CONTINUOUS
 62
     0
 10
85.904347600508956
 20
74.309757559875379
 30
0.0
  0
VERTEX
  5
E29
  8
0
  6
CONTINUOUS
 62
     0
 10
85.876807594021756
 20
74.309757559875379
 30
0.0
  0
VERTEX
  5
E2A
  8
0
  6
CONTINUOUS
 62
     0
 10
85.84790549783358
 20
74.309757559875379
 30
0.0
  0
VERTEX
  5
E2B
  8
0
  6
CONTINUOUS
 62
     0
 10
85.832936107613108
 20
74.309757559875379
 30
0.0
  0
SEQEND
  5
E2C
  8
0
  6
CONTINUOUS
 62
     0
  0
LINE
  5
872
  8
0
  6
CONTINUOUS
 62
     0
 10
69.190201697521275
 20
72.696257559875363
 30
0.0
 11
69.190201697521275
 21
67.923257559875381
 31
0.0
  0
LINE
  5
873
  8
0
  6
CONTINUOUS
 62
     0
 10
69.803701697521262
 20
73.309757559875365
 30
0.0
 11
69.803701697521262
 21
67.309757559875379
 31
0.0
  0
LINE
  5
876
  8
0
  6
CONTINUOUS
 62
     0
 10
96.119347458934797
 20
77.309757559875379
 30
0.0
 11
96.119347458934797
 21
63.309757559875372
 31
0.0
  0
LINE
  5
877
  8
0
  6
CONTINUOUS
 62
     0
 10
96.390201697521292
 20
77.309757559875379
 30
0.0
 11
96.390201697521263
 21
63.309757559875372
 31
0.0
  0
LINE
  5
878
  8
0
  6
CONTINUOUS
 62
     0
 10
97.190201697521275
 20
76.509757559875382
 30
0.0
 11
97.190201697521275
 21
64.109757559875376
 31
0.0
  0
LINE
  5
879
  8
0
  6
CONTINUOUS
 62
     0
 10
91.990201697521272
 20
74.309757559875379
 30
0.0
 11
81.190201697521275
 21
74.309757559875379
 31
0.0
  0
LINE
  5
87A
  8
0
  6
CONTINUOUS
 62
     0
 10
81.190201697521275
 20
66.309757559875379
 30
0.0
 11
91.990201697521272
 21
66.309757559875379
 31
0.0
  0
LINE
  5
87B
  8
0
  6
CONTINUOUS
 62
     0
 10
81.190201697521275
 20
73.309757559875365
 30
0.0
 11
76.690201697521275
 21
73.309757559875365
 31
0.0
  0
LINE
  5
87C
  8
0
  6
CONTINUOUS
 62
     0
 10
76.690201697521275
 20
67.309757559875379
 30
0.0
 11
81.190201697521275
 21
67.309757559875379
 31
0.0
  0
LINE
  5
87D
  8
0
  6
CONTINUOUS
 62
     0
 10
69.803701697521262
 20
73.309757559875365
 30
0.0
 11
69.190201697521275
 21
72.696257559875363
 31
0.0
  0
LINE
  5
87E
  8
0
  6
CONTINUOUS
 62
     0
 10
69.190201697521275
 20
67.923257559875381
 30
0.0
 11
69.803701697521262
 21
67.309757559875379
 31
0.0
  0
LINE
  5
87F
  8
0
  6
CONTINUOUS
 62
     0
 10
73.690201697521275
 20
73.309757559875365
 30
0.0
 11
69.803701697521262
 21
73.309757559875365
 31
0.0
  0
LINE
  5
880
  8
0
  6
CONTINUOUS
 62
     0
 10
69.803701697521262
 20
67.309757559875379
 30
0.0
 11
73.690201697521275
 21
67.309757559875379
 31
0.0
  0
LINE
  5
885
  8
0
  6
CONTINUOUS
 62
     0
 10
96.119347458934797
 20
77.309757559875379
 30
0.0
 11
91.990201697521272
 21
74.309757559875379
 31
0.0
  0
LINE
  5
886
  8
0
  6
CONTINUOUS
 62
     0
 10
91.990201697521272
 20
66.309757559875379
 30
0.0
 11
96.119347458934797
 21
63.309757559875372
 31
0.0
  0
LINE
  5
887
  8
0
  6
CONTINUOUS
 62
     0
 10
96.390201697521292
 20
77.309757559875379
 30
0.0
 11
96.119347458934797
 21
77.309757559875379
 31
0.0
  0
LINE
  5
888
  8
0
  6
CONTINUOUS
 62
     0
 10
96.119347458934797
 20
63.309757559875372
 30
0.0
 11
96.390201697521263
 21
63.309757559875372
 31
0.0
  0
ARC
  5
889
  8
0
  6
CONTINUOUS
 62
     0
 10
96.390201697521292
 20
64.109757559875362
 30
0.0
 40
0.7999999999999999
 50
270.0
 51
0.0
  0
ARC
  5
88A
  8
0
  6
CONTINUOUS
 62
     0
 10
96.390201697521292
 20
76.509757559875368
 30
0.0
 40
0.7999999999999991
 50
0.0
 51
90.0
  0
ARC
  5
88B
  8
2
 10
105.39020169752121
 20
70.309757559875379
 30
0.0
 40
9.9999999999999645
 50
145.0847937525561
 51
214.91520624744459
  0
LINE
  5
897
  8
1
 10
132.94463966077379
 20
30.309757559875379
 30
0.0
 11
152.94463966077379
 21
30.309757559875379
 31
0.0
  0
CIRCLE
  5
898
  8
0
 10
142.94463966077379
 20
30.309757559875379
 30
0.0
 40
7.0
  0
LINE
  5
899
  8
1
 10
142.94463966077379
 20
40.309757559875379
 30
0.0
 11
142.94463966077379
 21
20.309757559875379
 31
0.0
  0
CIRCLE
  5
8A0
  8
3
 10
26.115849080650829
 20
30.309757559875379
 30
0.0
 40
2.3864999999999981
  0
LINE
  5
8A5
  8
2
 10
26.115849080650829
 20
34.928559713392389
 30
0.0
 11
30.11584908065084
 21
32.619158636633877
 31
0.0
  0
LINE
  5
8A6
  8
2
 10
30.11584908065084
 20
32.619158636633877
 30
0.0
 11
30.11584908065084
 21
28.000356483116882
 31
0.0
  0
LINE
  5
8A7
  8
2
 10
30.11584908065084
 20
28.000356483116882
 30
0.0
 11
26.115849080650829
 21
25.69095540635837
 31
0.0
  0
LINE
  5
8A9
  8
2
 10
26.115849080650829
 20
25.69095540635837
 30
0.0
 11
22.115849080650829
 21
28.000356483116882
 31
0.0
  0
LINE
  5
8AA
  8
2
 10
22.115849080650829
 20
28.000356483116882
 30
0.0
 11
22.115849080650829
 21
32.619158636633877
 31
0.0
  0
LINE
  5
8AB
  8
2
 10
22.115849080650829
 20
32.619158636633877
 30
0.0
 11
26.115849080650829
 21
34.928559713392389
 31
0.0
  0
LINE
  5
96F
  8
3
 10
76.690201697521275
 20
32.696257559875392
 30
0.0
 11
79.190201697521275
 21
32.696257559875377
 31
0.0
  0
LINE
  5
970
  8
3
 10
76.690201697521275
 20
27.923257559875388
 30
0.0
 11
79.190201697521275
 21
27.923257559875381
 31
0.0
  0
LINE
  5
971
  8
3
 10
76.690201697521275
 20
72.696257559875392
 30
0.0
 11
79.190201697521275
 21
72.696257559875363
 31
0.0
  0
LINE
  5
972
  8
3
 10
76.690201697521275
 20
67.923257559875381
 30
0.0
 11
79.190201697521275
 21
67.923257559875381
 31
0.0
  0
LINE
  5
990
  8
0
 10
65.93072683581093
 20
71.486744597862071
 30
0.0
 11
65.93072683581093
 21
69.132770521888659
 31
0.0
  0
ARC
  5
991
  8
0
 10
68.690201697521275
 20
70.309757559875365
 30
0.0
 40
3.0
 50
156.90050479442371
 51
203.09949520557629
  0
LINE
  5
992
  8
0
  6
CONTINUOUS
 62
     0
 10
66.490201697521286
 20
68.809757559875365
 30
0.0
 11
69.190201697521275
 21
68.809757559875365
 31
0.0
  0
LINE
  5
993
  8
0
  6
CONTINUOUS
 62
     0
 10
69.190201697521275
 20
71.809757559875365
 30
0.0
 11
66.490201697521286
 21
71.809757559875365
 31
0.0
  0
LINE
  5
994
  8
0
  6
CONTINUOUS
 62
     0
 10
65.93072683581093
 20
69.132770521888659
 30
0.0
 11
66.490201697521286
 21
68.809757559875365
 31
0.0
  0
LINE
  5
995
  8
0
  6
CONTINUOUS
 62
     0
 10
66.490201697521286
 20
71.809757559875365
 30
0.0
 11
65.93072683581093
 21
71.486744597862071
 31
0.0
  0
LINE
  5
996
  8
0
  6
CONTINUOUS
 62
     0
 10
66.490201697521286
 20
71.809757559875365
 30
0.0
 11
66.490201697521286
 21
68.809757559875365
 31
0.0
  0
LINE
  5
997
  8
0
  6
CONTINUOUS
 62
     0
 10
66.490201697521286
 20
31.809757559875379
 30
0.0
 11
66.490201697521286
 21
28.809757559875379
 31
0.0
  0
LINE
  5
998
  8
0
  6
CONTINUOUS
 62
     0
 10
66.490201697521286
 20
31.809757559875379
 30
0.0
 11
65.93072683581093
 21
31.486744597862089
 31
0.0
  0
LINE
  5
999
  8
0
  6
CONTINUOUS
 62
     0
 10
65.93072683581093
 20
29.13277052188867
 30
0.0
 11
66.490201697521286
 21
28.809757559875379
 31
0.0
  0
LINE
  5
99A
  8
0
  6
CONTINUOUS
 62
     0
 10
69.190201697521275
 20
31.809757559875379
 30
0.0
 11
66.490201697521286
 21
31.809757559875379
 31
0.0
  0
LINE
  5
99B
  8
0
  6
CONTINUOUS
 62
     0
 10
66.490201697521286
 20
28.809757559875379
 30
0.0
 11
69.190201697521275
 21
28.809757559875379
 31
0.0
  0
ARC
  5
99C
  8
0
 10
68.690201697521275
 20
30.309757559875379
 30
0.0
 40
3.0
 50
156.90050479442371
 51
203.09949520557629
  0
LINE
  5
99D
  8
0
 10
65.93072683581093
 20
31.486744597862089
 30
0.0
 11
65.93072683581093
 21
29.13277052188867
 31
0.0
  0
LINE
  5
A01
  8
3
 10
79.190201697521275
 20
72.696257559875363
 30
0.0
 11
80.252814867964787
 21
73.309757559875365
 31
0.0
  0
LINE
  5
A03
  8
3
 10
79.190201697521275
 20
67.923257559875381
 30
0.0
 11
80.252814867964815
 21
67.309757559875379
 31
0.0
  0
LINE
  5
A04
  8
3
 10
79.190201697521275
 20
32.696257559875413
 30
0.0
 11
80.252814867964787
 21
33.309757559875408
 31
0.0
  0
LINE
  5
A05
  8
3
 10
79.190201697521275
 20
27.92325755987541
 30
0.0
 11
80.252814867964815
 21
27.309757559875411
 31
0.0
  0
TEXT
  5
AD5
  8
0
 62
     3
 10
0.0
 20
0.0
 30
0.0
 40
5.0
  1
NDXN6LW-SUS
  7
STANDARD1
  0
ENDSEC
  0
EOF
